ISO-10303-21;
HEADER;
FILE_DESCRIPTION(('no description'),'unknown implementation level');
FILE_NAME('solidYM4yB0ANX5IeakQgkiXD1udXr_g_1.STP','  ',('CIMSOURCE GmbH'),('CADClick - KiM GmbH - www.kimweb.de'),'unknown preprocess','ACIS','unknown authorization');
FILE_SCHEMA(('automotive_design'));
ENDSEC;
DATA;
#1=MECHANICAL_DESIGN_GEOMETRIC_PRESENTATION_REPRESENTATION(' ',(#10,#11,#12,#13,#14,#15,#16,#17,#18,#19,#20,#21,#22,#23,#24,#25,#26,#27,#28,#29,#30,#31,#32,#33,#34,#35,#36,#37,#38,#39,#40,#41,#42,#43,#44,#45,#46,#47,#48,#49,#50,#51,#52,#53,#54,#55,#56,#57,#58,#59,#60),#6);
#2=PRODUCT_DEFINITION_CONTEXT('',#61,'design');
#3=APPLICATION_PROTOCOL_DEFINITION('INTERNATIONAL STANDARD','automotive_design',1994,#61);
#4=PRODUCT_CATEGORY_RELATIONSHIP('NONE','NONE',#62,#63);
#5=SHAPE_DEFINITION_REPRESENTATION(#64,#65);
#6= (GEOMETRIC_REPRESENTATION_CONTEXT(3)GLOBAL_UNCERTAINTY_ASSIGNED_CONTEXT((#68))GLOBAL_UNIT_ASSIGNED_CONTEXT((#70,#71,#72))REPRESENTATION_CONTEXT('NONE','WORKSPACE'));
#10=STYLED_ITEM('',(#74),#75);
#11=STYLED_ITEM('',(#76),#77);
#12=STYLED_ITEM('',(#78),#79);
#13=STYLED_ITEM('',(#80),#81);
#14=STYLED_ITEM('',(#82),#83);
#15=STYLED_ITEM('',(#84),#85);
#16=STYLED_ITEM('',(#86),#87);
#17=STYLED_ITEM('',(#88),#89);
#18=STYLED_ITEM('',(#90),#91);
#19=STYLED_ITEM('',(#92),#93);
#20=STYLED_ITEM('',(#94),#95);
#21=STYLED_ITEM('',(#96),#97);
#22=STYLED_ITEM('',(#98),#99);
#23=STYLED_ITEM('',(#100),#101);
#24=STYLED_ITEM('',(#102),#103);
#25=STYLED_ITEM('',(#104),#105);
#26=STYLED_ITEM('',(#106),#107);
#27=STYLED_ITEM('',(#108),#109);
#28=STYLED_ITEM('',(#110),#111);
#29=STYLED_ITEM('',(#112),#113);
#30=STYLED_ITEM('',(#114),#115);
#31=STYLED_ITEM('',(#116),#117);
#32=STYLED_ITEM('',(#118),#119);
#33=STYLED_ITEM('',(#120),#121);
#34=STYLED_ITEM('',(#122),#123);
#35=STYLED_ITEM('',(#124),#125);
#36=STYLED_ITEM('',(#126),#127);
#37=STYLED_ITEM('',(#128),#129);
#38=STYLED_ITEM('',(#130),#131);
#39=STYLED_ITEM('',(#132),#133);
#40=STYLED_ITEM('',(#134),#135);
#41=STYLED_ITEM('',(#136),#137);
#42=STYLED_ITEM('',(#138),#139);
#43=STYLED_ITEM('',(#140),#141);
#44=STYLED_ITEM('',(#142),#143);
#45=STYLED_ITEM('',(#144),#145);
#46=STYLED_ITEM('',(#146),#147);
#47=STYLED_ITEM('',(#148),#149);
#48=STYLED_ITEM('',(#150),#151);
#49=STYLED_ITEM('',(#152),#153);
#50=STYLED_ITEM('',(#154),#155);
#51=STYLED_ITEM('',(#156),#157);
#52=STYLED_ITEM('',(#158),#159);
#53=STYLED_ITEM('',(#160),#161);
#54=STYLED_ITEM('',(#162),#163);
#55=STYLED_ITEM('',(#164),#165);
#56=STYLED_ITEM('',(#166),#167);
#57=STYLED_ITEM('',(#168),#169);
#58=STYLED_ITEM('',(#170),#171);
#59=STYLED_ITEM('',(#172),#173);
#60=STYLED_ITEM('',(#174),#175);
#61=APPLICATION_CONTEXT(' ');
#62=PRODUCT_CATEGORY('part','NONE');
#63=PRODUCT_RELATED_PRODUCT_CATEGORY('detail',' ',(#176));
#64=PRODUCT_DEFINITION_SHAPE('NONE','NONE',#177);
#65=ADVANCED_BREP_SHAPE_REPRESENTATION('1',(#117,#178),#6);
#68=UNCERTAINTY_MEASURE_WITH_UNIT(LENGTH_MEASURE(1.0E-006),#70,'','');
#70= (CONVERSION_BASED_UNIT('MILLIMETRE',#181)LENGTH_UNIT()NAMED_UNIT(#184));
#71= (NAMED_UNIT(#186)PLANE_ANGLE_UNIT()SI_UNIT($,.RADIAN.));
#72= (NAMED_UNIT(#186)SOLID_ANGLE_UNIT()SI_UNIT($,.STERADIAN.));
#74=PRESENTATION_STYLE_ASSIGNMENT((#192));
#75=VERTEX_POINT('',#193);
#76=PRESENTATION_STYLE_ASSIGNMENT((#194));
#77=EDGE_CURVE('',#143,#131,#195,.T.);
#78=PRESENTATION_STYLE_ASSIGNMENT((#196));
#79=EDGE_CURVE('',#141,#89,#197,.T.);
#80=PRESENTATION_STYLE_ASSIGNMENT((#198));
#81=ADVANCED_FACE('',(#199),#200,.T.);
#82=PRESENTATION_STYLE_ASSIGNMENT((#201));
#83=EDGE_CURVE('',#87,#123,#202,.T.);
#84=PRESENTATION_STYLE_ASSIGNMENT((#203));
#85=ADVANCED_FACE('',(#204),#205,.F.);
#86=PRESENTATION_STYLE_ASSIGNMENT((#206));
#87=VERTEX_POINT('',#207);
#88=PRESENTATION_STYLE_ASSIGNMENT((#208));
#89=VERTEX_POINT('',#209);
#90=PRESENTATION_STYLE_ASSIGNMENT((#210));
#91=EDGE_CURVE('',#133,#75,#211,.T.);
#92=PRESENTATION_STYLE_ASSIGNMENT((#212));
#93=EDGE_CURVE('',#135,#133,#213,.T.);
#94=PRESENTATION_STYLE_ASSIGNMENT((#214));
#95=EDGE_CURVE('',#121,#127,#215,.T.);
#96=PRESENTATION_STYLE_ASSIGNMENT((#216));
#97=ADVANCED_FACE('',(#217),#218,.T.);
#98=PRESENTATION_STYLE_ASSIGNMENT((#219));
#99=EDGE_CURVE('',#75,#151,#220,.T.);
#100=PRESENTATION_STYLE_ASSIGNMENT((#221));
#101=ADVANCED_FACE('',(#222),#223,.T.);
#102=PRESENTATION_STYLE_ASSIGNMENT((#224));
#103=VERTEX_POINT('',#225);
#104=PRESENTATION_STYLE_ASSIGNMENT((#226));
#105=EDGE_CURVE('',#159,#135,#227,.T.);
#106=PRESENTATION_STYLE_ASSIGNMENT((#228));
#107=ADVANCED_FACE('',(#229),#230,.T.);
#108=PRESENTATION_STYLE_ASSIGNMENT((#231));
#109=EDGE_CURVE('',#125,#143,#232,.T.);
#110=PRESENTATION_STYLE_ASSIGNMENT((#233));
#111=EDGE_CURVE('',#103,#131,#234,.T.);
#112=PRESENTATION_STYLE_ASSIGNMENT((#235));
#113=ADVANCED_FACE('',(#236),#237,.T.);
#114=PRESENTATION_STYLE_ASSIGNMENT((#238));
#115=EDGE_CURVE('',#89,#137,#239,.T.);
#116=PRESENTATION_STYLE_ASSIGNMENT((#240));
#117=MANIFOLD_SOLID_BREP('1',#241);
#118=PRESENTATION_STYLE_ASSIGNMENT((#242));
#119=ADVANCED_FACE('',(#243),#244,.T.);
#120=PRESENTATION_STYLE_ASSIGNMENT((#245));
#121=VERTEX_POINT('',#246);
#122=PRESENTATION_STYLE_ASSIGNMENT((#247));
#123=VERTEX_POINT('',#248);
#124=PRESENTATION_STYLE_ASSIGNMENT((#249));
#125=VERTEX_POINT('',#250);
#126=PRESENTATION_STYLE_ASSIGNMENT((#251));
#127=VERTEX_POINT('',#252);
#128=PRESENTATION_STYLE_ASSIGNMENT((#253));
#129=ADVANCED_FACE('',(#254),#255,.T.);
#130=PRESENTATION_STYLE_ASSIGNMENT((#256));
#131=VERTEX_POINT('',#257);
#132=PRESENTATION_STYLE_ASSIGNMENT((#258));
#133=VERTEX_POINT('',#259);
#134=PRESENTATION_STYLE_ASSIGNMENT((#260));
#135=VERTEX_POINT('',#261);
#136=PRESENTATION_STYLE_ASSIGNMENT((#262));
#137=VERTEX_POINT('',#263);
#138=PRESENTATION_STYLE_ASSIGNMENT((#264));
#139=EDGE_CURVE('',#87,#121,#265,.T.);
#140=PRESENTATION_STYLE_ASSIGNMENT((#266));
#141=VERTEX_POINT('',#267);
#142=PRESENTATION_STYLE_ASSIGNMENT((#268));
#143=VERTEX_POINT('',#269);
#144=PRESENTATION_STYLE_ASSIGNMENT((#270));
#145=EDGE_CURVE('',#151,#123,#271,.T.);
#146=PRESENTATION_STYLE_ASSIGNMENT((#272));
#147=EDGE_CURVE('',#123,#127,#273,.T.);
#148=PRESENTATION_STYLE_ASSIGNMENT((#274));
#149=EDGE_CURVE('',#135,#89,#275,.T.);
#150=PRESENTATION_STYLE_ASSIGNMENT((#276));
#151=VERTEX_POINT('',#277);
#152=PRESENTATION_STYLE_ASSIGNMENT((#278));
#153=EDGE_CURVE('',#131,#141,#279,.T.);
#154=PRESENTATION_STYLE_ASSIGNMENT((#280));
#155=EDGE_CURVE('',#133,#137,#281,.T.);
#156=PRESENTATION_STYLE_ASSIGNMENT((#282));
#157=EDGE_CURVE('',#121,#125,#283,.T.);
#158=PRESENTATION_STYLE_ASSIGNMENT((#284));
#159=VERTEX_POINT('',#285);
#160=PRESENTATION_STYLE_ASSIGNMENT((#286));
#161=EDGE_CURVE('',#103,#159,#287,.T.);
#162=PRESENTATION_STYLE_ASSIGNMENT((#288));
#163=ADVANCED_FACE('',(#289),#290,.T.);
#164=PRESENTATION_STYLE_ASSIGNMENT((#291));
#165=EDGE_CURVE('',#137,#151,#292,.T.);
#166=PRESENTATION_STYLE_ASSIGNMENT((#293));
#167=EDGE_CURVE('',#127,#143,#294,.T.);
#168=PRESENTATION_STYLE_ASSIGNMENT((#295));
#169=EDGE_CURVE('',#125,#103,#296,.T.);
#170=PRESENTATION_STYLE_ASSIGNMENT((#297));
#171=EDGE_CURVE('',#159,#141,#298,.T.);
#172=PRESENTATION_STYLE_ASSIGNMENT((#299));
#173=EDGE_CURVE('',#75,#87,#300,.T.);
#174=PRESENTATION_STYLE_ASSIGNMENT((#301));
#175=ADVANCED_FACE('',(#302),#303,.T.);
#176=PRODUCT('1','1','PART-1-DESC',(#304));
#177=PRODUCT_DEFINITION('NONE','NONE',#305,#2);
#178=AXIS2_PLACEMENT_3D('',#306,#307,#308);
#181=LENGTH_MEASURE_WITH_UNIT(LENGTH_MEASURE(1.0),#309);
#184=DIMENSIONAL_EXPONENTS(1.0,0.0,0.0,0.0,0.0,0.0,0.0);
#186=DIMENSIONAL_EXPONENTS(0.0,0.0,0.0,0.0,0.0,0.0,0.0);
#192=POINT_STYLE(' ',#310,POSITIVE_LENGTH_MEASURE(1.0E-006),#311);
#193=CARTESIAN_POINT('',(5.8299999999,0.4,0.0));
#194=CURVE_STYLE('',#312,POSITIVE_LENGTH_MEASURE(1.0E-006),#313);
#195=CIRCLE('',#314,0.0627019967142607);
#196=CURVE_STYLE('',#315,POSITIVE_LENGTH_MEASURE(1.0E-006),#316);
#197=CIRCLE('',#317,0.0627019967142597);
#198=SURFACE_STYLE_USAGE(.BOTH.,#318);
#199=FACE_OUTER_BOUND('',#319,.T.);
#200=PLANE('',#320);
#201=CURVE_STYLE('',#321,POSITIVE_LENGTH_MEASURE(1.0E-006),#322);
#202=LINE('',#323,#324);
#203=SURFACE_STYLE_USAGE(.BOTH.,#325);
#204=FACE_OUTER_BOUND('',#326,.T.);
#205=PLANE('',#327);
#206=POINT_STYLE(' ',#328,POSITIVE_LENGTH_MEASURE(1.0E-006),#329);
#207=CARTESIAN_POINT('',(5.83,5.43,0.0));
#208=POINT_STYLE(' ',#330,POSITIVE_LENGTH_MEASURE(1.0E-006),#331);
#209=CARTESIAN_POINT('',(0.4,0.337298003285741,-2.4));
#210=CURVE_STYLE('',#332,POSITIVE_LENGTH_MEASURE(1.0E-006),#333);
#211=CIRCLE('',#334,0.4);
#212=CURVE_STYLE('',#335,POSITIVE_LENGTH_MEASURE(1.0E-006),#336);
#213=LINE('',#337,#338);
#214=CURVE_STYLE('',#339,POSITIVE_LENGTH_MEASURE(1.0E-006),#340);
#215=LINE('',#341,#342);
#216=SURFACE_STYLE_USAGE(.BOTH.,#343);
#217=FACE_OUTER_BOUND('',#344,.T.);
#218=PLANE('',#345);
#219=CURVE_STYLE('',#346,POSITIVE_LENGTH_MEASURE(1.0E-006),#347);
#220=LINE('',#348,#349);
#221=SURFACE_STYLE_USAGE(.BOTH.,#350);
#222=FACE_OUTER_BOUND('',#351,.T.);
#223=CONICAL_SURFACE('',#352,0.400000000000001,0.139626340159547);
#224=POINT_STYLE(' ',#353,POSITIVE_LENGTH_MEASURE(1.0E-006),#354);
#225=CARTESIAN_POINT('',(9.99991200956174E-011,5.43,0.0));
#226=CURVE_STYLE('',#355,POSITIVE_LENGTH_MEASURE(1.0E-006),#356);
#227=CIRCLE('',#357,0.4);
#228=SURFACE_STYLE_USAGE(.BOTH.,#358);
#229=FACE_OUTER_BOUND('',#359,.T.);
#230=CONICAL_SURFACE('',#360,0.400000000000001,0.139626340159547);
#231=CURVE_STYLE('',#361,POSITIVE_LENGTH_MEASURE(1.0E-006),#362);
#232=LINE('',#363,#364);
#233=CURVE_STYLE('',#365,POSITIVE_LENGTH_MEASURE(1.0E-006),#366);
#234=LINE('',#367,#368);
#235=SURFACE_STYLE_USAGE(.BOTH.,#369);
#236=FACE_OUTER_BOUND('',#370,.T.);
#237=CONICAL_SURFACE('',#371,0.4,0.139626340159547);
#238=CURVE_STYLE('',#372,POSITIVE_LENGTH_MEASURE(1.0E-006),#373);
#239=LINE('',#374,#375);
#240=SURFACE_STYLE_USAGE(.BOTH.,#376);
#241=CLOSED_SHELL('',(#113,#81,#107,#129,#101,#97,#163,#119,#85,#175));
#242=SURFACE_STYLE_USAGE(.BOTH.,#377);
#243=FACE_OUTER_BOUND('',#378,.T.);
#244=PLANE('',#379);
#245=POINT_STYLE(' ',#380,POSITIVE_LENGTH_MEASURE(1.0E-006),#381);
#246=CARTESIAN_POINT('',(5.43,5.8299999999,0.0));
#247=POINT_STYLE(' ',#382,POSITIVE_LENGTH_MEASURE(1.0E-006),#383);
#248=CARTESIAN_POINT('',(5.49270199661426,5.42999999991567,-2.4));
#249=POINT_STYLE(' ',#384,POSITIVE_LENGTH_MEASURE(1.0E-006),#385);
#250=CARTESIAN_POINT('',(0.4,5.83,0.0));
#251=POINT_STYLE(' ',#386,POSITIVE_LENGTH_MEASURE(1.0E-006),#387);
#252=CARTESIAN_POINT('',(5.43,5.49270199671426,-2.4));
#253=SURFACE_STYLE_USAGE(.BOTH.,#388);
#254=FACE_OUTER_BOUND('',#389,.T.);
#255=PLANE('',#390);
#256=POINT_STYLE(' ',#391,POSITIVE_LENGTH_MEASURE(1.0E-006),#392);
#257=CARTESIAN_POINT('',(0.337298003285741,5.43,-2.4));
#258=POINT_STYLE(' ',#393,POSITIVE_LENGTH_MEASURE(1.0E-006),#394);
#259=CARTESIAN_POINT('',(5.43,0.0,0.0));
#260=POINT_STYLE(' ',#395,POSITIVE_LENGTH_MEASURE(1.0E-006),#396);
#261=CARTESIAN_POINT('',(0.4,0.0,0.0));
#262=POINT_STYLE(' ',#397,POSITIVE_LENGTH_MEASURE(1.0E-006),#398);
#263=CARTESIAN_POINT('',(5.42999999991568,0.33729800338574,-2.4));
#264=CURVE_STYLE('',#399,POSITIVE_LENGTH_MEASURE(1.0E-006),#400);
#265=CIRCLE('',#401,0.400000000000001);
#266=POINT_STYLE(' ',#402,POSITIVE_LENGTH_MEASURE(1.0E-006),#403);
#267=CARTESIAN_POINT('',(0.33729800338574,0.400000000084325,-2.4));
#268=POINT_STYLE(' ',#404,POSITIVE_LENGTH_MEASURE(1.0E-006),#405);
#269=CARTESIAN_POINT('',(0.400000000084325,5.49270199661426,-2.4));
#270=CURVE_STYLE('',#406,POSITIVE_LENGTH_MEASURE(1.0E-006),#407);
#271=LINE('',#408,#409);
#272=CURVE_STYLE('',#410,POSITIVE_LENGTH_MEASURE(1.0E-006),#411);
#273=CIRCLE('',#412,0.0627019967142607);
#274=CURVE_STYLE('',#413,POSITIVE_LENGTH_MEASURE(1.0E-006),#414);
#275=LINE('',#415,#416);
#276=POINT_STYLE(' ',#417,POSITIVE_LENGTH_MEASURE(1.0E-006),#418);
#277=CARTESIAN_POINT('',(5.49270199671426,0.4,-2.4));
#278=CURVE_STYLE('',#419,POSITIVE_LENGTH_MEASURE(1.0E-006),#420);
#279=LINE('',#421,#422);
#280=CURVE_STYLE('',#423,POSITIVE_LENGTH_MEASURE(1.0E-006),#424);
#281=LINE('',#425,#426);
#282=CURVE_STYLE('',#427,POSITIVE_LENGTH_MEASURE(1.0E-006),#428);
#283=LINE('',#429,#430);
#284=POINT_STYLE(' ',#431,POSITIVE_LENGTH_MEASURE(1.0E-006),#432);
#285=CARTESIAN_POINT('',(0.0,0.4,0.0));
#286=CURVE_STYLE('',#433,POSITIVE_LENGTH_MEASURE(1.0E-006),#434);
#287=LINE('',#435,#436);
#288=SURFACE_STYLE_USAGE(.BOTH.,#437);
#289=FACE_OUTER_BOUND('',#438,.T.);
#290=CONICAL_SURFACE('',#439,0.4,0.139626340159547);
#291=CURVE_STYLE('',#440,POSITIVE_LENGTH_MEASURE(1.0E-006),#441);
#292=CIRCLE('',#442,0.0627019967142595);
#293=CURVE_STYLE('',#443,POSITIVE_LENGTH_MEASURE(1.0E-006),#444);
#294=LINE('',#445,#446);
#295=CURVE_STYLE('',#447,POSITIVE_LENGTH_MEASURE(1.0E-006),#448);
#296=CIRCLE('',#449,0.400000000000001);
#297=CURVE_STYLE('',#450,POSITIVE_LENGTH_MEASURE(1.0E-006),#451);
#298=LINE('',#452,#453);
#299=CURVE_STYLE('',#454,POSITIVE_LENGTH_MEASURE(1.0E-006),#455);
#300=LINE('',#456,#457);
#301=SURFACE_STYLE_USAGE(.BOTH.,#458);
#302=FACE_OUTER_BOUND('',#459,.T.);
#303=PLANE('',#460);
#304=PRODUCT_CONTEXT('',#61,'mechanical');
#305=PRODUCT_DEFINITION_FORMATION_WITH_SPECIFIED_SOURCE(' ','NONE',#176,.NOT_KNOWN.);
#306=CARTESIAN_POINT('',(0.0,0.0,0.0));
#307=DIRECTION('',(0.0,0.0,1.0));
#308=DIRECTION('',(1.0,0.0,0.0));
#309= (NAMED_UNIT(#184)LENGTH_UNIT()SI_UNIT(.MILLI.,.METRE.));
#310=PRE_DEFINED_MARKER('');
#311=COLOUR_RGB('',0.800000011920929,0.800000011920929,0.800000011920929);
#312=DRAUGHTING_PRE_DEFINED_CURVE_FONT('continuous');
#313=COLOUR_RGB('',0.800000011920929,0.800000011920929,0.800000011920929);
#314=AXIS2_PLACEMENT_3D('',#462,#463,#464);
#315=DRAUGHTING_PRE_DEFINED_CURVE_FONT('continuous');
#316=COLOUR_RGB('',0.800000011920929,0.800000011920929,0.800000011920929);
#317=AXIS2_PLACEMENT_3D('',#465,#466,#467);
#318=SURFACE_SIDE_STYLE('',(#468));
#319=EDGE_LOOP('',(#469,#470,#471,#472));
#320=AXIS2_PLACEMENT_3D('',#473,#474,#475);
#321=DRAUGHTING_PRE_DEFINED_CURVE_FONT('continuous');
#322=COLOUR_RGB('',0.800000011920929,0.800000011920929,0.800000011920929);
#323=CARTESIAN_POINT('',(5.83,5.43,0.0));
#324=VECTOR('',#476,1.0);
#325=SURFACE_SIDE_STYLE('',(#477));
#326=EDGE_LOOP('',(#478,#479,#480,#481,#482,#483,#484,#485));
#327=AXIS2_PLACEMENT_3D('',#486,#487,#488);
#328=PRE_DEFINED_MARKER('');
#329=COLOUR_RGB('',0.800000011920929,0.800000011920929,0.800000011920929);
#330=PRE_DEFINED_MARKER('');
#331=COLOUR_RGB('',0.800000011920929,0.800000011920929,0.800000011920929);
#332=DRAUGHTING_PRE_DEFINED_CURVE_FONT('continuous');
#333=COLOUR_RGB('',0.800000011920929,0.800000011920929,0.800000011920929);
#334=AXIS2_PLACEMENT_3D('',#489,#490,#491);
#335=DRAUGHTING_PRE_DEFINED_CURVE_FONT('continuous');
#336=COLOUR_RGB('',0.800000011920929,0.800000011920929,0.800000011920929);
#337=CARTESIAN_POINT('',(0.4,0.0,0.0));
#338=VECTOR('',#492,1.0);
#339=DRAUGHTING_PRE_DEFINED_CURVE_FONT('continuous');
#340=COLOUR_RGB('',0.800000011920929,0.800000011920929,0.800000011920929);
#341=CARTESIAN_POINT('',(5.43,5.8299999999,0.0));
#342=VECTOR('',#493,1.0);
#343=SURFACE_SIDE_STYLE('',(#494));
#344=EDGE_LOOP('',(#495,#496,#497,#498));
#345=AXIS2_PLACEMENT_3D('',#499,#500,#501);
#346=DRAUGHTING_PRE_DEFINED_CURVE_FONT('continuous');
#347=COLOUR_RGB('',0.800000011920929,0.800000011920929,0.800000011920929);
#348=CARTESIAN_POINT('',(5.8299999999,0.4,0.0));
#349=VECTOR('',#502,1.0);
#350=SURFACE_SIDE_STYLE('',(#503));
#351=EDGE_LOOP('',(#504,#505,#506,#507));
#352=AXIS2_PLACEMENT_3D('',#508,#509,#510);
#353=PRE_DEFINED_MARKER('');
#354=COLOUR_RGB('',0.800000011920929,0.800000011920929,0.800000011920929);
#355=DRAUGHTING_PRE_DEFINED_CURVE_FONT('continuous');
#356=COLOUR_RGB('',0.800000011920929,0.800000011920929,0.800000011920929);
#357=AXIS2_PLACEMENT_3D('',#511,#512,#513);
#358=SURFACE_SIDE_STYLE('',(#514));
#359=EDGE_LOOP('',(#515,#516,#517,#518));
#360=AXIS2_PLACEMENT_3D('',#519,#520,#521);
#361=DRAUGHTING_PRE_DEFINED_CURVE_FONT('continuous');
#362=COLOUR_RGB('',0.800000011920929,0.800000011920929,0.800000011920929);
#363=CARTESIAN_POINT('',(0.4,5.83,0.0));
#364=VECTOR('',#522,1.0);
#365=DRAUGHTING_PRE_DEFINED_CURVE_FONT('continuous');
#366=COLOUR_RGB('',0.800000011920929,0.800000011920929,0.800000011920929);
#367=CARTESIAN_POINT('',(9.99991200956174E-011,5.43,0.0));
#368=VECTOR('',#523,1.0);
#369=SURFACE_SIDE_STYLE('',(#524));
#370=EDGE_LOOP('',(#525,#526,#527,#528));
#371=AXIS2_PLACEMENT_3D('',#529,#530,#531);
#372=DRAUGHTING_PRE_DEFINED_CURVE_FONT('continuous');
#373=COLOUR_RGB('',0.800000011920929,0.800000011920929,0.800000011920929);
#374=CARTESIAN_POINT('',(0.4,0.337298003285741,-2.4));
#375=VECTOR('',#532,1.0);
#376=SURFACE_SIDE_STYLE('',(#533));
#377=SURFACE_SIDE_STYLE('',(#534));
#378=EDGE_LOOP('',(#535,#536,#537,#538));
#379=AXIS2_PLACEMENT_3D('',#539,#540,#541);
#380=PRE_DEFINED_MARKER('');
#381=COLOUR_RGB('',0.800000011920929,0.800000011920929,0.800000011920929);
#382=PRE_DEFINED_MARKER('');
#383=COLOUR_RGB('',0.800000011920929,0.800000011920929,0.800000011920929);
#384=PRE_DEFINED_MARKER('');
#385=COLOUR_RGB('',0.800000011920929,0.800000011920929,0.800000011920929);
#386=PRE_DEFINED_MARKER('');
#387=COLOUR_RGB('',0.800000011920929,0.800000011920929,0.800000011920929);
#388=SURFACE_SIDE_STYLE('',(#542));
#389=EDGE_LOOP('',(#543,#544,#545,#546));
#390=AXIS2_PLACEMENT_3D('',#547,#548,#549);
#391=PRE_DEFINED_MARKER('');
#392=COLOUR_RGB('',0.800000011920929,0.800000011920929,0.800000011920929);
#393=PRE_DEFINED_MARKER('');
#394=COLOUR_RGB('',0.800000011920929,0.800000011920929,0.800000011920929);
#395=PRE_DEFINED_MARKER('');
#396=COLOUR_RGB('',0.800000011920929,0.800000011920929,0.800000011920929);
#397=PRE_DEFINED_MARKER('');
#398=COLOUR_RGB('',0.800000011920929,0.800000011920929,0.800000011920929);
#399=DRAUGHTING_PRE_DEFINED_CURVE_FONT('continuous');
#400=COLOUR_RGB('',0.800000011920929,0.800000011920929,0.800000011920929);
#401=AXIS2_PLACEMENT_3D('',#550,#551,#552);
#402=PRE_DEFINED_MARKER('');
#403=COLOUR_RGB('',0.800000011920929,0.800000011920929,0.800000011920929);
#404=PRE_DEFINED_MARKER('');
#405=COLOUR_RGB('',0.800000011920929,0.800000011920929,0.800000011920929);
#406=DRAUGHTING_PRE_DEFINED_CURVE_FONT('continuous');
#407=COLOUR_RGB('',0.800000011920929,0.800000011920929,0.800000011920929);
#408=CARTESIAN_POINT('',(5.49270199671426,0.4,-2.4));
#409=VECTOR('',#553,1.0);
#410=DRAUGHTING_PRE_DEFINED_CURVE_FONT('continuous');
#411=COLOUR_RGB('',0.800000011920929,0.800000011920929,0.800000011920929);
#412=AXIS2_PLACEMENT_3D('',#554,#555,#556);
#413=DRAUGHTING_PRE_DEFINED_CURVE_FONT('continuous');
#414=COLOUR_RGB('',0.800000011920929,0.800000011920929,0.800000011920929);
#415=CARTESIAN_POINT('',(0.4,0.0,0.0));
#416=VECTOR('',#557,1.0);
#417=PRE_DEFINED_MARKER('');
#418=COLOUR_RGB('',0.800000011920929,0.800000011920929,0.800000011920929);
#419=DRAUGHTING_PRE_DEFINED_CURVE_FONT('continuous');
#420=COLOUR_RGB('',0.800000011920929,0.800000011920929,0.800000011920929);
#421=CARTESIAN_POINT('',(0.337298003285741,5.43,-2.4));
#422=VECTOR('',#558,1.0);
#423=DRAUGHTING_PRE_DEFINED_CURVE_FONT('continuous');
#424=COLOUR_RGB('',0.800000011920929,0.800000011920929,0.800000011920929);
#425=CARTESIAN_POINT('',(5.43,0.0,0.0));
#426=VECTOR('',#559,1.0);
#427=DRAUGHTING_PRE_DEFINED_CURVE_FONT('continuous');
#428=COLOUR_RGB('',0.800000011920929,0.800000011920929,0.800000011920929);
#429=CARTESIAN_POINT('',(5.43,5.83,0.0));
#430=VECTOR('',#560,1.0);
#431=PRE_DEFINED_MARKER('');
#432=COLOUR_RGB('',0.800000011920929,0.800000011920929,0.800000011920929);
#433=DRAUGHTING_PRE_DEFINED_CURVE_FONT('continuous');
#434=COLOUR_RGB('',0.800000011920929,0.800000011920929,0.800000011920929);
#435=CARTESIAN_POINT('',(0.0,5.43,0.0));
#436=VECTOR('',#561,1.0);
#437=SURFACE_SIDE_STYLE('',(#562));
#438=EDGE_LOOP('',(#563,#564,#565,#566));
#439=AXIS2_PLACEMENT_3D('',#567,#568,#569);
#440=DRAUGHTING_PRE_DEFINED_CURVE_FONT('continuous');
#441=COLOUR_RGB('',0.800000011920929,0.800000011920929,0.800000011920929);
#442=AXIS2_PLACEMENT_3D('',#570,#571,#572);
#443=DRAUGHTING_PRE_DEFINED_CURVE_FONT('continuous');
#444=COLOUR_RGB('',0.800000011920929,0.800000011920929,0.800000011920929);
#445=CARTESIAN_POINT('',(5.43,5.49270199671426,-2.4));
#446=VECTOR('',#573,1.0);
#447=DRAUGHTING_PRE_DEFINED_CURVE_FONT('continuous');
#448=COLOUR_RGB('',0.800000011920929,0.800000011920929,0.800000011920929);
#449=AXIS2_PLACEMENT_3D('',#574,#575,#576);
#450=DRAUGHTING_PRE_DEFINED_CURVE_FONT('continuous');
#451=COLOUR_RGB('',0.800000011920929,0.800000011920929,0.800000011920929);
#452=CARTESIAN_POINT('',(0.0,0.4,0.0));
#453=VECTOR('',#577,1.0);
#454=DRAUGHTING_PRE_DEFINED_CURVE_FONT('continuous');
#455=COLOUR_RGB('',0.800000011920929,0.800000011920929,0.800000011920929);
#456=CARTESIAN_POINT('',(5.83,0.4,0.0));
#457=VECTOR('',#578,1.0);
#458=SURFACE_SIDE_STYLE('',(#579));
#459=EDGE_LOOP('',(#580,#581,#582,#583,#584,#585,#586,#587));
#460=AXIS2_PLACEMENT_3D('',#588,#589,#590);
#462=CARTESIAN_POINT('',(0.4000000001,5.4299999999,-2.4));
#463=DIRECTION('',(0.0,0.0,1.0));
#464=DIRECTION('',(-2.50001269685995E-010,1.0,0.0));
#465=CARTESIAN_POINT('',(0.4000000001,0.4000000001,-2.4));
#466=DIRECTION('',(0.0,0.0,1.0));
#467=DIRECTION('',(-1.0,-2.49998494128434E-010,0.0));
#468=SURFACE_STYLE_FILL_AREA(#591);
#469=ORIENTED_EDGE('',*,*,#145,.T.);
#470=ORIENTED_EDGE('',*,*,#83,.F.);
#471=ORIENTED_EDGE('',*,*,#173,.F.);
#472=ORIENTED_EDGE('',*,*,#99,.T.);
#473=CARTESIAN_POINT('',(5.8299999999,0.4,0.0));
#474=DIRECTION('',(0.990268068747257,-0.0,-0.139173100919604));
#475=DIRECTION('',(-0.0,-1.0,0.0));
#476=DIRECTION('',(-0.139173101000528,-3.47936609086838E-011,-0.990268068735884));
#477=SURFACE_STYLE_FILL_AREA(#592);
#478=ORIENTED_EDGE('',*,*,#165,.F.);
#479=ORIENTED_EDGE('',*,*,#115,.F.);
#480=ORIENTED_EDGE('',*,*,#79,.F.);
#481=ORIENTED_EDGE('',*,*,#153,.F.);
#482=ORIENTED_EDGE('',*,*,#77,.F.);
#483=ORIENTED_EDGE('',*,*,#167,.F.);
#484=ORIENTED_EDGE('',*,*,#147,.F.);
#485=ORIENTED_EDGE('',*,*,#145,.F.);
#486=CARTESIAN_POINT('',(2.915,2.915,-2.4));
#487=DIRECTION('',(0.0,0.0,1.0));
#488=DIRECTION('',(1.0,0.0,0.0));
#489=CARTESIAN_POINT('',(5.4299999999,0.4000000001,0.0));
#490=DIRECTION('',(0.0,0.0,1.0));
#491=DIRECTION('',(2.50000020685093E-010,-1.0,0.0));
#492=DIRECTION('',(1.0,0.0,0.0));
#493=DIRECTION('',(0.0,-0.139173100919604,-0.990268068747257));
#494=SURFACE_STYLE_FILL_AREA(#593);
#495=ORIENTED_EDGE('',*,*,#153,.T.);
#496=ORIENTED_EDGE('',*,*,#171,.F.);
#497=ORIENTED_EDGE('',*,*,#161,.F.);
#498=ORIENTED_EDGE('',*,*,#111,.T.);
#499=CARTESIAN_POINT('',(9.99991200956174E-011,5.43,0.0));
#500=DIRECTION('',(-0.990268068747257,0.0,-0.139173100919604));
#501=DIRECTION('',(0.0,1.0,0.0));
#502=DIRECTION('',(-0.139173100919604,0.0,-0.990268068747257));
#503=SURFACE_STYLE_FILL_AREA(#594);
#504=ORIENTED_EDGE('',*,*,#77,.T.);
#505=ORIENTED_EDGE('',*,*,#111,.F.);
#506=ORIENTED_EDGE('',*,*,#169,.F.);
#507=ORIENTED_EDGE('',*,*,#109,.T.);
#508=CARTESIAN_POINT('',(0.4000000001,5.4299999999,0.0));
#509=DIRECTION('',(-0.0,-0.0,1.0));
#510=DIRECTION('',(-2.50001269685995E-010,1.0,0.0));
#511=CARTESIAN_POINT('',(0.4000000001,0.4000000001,0.0));
#512=DIRECTION('',(0.0,0.0,1.0));
#513=DIRECTION('',(-1.0,-2.49998494128434E-010,0.0));
#514=SURFACE_STYLE_FILL_AREA(#595);
#515=ORIENTED_EDGE('',*,*,#147,.T.);
#516=ORIENTED_EDGE('',*,*,#95,.F.);
#517=ORIENTED_EDGE('',*,*,#139,.F.);
#518=ORIENTED_EDGE('',*,*,#83,.T.);
#519=CARTESIAN_POINT('',(5.4299999999,5.4299999999,0.0));
#520=DIRECTION('',(-0.0,-0.0,1.0));
#521=DIRECTION('',(1.0,2.50002241131141E-010,0.0));
#522=DIRECTION('',(3.47932715313301E-011,-0.139173101000528,-0.990268068735884));
#523=DIRECTION('',(0.139173100919604,0.0,-0.990268068747257));
#524=SURFACE_STYLE_FILL_AREA(#596);
#525=ORIENTED_EDGE('',*,*,#165,.T.);
#526=ORIENTED_EDGE('',*,*,#99,.F.);
#527=ORIENTED_EDGE('',*,*,#91,.F.);
#528=ORIENTED_EDGE('',*,*,#155,.T.);
#529=CARTESIAN_POINT('',(5.4299999999,0.4000000001,0.0));
#530=DIRECTION('',(-0.0,-0.0,1.0));
#531=DIRECTION('',(2.50000020685093E-010,-1.0,0.0));
#532=DIRECTION('',(1.0,0.0,0.0));
#533=SURFACE_STYLE_FILL_AREA(#597);
#534=SURFACE_STYLE_FILL_AREA(#598);
#535=ORIENTED_EDGE('',*,*,#115,.T.);
#536=ORIENTED_EDGE('',*,*,#155,.F.);
#537=ORIENTED_EDGE('',*,*,#93,.F.);
#538=ORIENTED_EDGE('',*,*,#149,.T.);
#539=CARTESIAN_POINT('',(0.4,0.0,0.0));
#540=DIRECTION('',(-0.0,-0.99026806874157,-0.139173100960066));
#541=DIRECTION('',(-1.0,0.0,0.0));
#542=SURFACE_STYLE_FILL_AREA(#599);
#543=ORIENTED_EDGE('',*,*,#167,.T.);
#544=ORIENTED_EDGE('',*,*,#109,.F.);
#545=ORIENTED_EDGE('',*,*,#157,.F.);
#546=ORIENTED_EDGE('',*,*,#95,.T.);
#547=CARTESIAN_POINT('',(5.43,5.8299999999,0.0));
#548=DIRECTION('',(0.0,0.990268068747257,-0.139173100919604));
#549=DIRECTION('',(1.0,-0.0,0.0));
#550=CARTESIAN_POINT('',(5.4299999999,5.4299999999,0.0));
#551=DIRECTION('',(0.0,-0.0,1.0));
#552=DIRECTION('',(1.0,2.50002241131141E-010,0.0));
#553=DIRECTION('',(0.0,1.0,0.0));
#554=CARTESIAN_POINT('',(5.4299999999,5.4299999999,-2.4));
#555=DIRECTION('',(0.0,-0.0,1.0));
#556=DIRECTION('',(1.0,2.50002241131141E-010,0.0));
#557=DIRECTION('',(0.0,0.139173100960066,-0.99026806874157));
#558=DIRECTION('',(0.0,-1.0,0.0));
#559=DIRECTION('',(-3.47929279630768E-011,0.139173101000528,-0.990268068735884));
#560=DIRECTION('',(-1.0,0.0,0.0));
#561=DIRECTION('',(0.0,-1.0,0.0));
#562=SURFACE_STYLE_FILL_AREA(#600);
#563=ORIENTED_EDGE('',*,*,#79,.T.);
#564=ORIENTED_EDGE('',*,*,#149,.F.);
#565=ORIENTED_EDGE('',*,*,#105,.F.);
#566=ORIENTED_EDGE('',*,*,#171,.T.);
#567=CARTESIAN_POINT('',(0.4000000001,0.4000000001,0.0));
#568=DIRECTION('',(0.0,-0.0,1.0));
#569=DIRECTION('',(-1.0,-2.49998494128434E-010,0.0));
#570=CARTESIAN_POINT('',(5.4299999999,0.4000000001,-2.4));
#571=DIRECTION('',(0.0,0.0,1.0));
#572=DIRECTION('',(2.50000020685093E-010,-1.0,0.0));
#573=DIRECTION('',(-1.0,0.0,0.0));
#574=CARTESIAN_POINT('',(0.4000000001,5.4299999999,0.0));
#575=DIRECTION('',(0.0,0.0,1.0));
#576=DIRECTION('',(-2.50001269685995E-010,1.0,0.0));
#577=DIRECTION('',(0.139173101000528,3.47931341040288E-011,-0.990268068735884));
#578=DIRECTION('',(0.0,1.0,0.0));
#579=SURFACE_STYLE_FILL_AREA(#601);
#580=ORIENTED_EDGE('',*,*,#93,.T.);
#581=ORIENTED_EDGE('',*,*,#91,.T.);
#582=ORIENTED_EDGE('',*,*,#173,.T.);
#583=ORIENTED_EDGE('',*,*,#139,.T.);
#584=ORIENTED_EDGE('',*,*,#157,.T.);
#585=ORIENTED_EDGE('',*,*,#169,.T.);
#586=ORIENTED_EDGE('',*,*,#161,.T.);
#587=ORIENTED_EDGE('',*,*,#105,.T.);
#588=CARTESIAN_POINT('',(2.915,2.915,0.0));
#589=DIRECTION('',(0.0,0.0,1.0));
#590=DIRECTION('',(1.0,0.0,0.0));
#591=FILL_AREA_STYLE('',(#602));
#592=FILL_AREA_STYLE('',(#603));
#593=FILL_AREA_STYLE('',(#604));
#594=FILL_AREA_STYLE('',(#605));
#595=FILL_AREA_STYLE('',(#606));
#596=FILL_AREA_STYLE('',(#607));
#597=FILL_AREA_STYLE('',(#608));
#598=FILL_AREA_STYLE('',(#609));
#599=FILL_AREA_STYLE('',(#610));
#600=FILL_AREA_STYLE('',(#611));
#601=FILL_AREA_STYLE('',(#612));
#602=FILL_AREA_STYLE_COLOUR('',#613);
#603=FILL_AREA_STYLE_COLOUR('',#614);
#604=FILL_AREA_STYLE_COLOUR('',#615);
#605=FILL_AREA_STYLE_COLOUR('',#616);
#606=FILL_AREA_STYLE_COLOUR('',#617);
#607=FILL_AREA_STYLE_COLOUR('',#618);
#608=FILL_AREA_STYLE_COLOUR('',#619);
#609=FILL_AREA_STYLE_COLOUR('',#620);
#610=FILL_AREA_STYLE_COLOUR('',#621);
#611=FILL_AREA_STYLE_COLOUR('',#622);
#612=FILL_AREA_STYLE_COLOUR('',#623);
#613=COLOUR_RGB('',0.800000011920929,0.800000011920929,0.800000011920929);
#614=COLOUR_RGB('',0.800000011920929,0.800000011920929,0.800000011920929);
#615=COLOUR_RGB('',0.800000011920929,0.800000011920929,0.800000011920929);
#616=COLOUR_RGB('',0.800000011920929,0.800000011920929,0.800000011920929);
#617=COLOUR_RGB('',0.800000011920929,0.800000011920929,0.800000011920929);
#618=COLOUR_RGB('',0.800000011920929,0.800000011920929,0.800000011920929);
#619=COLOUR_RGB('',0.800000011920929,0.800000011920929,0.800000011920929);
#620=COLOUR_RGB('',0.800000011920929,0.800000011920929,0.800000011920929);
#621=COLOUR_RGB('',0.800000011920929,0.800000011920929,0.800000011920929);
#622=COLOUR_RGB('',0.800000011920929,0.800000011920929,0.800000011920929);
#623=COLOUR_RGB('',0.800000011920929,0.800000011920929,0.800000011920929);
#624=AXIS2_PLACEMENT_3D('PCS',#625,#626,#627);
#625=CARTESIAN_POINT('',(0.0,0.0,0.0));
#626=DIRECTION('',(0.0,0.0,1.0));
#627=DIRECTION('',(1.0,0.0,0.0));
#628=AXIS2_PLACEMENT_3D('MCS',#629,#630,#631);
#629=CARTESIAN_POINT('',(2.915,2.915,0.0));
#630=DIRECTION('',(0.0,0.0,1.0));
#631=DIRECTION('',(1.0,0.0,0.0));
#632=CONSTRUCTIVE_GEOMETRY_REPRESENTATION_RELATIONSHIP('coordinate systems',$,#65,#633);
#633=CONSTRUCTIVE_GEOMETRY_REPRESENTATION('coordinate systems',(#624,#628),#6);
ENDSEC;
END-ISO-10303-21;
