ISO-10303-21;
HEADER;
FILE_DESCRIPTION(('no description'),'unknown implementation level');
FILE_NAME('solidTKNduzr_WFkY9JsKUPq9Ke_W2SE_1.STP','  ',('CIMSOURCE GmbH'),('CADClick - KiM GmbH - www.kimweb.de'),'unknown preprocess','ACIS','unknown authorization');
FILE_SCHEMA(('automotive_design'));
ENDSEC;
DATA;
#1=MECHANICAL_DESIGN_GEOMETRIC_PRESENTATION_REPRESENTATION(' ',(#10,#11,#12,#13,#14,#15,#16,#17,#18,#19,#20,#21,#22,#23,#24,#25,#26,#27,#28,#29,#30,#31,#32,#33,#34,#35,#36,#37,#38,#39,#40,#41,#42,#43,#44,#45,#46,#47,#48,#49,#50,#51,#52,#53,#54,#55,#56,#57,#58,#59,#60),#6);
#2=PRODUCT_DEFINITION_CONTEXT('',#61,'design');
#3=APPLICATION_PROTOCOL_DEFINITION('INTERNATIONAL STANDARD','automotive_design',1994,#61);
#4=PRODUCT_CATEGORY_RELATIONSHIP('NONE','NONE',#62,#63);
#5=SHAPE_DEFINITION_REPRESENTATION(#64,#65);
#6= (GEOMETRIC_REPRESENTATION_CONTEXT(3)GLOBAL_UNCERTAINTY_ASSIGNED_CONTEXT((#68))GLOBAL_UNIT_ASSIGNED_CONTEXT((#70,#71,#72))REPRESENTATION_CONTEXT('NONE','WORKSPACE'));
#10=STYLED_ITEM('',(#74),#75);
#11=STYLED_ITEM('',(#76),#77);
#12=STYLED_ITEM('',(#78),#79);
#13=STYLED_ITEM('',(#80),#81);
#14=STYLED_ITEM('',(#82),#83);
#15=STYLED_ITEM('',(#84),#85);
#16=STYLED_ITEM('',(#86),#87);
#17=STYLED_ITEM('',(#88),#89);
#18=STYLED_ITEM('',(#90),#91);
#19=STYLED_ITEM('',(#92),#93);
#20=STYLED_ITEM('',(#94),#95);
#21=STYLED_ITEM('',(#96),#97);
#22=STYLED_ITEM('',(#98),#99);
#23=STYLED_ITEM('',(#100),#101);
#24=STYLED_ITEM('',(#102),#103);
#25=STYLED_ITEM('',(#104),#105);
#26=STYLED_ITEM('',(#106),#107);
#27=STYLED_ITEM('',(#108),#109);
#28=STYLED_ITEM('',(#110),#111);
#29=STYLED_ITEM('',(#112),#113);
#30=STYLED_ITEM('',(#114),#115);
#31=STYLED_ITEM('',(#116),#117);
#32=STYLED_ITEM('',(#118),#119);
#33=STYLED_ITEM('',(#120),#121);
#34=STYLED_ITEM('',(#122),#123);
#35=STYLED_ITEM('',(#124),#125);
#36=STYLED_ITEM('',(#126),#127);
#37=STYLED_ITEM('',(#128),#129);
#38=STYLED_ITEM('',(#130),#131);
#39=STYLED_ITEM('',(#132),#133);
#40=STYLED_ITEM('',(#134),#135);
#41=STYLED_ITEM('',(#136),#137);
#42=STYLED_ITEM('',(#138),#139);
#43=STYLED_ITEM('',(#140),#141);
#44=STYLED_ITEM('',(#142),#143);
#45=STYLED_ITEM('',(#144),#145);
#46=STYLED_ITEM('',(#146),#147);
#47=STYLED_ITEM('',(#148),#149);
#48=STYLED_ITEM('',(#150),#151);
#49=STYLED_ITEM('',(#152),#153);
#50=STYLED_ITEM('',(#154),#155);
#51=STYLED_ITEM('',(#156),#157);
#52=STYLED_ITEM('',(#158),#159);
#53=STYLED_ITEM('',(#160),#161);
#54=STYLED_ITEM('',(#162),#163);
#55=STYLED_ITEM('',(#164),#165);
#56=STYLED_ITEM('',(#166),#167);
#57=STYLED_ITEM('',(#168),#169);
#58=STYLED_ITEM('',(#170),#171);
#59=STYLED_ITEM('',(#172),#173);
#60=STYLED_ITEM('',(#174),#175);
#61=APPLICATION_CONTEXT(' ');
#62=PRODUCT_CATEGORY('part','NONE');
#63=PRODUCT_RELATED_PRODUCT_CATEGORY('detail',' ',(#176));
#64=PRODUCT_DEFINITION_SHAPE('NONE','NONE',#177);
#65=ADVANCED_BREP_SHAPE_REPRESENTATION('1',(#161,#178),#6);
#68=UNCERTAINTY_MEASURE_WITH_UNIT(LENGTH_MEASURE(1.0E-006),#70,'','');
#70= (CONVERSION_BASED_UNIT('MILLIMETRE',#181)LENGTH_UNIT()NAMED_UNIT(#184));
#71= (NAMED_UNIT(#186)PLANE_ANGLE_UNIT()SI_UNIT($,.RADIAN.));
#72= (NAMED_UNIT(#186)SOLID_ANGLE_UNIT()SI_UNIT($,.STERADIAN.));
#74=PRESENTATION_STYLE_ASSIGNMENT((#192));
#75=VERTEX_POINT('',#193);
#76=PRESENTATION_STYLE_ASSIGNMENT((#194));
#77=EDGE_CURVE('',#133,#93,#195,.T.);
#78=PRESENTATION_STYLE_ASSIGNMENT((#196));
#79=VERTEX_POINT('',#197);
#80=PRESENTATION_STYLE_ASSIGNMENT((#198));
#81=ADVANCED_FACE('',(#199),#200,.T.);
#82=PRESENTATION_STYLE_ASSIGNMENT((#201));
#83=ADVANCED_FACE('',(#202),#203,.T.);
#84=PRESENTATION_STYLE_ASSIGNMENT((#204));
#85=ADVANCED_FACE('',(#205),#206,.T.);
#86=PRESENTATION_STYLE_ASSIGNMENT((#207));
#87=ADVANCED_FACE('',(#208),#209,.T.);
#88=PRESENTATION_STYLE_ASSIGNMENT((#210));
#89=VERTEX_POINT('',#211);
#90=PRESENTATION_STYLE_ASSIGNMENT((#212));
#91=EDGE_CURVE('',#89,#119,#213,.T.);
#92=PRESENTATION_STYLE_ASSIGNMENT((#214));
#93=VERTEX_POINT('',#215);
#94=PRESENTATION_STYLE_ASSIGNMENT((#216));
#95=EDGE_CURVE('',#119,#111,#217,.T.);
#96=PRESENTATION_STYLE_ASSIGNMENT((#218));
#97=ADVANCED_FACE('',(#219),#220,.T.);
#98=PRESENTATION_STYLE_ASSIGNMENT((#221));
#99=EDGE_CURVE('',#123,#145,#222,.T.);
#100=PRESENTATION_STYLE_ASSIGNMENT((#223));
#101=VERTEX_POINT('',#224);
#102=PRESENTATION_STYLE_ASSIGNMENT((#225));
#103=EDGE_CURVE('',#145,#157,#226,.T.);
#104=PRESENTATION_STYLE_ASSIGNMENT((#227));
#105=EDGE_CURVE('',#145,#111,#228,.T.);
#106=PRESENTATION_STYLE_ASSIGNMENT((#229));
#107=EDGE_CURVE('',#111,#151,#230,.T.);
#108=PRESENTATION_STYLE_ASSIGNMENT((#231));
#109=EDGE_CURVE('',#93,#89,#232,.T.);
#110=PRESENTATION_STYLE_ASSIGNMENT((#233));
#111=VERTEX_POINT('',#234);
#112=PRESENTATION_STYLE_ASSIGNMENT((#235));
#113=EDGE_CURVE('',#93,#123,#236,.T.);
#114=PRESENTATION_STYLE_ASSIGNMENT((#237));
#115=ADVANCED_FACE('',(#238),#239,.T.);
#116=PRESENTATION_STYLE_ASSIGNMENT((#240));
#117=VERTEX_POINT('',#241);
#118=PRESENTATION_STYLE_ASSIGNMENT((#242));
#119=VERTEX_POINT('',#243);
#120=PRESENTATION_STYLE_ASSIGNMENT((#244));
#121=EDGE_CURVE('',#123,#119,#245,.T.);
#122=PRESENTATION_STYLE_ASSIGNMENT((#246));
#123=VERTEX_POINT('',#247);
#124=PRESENTATION_STYLE_ASSIGNMENT((#248));
#125=EDGE_CURVE('',#157,#151,#249,.T.);
#126=PRESENTATION_STYLE_ASSIGNMENT((#250));
#127=ADVANCED_FACE('',(#251),#252,.T.);
#128=PRESENTATION_STYLE_ASSIGNMENT((#253));
#129=VERTEX_POINT('',#254);
#130=PRESENTATION_STYLE_ASSIGNMENT((#255));
#131=EDGE_CURVE('',#129,#117,#256,.T.);
#132=PRESENTATION_STYLE_ASSIGNMENT((#257));
#133=VERTEX_POINT('',#258);
#134=PRESENTATION_STYLE_ASSIGNMENT((#259));
#135=EDGE_CURVE('',#173,#133,#260,.T.);
#136=PRESENTATION_STYLE_ASSIGNMENT((#261));
#137=VERTEX_POINT('',#262);
#138=PRESENTATION_STYLE_ASSIGNMENT((#263));
#139=EDGE_CURVE('',#75,#173,#264,.T.);
#140=PRESENTATION_STYLE_ASSIGNMENT((#265));
#141=EDGE_CURVE('',#75,#79,#266,.T.);
#142=PRESENTATION_STYLE_ASSIGNMENT((#267));
#143=EDGE_CURVE('',#129,#75,#268,.T.);
#144=PRESENTATION_STYLE_ASSIGNMENT((#269));
#145=VERTEX_POINT('',#270);
#146=PRESENTATION_STYLE_ASSIGNMENT((#271));
#147=EDGE_CURVE('',#137,#89,#272,.T.);
#148=PRESENTATION_STYLE_ASSIGNMENT((#273));
#149=ADVANCED_FACE('',(#274),#275,.T.);
#150=PRESENTATION_STYLE_ASSIGNMENT((#276));
#151=VERTEX_POINT('',#277);
#152=PRESENTATION_STYLE_ASSIGNMENT((#278));
#153=EDGE_CURVE('',#101,#137,#279,.T.);
#154=PRESENTATION_STYLE_ASSIGNMENT((#280));
#155=ADVANCED_FACE('',(#281),#282,.F.);
#156=PRESENTATION_STYLE_ASSIGNMENT((#283));
#157=VERTEX_POINT('',#284);
#158=PRESENTATION_STYLE_ASSIGNMENT((#285));
#159=EDGE_CURVE('',#151,#117,#286,.T.);
#160=PRESENTATION_STYLE_ASSIGNMENT((#287));
#161=MANIFOLD_SOLID_BREP('1',#288);
#162=PRESENTATION_STYLE_ASSIGNMENT((#289));
#163=EDGE_CURVE('',#157,#129,#290,.T.);
#164=PRESENTATION_STYLE_ASSIGNMENT((#291));
#165=EDGE_CURVE('',#173,#101,#292,.T.);
#166=PRESENTATION_STYLE_ASSIGNMENT((#293));
#167=ADVANCED_FACE('',(#294),#295,.T.);
#168=PRESENTATION_STYLE_ASSIGNMENT((#296));
#169=EDGE_CURVE('',#133,#137,#297,.T.);
#170=PRESENTATION_STYLE_ASSIGNMENT((#298));
#171=EDGE_CURVE('',#79,#101,#299,.T.);
#172=PRESENTATION_STYLE_ASSIGNMENT((#300));
#173=VERTEX_POINT('',#301);
#174=PRESENTATION_STYLE_ASSIGNMENT((#302));
#175=EDGE_CURVE('',#117,#79,#303,.T.);
#176=PRODUCT('1','1','PART-1-DESC',(#304));
#177=PRODUCT_DEFINITION('NONE','NONE',#305,#2);
#178=AXIS2_PLACEMENT_3D('',#306,#307,#308);
#181=LENGTH_MEASURE_WITH_UNIT(LENGTH_MEASURE(1.0),#309);
#184=DIMENSIONAL_EXPONENTS(1.0,0.0,0.0,0.0,0.0,0.0,0.0);
#186=DIMENSIONAL_EXPONENTS(0.0,0.0,0.0,0.0,0.0,0.0,0.0);
#192=POINT_STYLE(' ',#310,POSITIVE_LENGTH_MEASURE(1.0E-006),#311);
#193=CARTESIAN_POINT('',(0.6,0.0,0.0));
#194=CURVE_STYLE('',#312,POSITIVE_LENGTH_MEASURE(1.0E-006),#313);
#195=LINE('',#314,#315);
#196=POINT_STYLE(' ',#316,POSITIVE_LENGTH_MEASURE(1.0E-006),#317);
#197=CARTESIAN_POINT('',(0.6,0.379460253696458,-2.7));
#198=SURFACE_STYLE_USAGE(.BOTH.,#318);
#199=FACE_OUTER_BOUND('',#319,.T.);
#200=CONICAL_SURFACE('',#320,0.6,0.139626340159547);
#201=SURFACE_STYLE_USAGE(.BOTH.,#321);
#202=FACE_OUTER_BOUND('',#322,.T.);
#203=PLANE('',#323);
#204=SURFACE_STYLE_USAGE(.BOTH.,#324);
#205=FACE_OUTER_BOUND('',#325,.T.);
#206=CONICAL_SURFACE('',#326,0.600000000000001,0.139626340159547);
#207=SURFACE_STYLE_USAGE(.BOTH.,#327);
#208=FACE_OUTER_BOUND('',#328,.T.);
#209=PLANE('',#329);
#210=POINT_STYLE(' ',#330,POSITIVE_LENGTH_MEASURE(1.0E-006),#331);
#211=CARTESIAN_POINT('',(6.08053974620354,5.85999999993676,-2.7));
#212=CURVE_STYLE('',#332,POSITIVE_LENGTH_MEASURE(1.0E-006),#333);
#213=CIRCLE('',#334,0.220539746303542);
#214=POINT_STYLE(' ',#335,POSITIVE_LENGTH_MEASURE(1.0E-006),#336);
#215=CARTESIAN_POINT('',(6.46,5.86,0.0));
#216=CURVE_STYLE('',#337,POSITIVE_LENGTH_MEASURE(1.0E-006),#338);
#217=LINE('',#339,#340);
#218=SURFACE_STYLE_USAGE(.BOTH.,#341);
#219=FACE_OUTER_BOUND('',#342,.T.);
#220=PLANE('',#343);
#221=CURVE_STYLE('',#344,POSITIVE_LENGTH_MEASURE(1.0E-006),#345);
#222=LINE('',#346,#347);
#223=POINT_STYLE(' ',#348,POSITIVE_LENGTH_MEASURE(1.0E-006),#349);
#224=CARTESIAN_POINT('',(5.85999999993676,0.379460253796458,-2.7));
#225=CURVE_STYLE('',#350,POSITIVE_LENGTH_MEASURE(1.0E-006),#351);
#226=CIRCLE('',#352,0.6);
#227=CURVE_STYLE('',#353,POSITIVE_LENGTH_MEASURE(1.0E-006),#354);
#228=LINE('',#355,#356);
#229=CURVE_STYLE('',#357,POSITIVE_LENGTH_MEASURE(1.0E-006),#358);
#230=CIRCLE('',#359,0.220539746303542);
#231=CURVE_STYLE('',#360,POSITIVE_LENGTH_MEASURE(1.0E-006),#361);
#232=LINE('',#362,#363);
#233=POINT_STYLE(' ',#364,POSITIVE_LENGTH_MEASURE(1.0E-006),#365);
#234=CARTESIAN_POINT('',(0.600000000063243,6.08053974620354,-2.7));
#235=CURVE_STYLE('',#366,POSITIVE_LENGTH_MEASURE(1.0E-006),#367);
#236=CIRCLE('',#368,0.600000000000001);
#237=SURFACE_STYLE_USAGE(.BOTH.,#369);
#238=FACE_OUTER_BOUND('',#370,.T.);
#239=PLANE('',#371);
#240=POINT_STYLE(' ',#372,POSITIVE_LENGTH_MEASURE(1.0E-006),#373);
#241=CARTESIAN_POINT('',(0.379460253796458,0.600000000063244,-2.7));
#242=POINT_STYLE(' ',#374,POSITIVE_LENGTH_MEASURE(1.0E-006),#375);
#243=CARTESIAN_POINT('',(5.86,6.08053974630354,-2.7));
#244=CURVE_STYLE('',#376,POSITIVE_LENGTH_MEASURE(1.0E-006),#377);
#245=LINE('',#378,#379);
#246=POINT_STYLE(' ',#380,POSITIVE_LENGTH_MEASURE(1.0E-006),#381);
#247=CARTESIAN_POINT('',(5.86,6.4599999999,0.0));
#248=CURVE_STYLE('',#382,POSITIVE_LENGTH_MEASURE(1.0E-006),#383);
#249=LINE('',#384,#385);
#250=SURFACE_STYLE_USAGE(.BOTH.,#386);
#251=FACE_OUTER_BOUND('',#387,.T.);
#252=CONICAL_SURFACE('',#388,0.6,0.139626340159547);
#253=POINT_STYLE(' ',#389,POSITIVE_LENGTH_MEASURE(1.0E-006),#390);
#254=CARTESIAN_POINT('',(0.0,0.600000000000001,0.0));
#255=CURVE_STYLE('',#391,POSITIVE_LENGTH_MEASURE(1.0E-006),#392);
#256=LINE('',#393,#394);
#257=POINT_STYLE(' ',#395,POSITIVE_LENGTH_MEASURE(1.0E-006),#396);
#258=CARTESIAN_POINT('',(6.4599999999,0.6,0.0));
#259=CURVE_STYLE('',#397,POSITIVE_LENGTH_MEASURE(1.0E-006),#398);
#260=CIRCLE('',#399,0.6);
#261=POINT_STYLE(' ',#400,POSITIVE_LENGTH_MEASURE(1.0E-006),#401);
#262=CARTESIAN_POINT('',(6.08053974630354,0.6,-2.7));
#263=CURVE_STYLE('',#402,POSITIVE_LENGTH_MEASURE(1.0E-006),#403);
#264=LINE('',#404,#405);
#265=CURVE_STYLE('',#406,POSITIVE_LENGTH_MEASURE(1.0E-006),#407);
#266=LINE('',#408,#409);
#267=CURVE_STYLE('',#410,POSITIVE_LENGTH_MEASURE(1.0E-006),#411);
#268=CIRCLE('',#412,0.6);
#269=POINT_STYLE(' ',#413,POSITIVE_LENGTH_MEASURE(1.0E-006),#414);
#270=CARTESIAN_POINT('',(0.6,6.46,0.0));
#271=CURVE_STYLE('',#415,POSITIVE_LENGTH_MEASURE(1.0E-006),#416);
#272=LINE('',#417,#418);
#273=SURFACE_STYLE_USAGE(.BOTH.,#419);
#274=FACE_OUTER_BOUND('',#420,.T.);
#275=PLANE('',#421);
#276=POINT_STYLE(' ',#422,POSITIVE_LENGTH_MEASURE(1.0E-006),#423);
#277=CARTESIAN_POINT('',(0.379460253696458,5.86,-2.7));
#278=CURVE_STYLE('',#424,POSITIVE_LENGTH_MEASURE(1.0E-006),#425);
#279=CIRCLE('',#426,0.220539746303542);
#280=SURFACE_STYLE_USAGE(.BOTH.,#427);
#281=FACE_OUTER_BOUND('',#428,.T.);
#282=PLANE('',#429);
#283=POINT_STYLE(' ',#430,POSITIVE_LENGTH_MEASURE(1.0E-006),#431);
#284=CARTESIAN_POINT('',(1.00000452363247E-010,5.86,0.0));
#285=CURVE_STYLE('',#432,POSITIVE_LENGTH_MEASURE(1.0E-006),#433);
#286=LINE('',#434,#435);
#287=SURFACE_STYLE_USAGE(.BOTH.,#436);
#288=CLOSED_SHELL('',(#127,#97,#85,#115,#81,#149,#167,#83,#155,#87));
#289=CURVE_STYLE('',#437,POSITIVE_LENGTH_MEASURE(1.0E-006),#438);
#290=LINE('',#439,#440);
#291=CURVE_STYLE('',#441,POSITIVE_LENGTH_MEASURE(1.0E-006),#442);
#292=LINE('',#443,#444);
#293=SURFACE_STYLE_USAGE(.BOTH.,#445);
#294=FACE_OUTER_BOUND('',#446,.T.);
#295=CONICAL_SURFACE('',#447,0.6,0.139626340159547);
#296=CURVE_STYLE('',#448,POSITIVE_LENGTH_MEASURE(1.0E-006),#449);
#297=LINE('',#450,#451);
#298=CURVE_STYLE('',#452,POSITIVE_LENGTH_MEASURE(1.0E-006),#453);
#299=LINE('',#454,#455);
#300=POINT_STYLE(' ',#456,POSITIVE_LENGTH_MEASURE(1.0E-006),#457);
#301=CARTESIAN_POINT('',(5.86,0.0,0.0));
#302=CURVE_STYLE('',#458,POSITIVE_LENGTH_MEASURE(1.0E-006),#459);
#303=CIRCLE('',#460,0.220539746303542);
#304=PRODUCT_CONTEXT('',#61,'mechanical');
#305=PRODUCT_DEFINITION_FORMATION_WITH_SPECIFIED_SOURCE(' ','NONE',#176,.NOT_KNOWN.);
#306=CARTESIAN_POINT('',(0.0,0.0,0.0));
#307=DIRECTION('',(0.0,0.0,1.0));
#308=DIRECTION('',(1.0,0.0,0.0));
#309= (NAMED_UNIT(#184)LENGTH_UNIT()SI_UNIT(.MILLI.,.METRE.));
#310=PRE_DEFINED_MARKER('');
#311=COLOUR_RGB('',0.800000011920929,0.800000011920929,0.800000011920929);
#312=DRAUGHTING_PRE_DEFINED_CURVE_FONT('continuous');
#313=COLOUR_RGB('',0.800000011920929,0.800000011920929,0.800000011920929);
#314=CARTESIAN_POINT('',(6.46,0.6,0.0));
#315=VECTOR('',#462,1.0);
#316=PRE_DEFINED_MARKER('');
#317=COLOUR_RGB('',0.800000011920929,0.800000011920929,0.800000011920929);
#318=SURFACE_SIDE_STYLE('',(#463));
#319=EDGE_LOOP('',(#464,#465,#466,#467));
#320=AXIS2_PLACEMENT_3D('',#468,#469,#470);
#321=SURFACE_SIDE_STYLE('',(#471));
#322=EDGE_LOOP('',(#472,#473,#474,#475));
#323=AXIS2_PLACEMENT_3D('',#476,#477,#478);
#324=SURFACE_SIDE_STYLE('',(#479));
#325=EDGE_LOOP('',(#480,#481,#482,#483));
#326=AXIS2_PLACEMENT_3D('',#484,#485,#486);
#327=SURFACE_SIDE_STYLE('',(#487));
#328=EDGE_LOOP('',(#488,#489,#490,#491,#492,#493,#494,#495));
#329=AXIS2_PLACEMENT_3D('',#496,#497,#498);
#330=PRE_DEFINED_MARKER('');
#331=COLOUR_RGB('',0.800000011920929,0.800000011920929,0.800000011920929);
#332=DRAUGHTING_PRE_DEFINED_CURVE_FONT('continuous');
#333=COLOUR_RGB('',0.800000011920929,0.800000011920929,0.800000011920929);
#334=AXIS2_PLACEMENT_3D('',#499,#500,#501);
#335=PRE_DEFINED_MARKER('');
#336=COLOUR_RGB('',0.800000011920929,0.800000011920929,0.800000011920929);
#337=DRAUGHTING_PRE_DEFINED_CURVE_FONT('continuous');
#338=COLOUR_RGB('',0.800000011920929,0.800000011920929,0.800000011920929);
#339=CARTESIAN_POINT('',(5.86,6.08053974630354,-2.7));
#340=VECTOR('',#502,1.0);
#341=SURFACE_SIDE_STYLE('',(#503));
#342=EDGE_LOOP('',(#504,#505,#506,#507));
#343=AXIS2_PLACEMENT_3D('',#508,#509,#510);
#344=DRAUGHTING_PRE_DEFINED_CURVE_FONT('continuous');
#345=COLOUR_RGB('',0.800000011920929,0.800000011920929,0.800000011920929);
#346=CARTESIAN_POINT('',(5.86,6.46,0.0));
#347=VECTOR('',#511,1.0);
#348=PRE_DEFINED_MARKER('');
#349=COLOUR_RGB('',0.800000011920929,0.800000011920929,0.800000011920929);
#350=DRAUGHTING_PRE_DEFINED_CURVE_FONT('continuous');
#351=COLOUR_RGB('',0.800000011920929,0.800000011920929,0.800000011920929);
#352=AXIS2_PLACEMENT_3D('',#512,#513,#514);
#353=DRAUGHTING_PRE_DEFINED_CURVE_FONT('continuous');
#354=COLOUR_RGB('',0.800000011920929,0.800000011920929,0.800000011920929);
#355=CARTESIAN_POINT('',(0.6,6.46,0.0));
#356=VECTOR('',#515,1.0);
#357=DRAUGHTING_PRE_DEFINED_CURVE_FONT('continuous');
#358=COLOUR_RGB('',0.800000011920929,0.800000011920929,0.800000011920929);
#359=AXIS2_PLACEMENT_3D('',#516,#517,#518);
#360=DRAUGHTING_PRE_DEFINED_CURVE_FONT('continuous');
#361=COLOUR_RGB('',0.800000011920929,0.800000011920929,0.800000011920929);
#362=CARTESIAN_POINT('',(6.46,5.86,0.0));
#363=VECTOR('',#519,1.0);
#364=PRE_DEFINED_MARKER('');
#365=COLOUR_RGB('',0.800000011920929,0.800000011920929,0.800000011920929);
#366=DRAUGHTING_PRE_DEFINED_CURVE_FONT('continuous');
#367=COLOUR_RGB('',0.800000011920929,0.800000011920929,0.800000011920929);
#368=AXIS2_PLACEMENT_3D('',#520,#521,#522);
#369=SURFACE_SIDE_STYLE('',(#523));
#370=EDGE_LOOP('',(#524,#525,#526,#527));
#371=AXIS2_PLACEMENT_3D('',#528,#529,#530);
#372=PRE_DEFINED_MARKER('');
#373=COLOUR_RGB('',0.800000011920929,0.800000011920929,0.800000011920929);
#374=PRE_DEFINED_MARKER('');
#375=COLOUR_RGB('',0.800000011920929,0.800000011920929,0.800000011920929);
#376=DRAUGHTING_PRE_DEFINED_CURVE_FONT('continuous');
#377=COLOUR_RGB('',0.800000011920929,0.800000011920929,0.800000011920929);
#378=CARTESIAN_POINT('',(5.86,6.4599999999,0.0));
#379=VECTOR('',#531,1.0);
#380=PRE_DEFINED_MARKER('');
#381=COLOUR_RGB('',0.800000011920929,0.800000011920929,0.800000011920929);
#382=DRAUGHTING_PRE_DEFINED_CURVE_FONT('continuous');
#383=COLOUR_RGB('',0.800000011920929,0.800000011920929,0.800000011920929);
#384=CARTESIAN_POINT('',(1.00000452363247E-010,5.86,0.0));
#385=VECTOR('',#532,1.0);
#386=SURFACE_SIDE_STYLE('',(#533));
#387=EDGE_LOOP('',(#534,#535,#536,#537));
#388=AXIS2_PLACEMENT_3D('',#538,#539,#540);
#389=PRE_DEFINED_MARKER('');
#390=COLOUR_RGB('',0.800000011920929,0.800000011920929,0.800000011920929);
#391=DRAUGHTING_PRE_DEFINED_CURVE_FONT('continuous');
#392=COLOUR_RGB('',0.800000011920929,0.800000011920929,0.800000011920929);
#393=CARTESIAN_POINT('',(0.0,0.600000000000001,0.0));
#394=VECTOR('',#541,1.0);
#395=PRE_DEFINED_MARKER('');
#396=COLOUR_RGB('',0.800000011920929,0.800000011920929,0.800000011920929);
#397=DRAUGHTING_PRE_DEFINED_CURVE_FONT('continuous');
#398=COLOUR_RGB('',0.800000011920929,0.800000011920929,0.800000011920929);
#399=AXIS2_PLACEMENT_3D('',#542,#543,#544);
#400=PRE_DEFINED_MARKER('');
#401=COLOUR_RGB('',0.800000011920929,0.800000011920929,0.800000011920929);
#402=DRAUGHTING_PRE_DEFINED_CURVE_FONT('continuous');
#403=COLOUR_RGB('',0.800000011920929,0.800000011920929,0.800000011920929);
#404=CARTESIAN_POINT('',(0.6,0.0,0.0));
#405=VECTOR('',#545,1.0);
#406=DRAUGHTING_PRE_DEFINED_CURVE_FONT('continuous');
#407=COLOUR_RGB('',0.800000011920929,0.800000011920929,0.800000011920929);
#408=CARTESIAN_POINT('',(0.6,0.0,0.0));
#409=VECTOR('',#546,1.0);
#410=DRAUGHTING_PRE_DEFINED_CURVE_FONT('continuous');
#411=COLOUR_RGB('',0.800000011920929,0.800000011920929,0.800000011920929);
#412=AXIS2_PLACEMENT_3D('',#547,#548,#549);
#413=PRE_DEFINED_MARKER('');
#414=COLOUR_RGB('',0.800000011920929,0.800000011920929,0.800000011920929);
#415=DRAUGHTING_PRE_DEFINED_CURVE_FONT('continuous');
#416=COLOUR_RGB('',0.800000011920929,0.800000011920929,0.800000011920929);
#417=CARTESIAN_POINT('',(6.08053974630354,0.6,-2.7));
#418=VECTOR('',#550,1.0);
#419=SURFACE_SIDE_STYLE('',(#551));
#420=EDGE_LOOP('',(#552,#553,#554,#555));
#421=AXIS2_PLACEMENT_3D('',#556,#557,#558);
#422=PRE_DEFINED_MARKER('');
#423=COLOUR_RGB('',0.800000011920929,0.800000011920929,0.800000011920929);
#424=DRAUGHTING_PRE_DEFINED_CURVE_FONT('continuous');
#425=COLOUR_RGB('',0.800000011920929,0.800000011920929,0.800000011920929);
#426=AXIS2_PLACEMENT_3D('',#559,#560,#561);
#427=SURFACE_SIDE_STYLE('',(#562));
#428=EDGE_LOOP('',(#563,#564,#565,#566,#567,#568,#569,#570));
#429=AXIS2_PLACEMENT_3D('',#571,#572,#573);
#430=PRE_DEFINED_MARKER('');
#431=COLOUR_RGB('',0.800000011920929,0.800000011920929,0.800000011920929);
#432=DRAUGHTING_PRE_DEFINED_CURVE_FONT('continuous');
#433=COLOUR_RGB('',0.800000011920929,0.800000011920929,0.800000011920929);
#434=CARTESIAN_POINT('',(0.379460253696458,5.86,-2.7));
#435=VECTOR('',#574,1.0);
#436=SURFACE_SIDE_STYLE('',(#575));
#437=DRAUGHTING_PRE_DEFINED_CURVE_FONT('continuous');
#438=COLOUR_RGB('',0.800000011920929,0.800000011920929,0.800000011920929);
#439=CARTESIAN_POINT('',(0.0,5.86,0.0));
#440=VECTOR('',#576,1.0);
#441=DRAUGHTING_PRE_DEFINED_CURVE_FONT('continuous');
#442=COLOUR_RGB('',0.800000011920929,0.800000011920929,0.800000011920929);
#443=CARTESIAN_POINT('',(5.86,0.0,0.0));
#444=VECTOR('',#577,1.0);
#445=SURFACE_SIDE_STYLE('',(#578));
#446=EDGE_LOOP('',(#579,#580,#581,#582));
#447=AXIS2_PLACEMENT_3D('',#583,#584,#585);
#448=DRAUGHTING_PRE_DEFINED_CURVE_FONT('continuous');
#449=COLOUR_RGB('',0.800000011920929,0.800000011920929,0.800000011920929);
#450=CARTESIAN_POINT('',(6.4599999999,0.6,0.0));
#451=VECTOR('',#586,1.0);
#452=DRAUGHTING_PRE_DEFINED_CURVE_FONT('continuous');
#453=COLOUR_RGB('',0.800000011920929,0.800000011920929,0.800000011920929);
#454=CARTESIAN_POINT('',(0.6,0.379460253696458,-2.7));
#455=VECTOR('',#587,1.0);
#456=PRE_DEFINED_MARKER('');
#457=COLOUR_RGB('',0.800000011920929,0.800000011920929,0.800000011920929);
#458=DRAUGHTING_PRE_DEFINED_CURVE_FONT('continuous');
#459=COLOUR_RGB('',0.800000011920929,0.800000011920929,0.800000011920929);
#460=AXIS2_PLACEMENT_3D('',#588,#589,#590);
#462=DIRECTION('',(0.0,1.0,0.0));
#463=SURFACE_STYLE_FILL_AREA(#591);
#464=ORIENTED_EDGE('',*,*,#107,.T.);
#465=ORIENTED_EDGE('',*,*,#125,.F.);
#466=ORIENTED_EDGE('',*,*,#103,.F.);
#467=ORIENTED_EDGE('',*,*,#105,.T.);
#468=CARTESIAN_POINT('',(0.6000000001,5.8599999999,0.0));
#469=DIRECTION('',(-0.0,-0.0,1.0));
#470=DIRECTION('',(-1.6666705053107E-010,1.0,0.0));
#471=SURFACE_STYLE_FILL_AREA(#592);
#472=ORIENTED_EDGE('',*,*,#171,.T.);
#473=ORIENTED_EDGE('',*,*,#165,.F.);
#474=ORIENTED_EDGE('',*,*,#139,.F.);
#475=ORIENTED_EDGE('',*,*,#141,.T.);
#476=CARTESIAN_POINT('',(0.6,0.0,0.0));
#477=DIRECTION('',(-0.0,-0.99026806874157,-0.139173100960066));
#478=DIRECTION('',(-1.0,0.0,0.0));
#479=SURFACE_STYLE_FILL_AREA(#593);
#480=ORIENTED_EDGE('',*,*,#91,.T.);
#481=ORIENTED_EDGE('',*,*,#121,.F.);
#482=ORIENTED_EDGE('',*,*,#113,.F.);
#483=ORIENTED_EDGE('',*,*,#109,.T.);
#484=CARTESIAN_POINT('',(5.8599999999,5.8599999999,0.0));
#485=DIRECTION('',(-0.0,-0.0,1.0));
#486=DIRECTION('',(1.0,1.66666680456728E-010,0.0));
#487=SURFACE_STYLE_FILL_AREA(#594);
#488=ORIENTED_EDGE('',*,*,#139,.T.);
#489=ORIENTED_EDGE('',*,*,#135,.T.);
#490=ORIENTED_EDGE('',*,*,#77,.T.);
#491=ORIENTED_EDGE('',*,*,#113,.T.);
#492=ORIENTED_EDGE('',*,*,#99,.T.);
#493=ORIENTED_EDGE('',*,*,#103,.T.);
#494=ORIENTED_EDGE('',*,*,#163,.T.);
#495=ORIENTED_EDGE('',*,*,#143,.T.);
#496=CARTESIAN_POINT('',(3.23,3.23,0.0));
#497=DIRECTION('',(0.0,0.0,1.0));
#498=DIRECTION('',(1.0,0.0,0.0));
#499=CARTESIAN_POINT('',(5.8599999999,5.8599999999,-2.7));
#500=DIRECTION('',(0.0,-0.0,1.0));
#501=DIRECTION('',(1.0,1.66666680456728E-010,0.0));
#502=DIRECTION('',(-1.0,0.0,0.0));
#503=SURFACE_STYLE_FILL_AREA(#595);
#504=ORIENTED_EDGE('',*,*,#147,.T.);
#505=ORIENTED_EDGE('',*,*,#109,.F.);
#506=ORIENTED_EDGE('',*,*,#77,.F.);
#507=ORIENTED_EDGE('',*,*,#169,.T.);
#508=CARTESIAN_POINT('',(6.4599999999,0.6,0.0));
#509=DIRECTION('',(0.990268068746625,-0.0,-0.1391731009241));
#510=DIRECTION('',(-0.0,-1.0,0.0));
#511=DIRECTION('',(-1.0,0.0,0.0));
#512=CARTESIAN_POINT('',(0.6000000001,5.8599999999,0.0));
#513=DIRECTION('',(0.0,0.0,1.0));
#514=DIRECTION('',(-1.6666705053107E-010,1.0,0.0));
#515=DIRECTION('',(2.31956110623358E-011,-0.139173100996033,-0.990268068736516));
#516=CARTESIAN_POINT('',(0.6000000001,5.8599999999,-2.7));
#517=DIRECTION('',(0.0,0.0,1.0));
#518=DIRECTION('',(-1.6666705053107E-010,1.0,0.0));
#519=DIRECTION('',(-0.139173100996032,-2.31956110623358E-011,-0.990268068736516));
#520=CARTESIAN_POINT('',(5.8599999999,5.8599999999,0.0));
#521=DIRECTION('',(0.0,-0.0,1.0));
#522=DIRECTION('',(1.0,1.66666680456728E-010,0.0));
#523=SURFACE_STYLE_FILL_AREA(#596);
#524=ORIENTED_EDGE('',*,*,#95,.T.);
#525=ORIENTED_EDGE('',*,*,#105,.F.);
#526=ORIENTED_EDGE('',*,*,#99,.F.);
#527=ORIENTED_EDGE('',*,*,#121,.T.);
#528=CARTESIAN_POINT('',(5.86,6.4599999999,0.0));
#529=DIRECTION('',(0.0,0.990268068746625,-0.1391731009241));
#530=DIRECTION('',(1.0,-0.0,0.0));
#531=DIRECTION('',(0.0,-0.1391731009241,-0.990268068746625));
#532=DIRECTION('',(0.139173100924099,0.0,-0.990268068746625));
#533=SURFACE_STYLE_FILL_AREA(#597);
#534=ORIENTED_EDGE('',*,*,#153,.T.);
#535=ORIENTED_EDGE('',*,*,#169,.F.);
#536=ORIENTED_EDGE('',*,*,#135,.F.);
#537=ORIENTED_EDGE('',*,*,#165,.T.);
#538=CARTESIAN_POINT('',(5.8599999999,0.6000000001,0.0));
#539=DIRECTION('',(-0.0,-0.0,1.0));
#540=DIRECTION('',(1.66666680456729E-010,-1.0,0.0));
#541=DIRECTION('',(0.139173100996032,2.31954074663338E-011,-0.990268068736516));
#542=CARTESIAN_POINT('',(5.8599999999,0.6000000001,0.0));
#543=DIRECTION('',(0.0,0.0,1.0));
#544=DIRECTION('',(1.66666680456729E-010,-1.0,0.0));
#545=DIRECTION('',(1.0,0.0,0.0));
#546=DIRECTION('',(0.0,0.139173100960066,-0.99026806874157));
#547=CARTESIAN_POINT('',(0.6000000001,0.6000000001,0.0));
#548=DIRECTION('',(0.0,0.0,1.0));
#549=DIRECTION('',(-1.0,-1.66666310382387E-010,0.0));
#550=DIRECTION('',(0.0,1.0,0.0));
#551=SURFACE_STYLE_FILL_AREA(#598);
#552=ORIENTED_EDGE('',*,*,#159,.T.);
#553=ORIENTED_EDGE('',*,*,#131,.F.);
#554=ORIENTED_EDGE('',*,*,#163,.F.);
#555=ORIENTED_EDGE('',*,*,#125,.T.);
#556=CARTESIAN_POINT('',(1.00000452363247E-010,5.86,0.0));
#557=DIRECTION('',(-0.990268068746625,0.0,-0.139173100924099));
#558=DIRECTION('',(0.0,1.0,0.0));
#559=CARTESIAN_POINT('',(5.8599999999,0.6000000001,-2.7));
#560=DIRECTION('',(0.0,0.0,1.0));
#561=DIRECTION('',(1.66666680456729E-010,-1.0,0.0));
#562=SURFACE_STYLE_FILL_AREA(#599);
#563=ORIENTED_EDGE('',*,*,#153,.F.);
#564=ORIENTED_EDGE('',*,*,#171,.F.);
#565=ORIENTED_EDGE('',*,*,#175,.F.);
#566=ORIENTED_EDGE('',*,*,#159,.F.);
#567=ORIENTED_EDGE('',*,*,#107,.F.);
#568=ORIENTED_EDGE('',*,*,#95,.F.);
#569=ORIENTED_EDGE('',*,*,#91,.F.);
#570=ORIENTED_EDGE('',*,*,#147,.F.);
#571=CARTESIAN_POINT('',(3.23,3.23,-2.7));
#572=DIRECTION('',(0.0,0.0,1.0));
#573=DIRECTION('',(1.0,0.0,0.0));
#574=DIRECTION('',(0.0,-1.0,0.0));
#575=SURFACE_STYLE_FILL_AREA(#600);
#576=DIRECTION('',(0.0,-1.0,0.0));
#577=DIRECTION('',(-2.31952853087327E-011,0.139173100996032,-0.990268068736516));
#578=SURFACE_STYLE_FILL_AREA(#601);
#579=ORIENTED_EDGE('',*,*,#175,.T.);
#580=ORIENTED_EDGE('',*,*,#141,.F.);
#581=ORIENTED_EDGE('',*,*,#143,.F.);
#582=ORIENTED_EDGE('',*,*,#131,.T.);
#583=CARTESIAN_POINT('',(0.6000000001,0.6000000001,0.0));
#584=DIRECTION('',(0.0,-0.0,1.0));
#585=DIRECTION('',(-1.0,-1.66666310382387E-010,0.0));
#586=DIRECTION('',(-0.1391731009241,0.0,-0.990268068746625));
#587=DIRECTION('',(1.0,0.0,0.0));
#588=CARTESIAN_POINT('',(0.6000000001,0.6000000001,-2.7));
#589=DIRECTION('',(0.0,0.0,1.0));
#590=DIRECTION('',(-1.0,-1.66666310382387E-010,0.0));
#591=FILL_AREA_STYLE('',(#602));
#592=FILL_AREA_STYLE('',(#603));
#593=FILL_AREA_STYLE('',(#604));
#594=FILL_AREA_STYLE('',(#605));
#595=FILL_AREA_STYLE('',(#606));
#596=FILL_AREA_STYLE('',(#607));
#597=FILL_AREA_STYLE('',(#608));
#598=FILL_AREA_STYLE('',(#609));
#599=FILL_AREA_STYLE('',(#610));
#600=FILL_AREA_STYLE('',(#611));
#601=FILL_AREA_STYLE('',(#612));
#602=FILL_AREA_STYLE_COLOUR('',#613);
#603=FILL_AREA_STYLE_COLOUR('',#614);
#604=FILL_AREA_STYLE_COLOUR('',#615);
#605=FILL_AREA_STYLE_COLOUR('',#616);
#606=FILL_AREA_STYLE_COLOUR('',#617);
#607=FILL_AREA_STYLE_COLOUR('',#618);
#608=FILL_AREA_STYLE_COLOUR('',#619);
#609=FILL_AREA_STYLE_COLOUR('',#620);
#610=FILL_AREA_STYLE_COLOUR('',#621);
#611=FILL_AREA_STYLE_COLOUR('',#622);
#612=FILL_AREA_STYLE_COLOUR('',#623);
#613=COLOUR_RGB('',0.800000011920929,0.800000011920929,0.800000011920929);
#614=COLOUR_RGB('',0.800000011920929,0.800000011920929,0.800000011920929);
#615=COLOUR_RGB('',0.800000011920929,0.800000011920929,0.800000011920929);
#616=COLOUR_RGB('',0.800000011920929,0.800000011920929,0.800000011920929);
#617=COLOUR_RGB('',0.800000011920929,0.800000011920929,0.800000011920929);
#618=COLOUR_RGB('',0.800000011920929,0.800000011920929,0.800000011920929);
#619=COLOUR_RGB('',0.800000011920929,0.800000011920929,0.800000011920929);
#620=COLOUR_RGB('',0.800000011920929,0.800000011920929,0.800000011920929);
#621=COLOUR_RGB('',0.800000011920929,0.800000011920929,0.800000011920929);
#622=COLOUR_RGB('',0.800000011920929,0.800000011920929,0.800000011920929);
#623=COLOUR_RGB('',0.800000011920929,0.800000011920929,0.800000011920929);
#624=AXIS2_PLACEMENT_3D('PCS',#625,#626,#627);
#625=CARTESIAN_POINT('',(0.0,0.0,0.0));
#626=DIRECTION('',(0.0,0.0,1.0));
#627=DIRECTION('',(1.0,0.0,0.0));
#628=AXIS2_PLACEMENT_3D('MCS',#629,#630,#631);
#629=CARTESIAN_POINT('',(3.23,3.23,0.0));
#630=DIRECTION('',(0.0,0.0,1.0));
#631=DIRECTION('',(1.0,0.0,0.0));
#632=CONSTRUCTIVE_GEOMETRY_REPRESENTATION_RELATIONSHIP('coordinate systems',$,#65,#633);
#633=CONSTRUCTIVE_GEOMETRY_REPRESENTATION('coordinate systems',(#624,#628),#6);
ENDSEC;
END-ISO-10303-21;
