ISO-10303-21;
HEADER;
FILE_DESCRIPTION(('no description'),'unknown implementation level');
FILE_NAME('solidTNL5sB0rdv_d9OMlanGSwP3TJCs_1.STP','  ',('CIMSOURCE GmbH'),('CADClick - KiM GmbH - www.kimweb.de'),'unknown preprocess','ACIS','unknown authorization');
FILE_SCHEMA(('automotive_design'));
ENDSEC;
DATA;
#1=MECHANICAL_DESIGN_GEOMETRIC_PRESENTATION_REPRESENTATION(' ',(#10,#11,#12,#13,#14,#15,#16,#17,#18,#19,#20,#21,#22,#23,#24,#25,#26,#27,#28,#29,#30,#31,#32,#33,#34,#35,#36,#37,#38,#39,#40,#41,#42,#43,#44,#45,#46,#47,#48,#49,#50,#51,#52,#53,#54,#55,#56,#57,#58,#59,#60),#6);
#2=PRODUCT_DEFINITION_CONTEXT('',#61,'design');
#3=APPLICATION_PROTOCOL_DEFINITION('INTERNATIONAL STANDARD','automotive_design',1994,#61);
#4=PRODUCT_CATEGORY_RELATIONSHIP('NONE','NONE',#62,#63);
#5=SHAPE_DEFINITION_REPRESENTATION(#64,#65);
#6= (GEOMETRIC_REPRESENTATION_CONTEXT(3)GLOBAL_UNCERTAINTY_ASSIGNED_CONTEXT((#68))GLOBAL_UNIT_ASSIGNED_CONTEXT((#70,#71,#72))REPRESENTATION_CONTEXT('NONE','WORKSPACE'));
#10=STYLED_ITEM('',(#74),#75);
#11=STYLED_ITEM('',(#76),#77);
#12=STYLED_ITEM('',(#78),#79);
#13=STYLED_ITEM('',(#80),#81);
#14=STYLED_ITEM('',(#82),#83);
#15=STYLED_ITEM('',(#84),#85);
#16=STYLED_ITEM('',(#86),#87);
#17=STYLED_ITEM('',(#88),#89);
#18=STYLED_ITEM('',(#90),#91);
#19=STYLED_ITEM('',(#92),#93);
#20=STYLED_ITEM('',(#94),#95);
#21=STYLED_ITEM('',(#96),#97);
#22=STYLED_ITEM('',(#98),#99);
#23=STYLED_ITEM('',(#100),#101);
#24=STYLED_ITEM('',(#102),#103);
#25=STYLED_ITEM('',(#104),#105);
#26=STYLED_ITEM('',(#106),#107);
#27=STYLED_ITEM('',(#108),#109);
#28=STYLED_ITEM('',(#110),#111);
#29=STYLED_ITEM('',(#112),#113);
#30=STYLED_ITEM('',(#114),#115);
#31=STYLED_ITEM('',(#116),#117);
#32=STYLED_ITEM('',(#118),#119);
#33=STYLED_ITEM('',(#120),#121);
#34=STYLED_ITEM('',(#122),#123);
#35=STYLED_ITEM('',(#124),#125);
#36=STYLED_ITEM('',(#126),#127);
#37=STYLED_ITEM('',(#128),#129);
#38=STYLED_ITEM('',(#130),#131);
#39=STYLED_ITEM('',(#132),#133);
#40=STYLED_ITEM('',(#134),#135);
#41=STYLED_ITEM('',(#136),#137);
#42=STYLED_ITEM('',(#138),#139);
#43=STYLED_ITEM('',(#140),#141);
#44=STYLED_ITEM('',(#142),#143);
#45=STYLED_ITEM('',(#144),#145);
#46=STYLED_ITEM('',(#146),#147);
#47=STYLED_ITEM('',(#148),#149);
#48=STYLED_ITEM('',(#150),#151);
#49=STYLED_ITEM('',(#152),#153);
#50=STYLED_ITEM('',(#154),#155);
#51=STYLED_ITEM('',(#156),#157);
#52=STYLED_ITEM('',(#158),#159);
#53=STYLED_ITEM('',(#160),#161);
#54=STYLED_ITEM('',(#162),#163);
#55=STYLED_ITEM('',(#164),#165);
#56=STYLED_ITEM('',(#166),#167);
#57=STYLED_ITEM('',(#168),#169);
#58=STYLED_ITEM('',(#170),#171);
#59=STYLED_ITEM('',(#172),#173);
#60=STYLED_ITEM('',(#174),#175);
#61=APPLICATION_CONTEXT(' ');
#62=PRODUCT_CATEGORY('part','NONE');
#63=PRODUCT_RELATED_PRODUCT_CATEGORY('detail',' ',(#176));
#64=PRODUCT_DEFINITION_SHAPE('NONE','NONE',#177);
#65=ADVANCED_BREP_SHAPE_REPRESENTATION('1',(#147,#178),#6);
#68=UNCERTAINTY_MEASURE_WITH_UNIT(LENGTH_MEASURE(1.0E-006),#70,'','');
#70= (CONVERSION_BASED_UNIT('MILLIMETRE',#181)LENGTH_UNIT()NAMED_UNIT(#184));
#71= (NAMED_UNIT(#186)PLANE_ANGLE_UNIT()SI_UNIT($,.RADIAN.));
#72= (NAMED_UNIT(#186)SOLID_ANGLE_UNIT()SI_UNIT($,.STERADIAN.));
#74=PRESENTATION_STYLE_ASSIGNMENT((#192));
#75=ADVANCED_FACE('',(#193),#194,.T.);
#76=PRESENTATION_STYLE_ASSIGNMENT((#195));
#77=EDGE_CURVE('',#175,#111,#196,.T.);
#78=PRESENTATION_STYLE_ASSIGNMENT((#197));
#79=EDGE_CURVE('',#145,#171,#198,.T.);
#80=PRESENTATION_STYLE_ASSIGNMENT((#199));
#81=VERTEX_POINT('',#200);
#82=PRESENTATION_STYLE_ASSIGNMENT((#201));
#83=EDGE_CURVE('',#119,#145,#202,.T.);
#84=PRESENTATION_STYLE_ASSIGNMENT((#203));
#85=EDGE_CURVE('',#81,#141,#204,.T.);
#86=PRESENTATION_STYLE_ASSIGNMENT((#205));
#87=ADVANCED_FACE('',(#206),#207,.T.);
#88=PRESENTATION_STYLE_ASSIGNMENT((#208));
#89=ADVANCED_FACE('',(#209),#210,.F.);
#90=PRESENTATION_STYLE_ASSIGNMENT((#211));
#91=EDGE_CURVE('',#145,#151,#212,.T.);
#92=PRESENTATION_STYLE_ASSIGNMENT((#213));
#93=ADVANCED_FACE('',(#214),#215,.T.);
#94=PRESENTATION_STYLE_ASSIGNMENT((#216));
#95=EDGE_CURVE('',#173,#175,#217,.T.);
#96=PRESENTATION_STYLE_ASSIGNMENT((#218));
#97=VERTEX_POINT('',#219);
#98=PRESENTATION_STYLE_ASSIGNMENT((#220));
#99=ADVANCED_FACE('',(#221),#222,.T.);
#100=PRESENTATION_STYLE_ASSIGNMENT((#223));
#101=VERTEX_POINT('',#224);
#102=PRESENTATION_STYLE_ASSIGNMENT((#225));
#103=EDGE_CURVE('',#149,#125,#226,.T.);
#104=PRESENTATION_STYLE_ASSIGNMENT((#227));
#105=EDGE_CURVE('',#135,#111,#228,.T.);
#106=PRESENTATION_STYLE_ASSIGNMENT((#229));
#107=EDGE_CURVE('',#97,#163,#230,.T.);
#108=PRESENTATION_STYLE_ASSIGNMENT((#231));
#109=EDGE_CURVE('',#101,#125,#232,.T.);
#110=PRESENTATION_STYLE_ASSIGNMENT((#233));
#111=VERTEX_POINT('',#234);
#112=PRESENTATION_STYLE_ASSIGNMENT((#235));
#113=ADVANCED_FACE('',(#236),#237,.T.);
#114=PRESENTATION_STYLE_ASSIGNMENT((#238));
#115=EDGE_CURVE('',#135,#97,#239,.T.);
#116=PRESENTATION_STYLE_ASSIGNMENT((#240));
#117=VERTEX_POINT('',#241);
#118=PRESENTATION_STYLE_ASSIGNMENT((#242));
#119=VERTEX_POINT('',#243);
#120=PRESENTATION_STYLE_ASSIGNMENT((#244));
#121=EDGE_CURVE('',#81,#173,#245,.T.);
#122=PRESENTATION_STYLE_ASSIGNMENT((#246));
#123=EDGE_CURVE('',#97,#119,#247,.T.);
#124=PRESENTATION_STYLE_ASSIGNMENT((#248));
#125=VERTEX_POINT('',#249);
#126=PRESENTATION_STYLE_ASSIGNMENT((#250));
#127=EDGE_CURVE('',#151,#101,#251,.T.);
#128=PRESENTATION_STYLE_ASSIGNMENT((#252));
#129=EDGE_CURVE('',#171,#101,#253,.T.);
#130=PRESENTATION_STYLE_ASSIGNMENT((#254));
#131=EDGE_CURVE('',#125,#141,#255,.T.);
#132=PRESENTATION_STYLE_ASSIGNMENT((#256));
#133=ADVANCED_FACE('',(#257),#258,.T.);
#134=PRESENTATION_STYLE_ASSIGNMENT((#259));
#135=VERTEX_POINT('',#260);
#136=PRESENTATION_STYLE_ASSIGNMENT((#261));
#137=EDGE_CURVE('',#117,#171,#262,.T.);
#138=PRESENTATION_STYLE_ASSIGNMENT((#263));
#139=ADVANCED_FACE('',(#264),#265,.T.);
#140=PRESENTATION_STYLE_ASSIGNMENT((#266));
#141=VERTEX_POINT('',#267);
#142=PRESENTATION_STYLE_ASSIGNMENT((#268));
#143=EDGE_CURVE('',#141,#175,#269,.T.);
#144=PRESENTATION_STYLE_ASSIGNMENT((#270));
#145=VERTEX_POINT('',#271);
#146=PRESENTATION_STYLE_ASSIGNMENT((#272));
#147=MANIFOLD_SOLID_BREP('1',#273);
#148=PRESENTATION_STYLE_ASSIGNMENT((#274));
#149=VERTEX_POINT('',#275);
#150=PRESENTATION_STYLE_ASSIGNMENT((#276));
#151=VERTEX_POINT('',#277);
#152=PRESENTATION_STYLE_ASSIGNMENT((#278));
#153=ADVANCED_FACE('',(#279),#280,.T.);
#154=PRESENTATION_STYLE_ASSIGNMENT((#281));
#155=EDGE_CURVE('',#149,#81,#282,.T.);
#156=PRESENTATION_STYLE_ASSIGNMENT((#283));
#157=EDGE_CURVE('',#151,#149,#284,.T.);
#158=PRESENTATION_STYLE_ASSIGNMENT((#285));
#159=EDGE_CURVE('',#173,#135,#286,.T.);
#160=PRESENTATION_STYLE_ASSIGNMENT((#287));
#161=ADVANCED_FACE('',(#288),#289,.T.);
#162=PRESENTATION_STYLE_ASSIGNMENT((#290));
#163=VERTEX_POINT('',#291);
#164=PRESENTATION_STYLE_ASSIGNMENT((#292));
#165=EDGE_CURVE('',#111,#163,#293,.T.);
#166=PRESENTATION_STYLE_ASSIGNMENT((#294));
#167=EDGE_CURVE('',#119,#117,#295,.T.);
#168=PRESENTATION_STYLE_ASSIGNMENT((#296));
#169=EDGE_CURVE('',#163,#117,#297,.T.);
#170=PRESENTATION_STYLE_ASSIGNMENT((#298));
#171=VERTEX_POINT('',#299);
#172=PRESENTATION_STYLE_ASSIGNMENT((#300));
#173=VERTEX_POINT('',#301);
#174=PRESENTATION_STYLE_ASSIGNMENT((#302));
#175=VERTEX_POINT('',#303);
#176=PRODUCT('1','1','PART-1-DESC',(#304));
#177=PRODUCT_DEFINITION('NONE','NONE',#305,#2);
#178=AXIS2_PLACEMENT_3D('',#306,#307,#308);
#181=LENGTH_MEASURE_WITH_UNIT(LENGTH_MEASURE(1.0),#309);
#184=DIMENSIONAL_EXPONENTS(1.0,0.0,0.0,0.0,0.0,0.0,0.0);
#186=DIMENSIONAL_EXPONENTS(0.0,0.0,0.0,0.0,0.0,0.0,0.0);
#192=SURFACE_STYLE_USAGE(.BOTH.,#310);
#193=FACE_OUTER_BOUND('',#311,.T.);
#194=CONICAL_SURFACE('',#312,0.6,0.139626340159547);
#195=CURVE_STYLE('',#313,POSITIVE_LENGTH_MEASURE(1.0E-006),#314);
#196=LINE('',#315,#316);
#197=CURVE_STYLE('',#317,POSITIVE_LENGTH_MEASURE(1.0E-006),#318);
#198=LINE('',#319,#320);
#199=POINT_STYLE(' ',#321,POSITIVE_LENGTH_MEASURE(1.0E-006),#322);
#200=CARTESIAN_POINT('',(7.11,6.51,0.0));
#201=CURVE_STYLE('',#323,POSITIVE_LENGTH_MEASURE(1.0E-006),#324);
#202=CIRCLE('',#325,0.6);
#203=CURVE_STYLE('',#326,POSITIVE_LENGTH_MEASURE(1.0E-006),#327);
#204=LINE('',#328,#329);
#205=SURFACE_STYLE_USAGE(.BOTH.,#330);
#206=FACE_OUTER_BOUND('',#331,.T.);
#207=PLANE('',#332);
#208=SURFACE_STYLE_USAGE(.BOTH.,#333);
#209=FACE_OUTER_BOUND('',#334,.T.);
#210=PLANE('',#335);
#211=CURVE_STYLE('',#336,POSITIVE_LENGTH_MEASURE(1.0E-006),#337);
#212=LINE('',#338,#339);
#213=SURFACE_STYLE_USAGE(.BOTH.,#340);
#214=FACE_OUTER_BOUND('',#341,.T.);
#215=PLANE('',#342);
#216=CURVE_STYLE('',#343,POSITIVE_LENGTH_MEASURE(1.0E-006),#344);
#217=LINE('',#345,#346);
#218=POINT_STYLE(' ',#347,POSITIVE_LENGTH_MEASURE(1.0E-006),#348);
#219=CARTESIAN_POINT('',(1.00000452363247E-010,6.51,0.0));
#220=SURFACE_STYLE_USAGE(.BOTH.,#349);
#221=FACE_OUTER_BOUND('',#350,.T.);
#222=CONICAL_SURFACE('',#351,0.600000000000001,0.139626340159547);
#223=POINT_STYLE(' ',#352,POSITIVE_LENGTH_MEASURE(1.0E-006),#353);
#224=CARTESIAN_POINT('',(6.50999999992739,0.435676587677415,-3.1));
#225=CURVE_STYLE('',#354,POSITIVE_LENGTH_MEASURE(1.0E-006),#355);
#226=LINE('',#356,#357);
#227=CURVE_STYLE('',#358,POSITIVE_LENGTH_MEASURE(1.0E-006),#359);
#228=LINE('',#360,#361);
#229=CURVE_STYLE('',#362,POSITIVE_LENGTH_MEASURE(1.0E-006),#363);
#230=LINE('',#364,#365);
#231=CURVE_STYLE('',#366,POSITIVE_LENGTH_MEASURE(1.0E-006),#367);
#232=CIRCLE('',#368,0.164323412422585);
#233=POINT_STYLE(' ',#369,POSITIVE_LENGTH_MEASURE(1.0E-006),#370);
#234=CARTESIAN_POINT('',(0.600000000072613,6.67432341232258,-3.1));
#235=SURFACE_STYLE_USAGE(.BOTH.,#371);
#236=FACE_OUTER_BOUND('',#372,.T.);
#237=PLANE('',#373);
#238=CURVE_STYLE('',#374,POSITIVE_LENGTH_MEASURE(1.0E-006),#375);
#239=CIRCLE('',#376,0.6);
#240=POINT_STYLE(' ',#377,POSITIVE_LENGTH_MEASURE(1.0E-006),#378);
#241=CARTESIAN_POINT('',(0.435676587677415,0.600000000072613,-3.1));
#242=POINT_STYLE(' ',#379,POSITIVE_LENGTH_MEASURE(1.0E-006),#380);
#243=CARTESIAN_POINT('',(0.0,0.600000000000001,0.0));
#244=CURVE_STYLE('',#381,POSITIVE_LENGTH_MEASURE(1.0E-006),#382);
#245=CIRCLE('',#383,0.600000000000001);
#246=CURVE_STYLE('',#384,POSITIVE_LENGTH_MEASURE(1.0E-006),#385);
#247=LINE('',#386,#387);
#248=POINT_STYLE(' ',#388,POSITIVE_LENGTH_MEASURE(1.0E-006),#389);
#249=CARTESIAN_POINT('',(6.67432341242259,0.6,-3.1));
#250=CURVE_STYLE('',#390,POSITIVE_LENGTH_MEASURE(1.0E-006),#391);
#251=LINE('',#392,#393);
#252=CURVE_STYLE('',#394,POSITIVE_LENGTH_MEASURE(1.0E-006),#395);
#253=LINE('',#396,#397);
#254=CURVE_STYLE('',#398,POSITIVE_LENGTH_MEASURE(1.0E-006),#399);
#255=LINE('',#400,#401);
#256=SURFACE_STYLE_USAGE(.BOTH.,#402);
#257=FACE_OUTER_BOUND('',#403,.T.);
#258=PLANE('',#404);
#259=POINT_STYLE(' ',#405,POSITIVE_LENGTH_MEASURE(1.0E-006),#406);
#260=CARTESIAN_POINT('',(0.6,7.11,0.0));
#261=CURVE_STYLE('',#407,POSITIVE_LENGTH_MEASURE(1.0E-006),#408);
#262=CIRCLE('',#409,0.164323412422585);
#263=SURFACE_STYLE_USAGE(.BOTH.,#410);
#264=FACE_OUTER_BOUND('',#411,.T.);
#265=CONICAL_SURFACE('',#412,0.6,0.139626340159547);
#266=POINT_STYLE(' ',#413,POSITIVE_LENGTH_MEASURE(1.0E-006),#414);
#267=CARTESIAN_POINT('',(6.67432341232259,6.50999999992739,-3.1));
#268=CURVE_STYLE('',#415,POSITIVE_LENGTH_MEASURE(1.0E-006),#416);
#269=CIRCLE('',#417,0.164323412422586);
#270=POINT_STYLE(' ',#418,POSITIVE_LENGTH_MEASURE(1.0E-006),#419);
#271=CARTESIAN_POINT('',(0.6,0.0,0.0));
#272=SURFACE_STYLE_USAGE(.BOTH.,#420);
#273=CLOSED_SHELL('',(#75,#133,#99,#113,#139,#161,#153,#87,#89,#93));
#274=POINT_STYLE(' ',#421,POSITIVE_LENGTH_MEASURE(1.0E-006),#422);
#275=CARTESIAN_POINT('',(7.1099999999,0.6,0.0));
#276=POINT_STYLE(' ',#423,POSITIVE_LENGTH_MEASURE(1.0E-006),#424);
#277=CARTESIAN_POINT('',(6.51,0.0,0.0));
#278=SURFACE_STYLE_USAGE(.BOTH.,#425);
#279=FACE_OUTER_BOUND('',#426,.T.);
#280=CONICAL_SURFACE('',#427,0.6,0.139626340159547);
#281=CURVE_STYLE('',#428,POSITIVE_LENGTH_MEASURE(1.0E-006),#429);
#282=LINE('',#430,#431);
#283=CURVE_STYLE('',#432,POSITIVE_LENGTH_MEASURE(1.0E-006),#433);
#284=CIRCLE('',#434,0.6);
#285=CURVE_STYLE('',#435,POSITIVE_LENGTH_MEASURE(1.0E-006),#436);
#286=LINE('',#437,#438);
#287=SURFACE_STYLE_USAGE(.BOTH.,#439);
#288=FACE_OUTER_BOUND('',#440,.T.);
#289=PLANE('',#441);
#290=POINT_STYLE(' ',#442,POSITIVE_LENGTH_MEASURE(1.0E-006),#443);
#291=CARTESIAN_POINT('',(0.435676587577415,6.51,-3.1));
#292=CURVE_STYLE('',#444,POSITIVE_LENGTH_MEASURE(1.0E-006),#445);
#293=CIRCLE('',#446,0.164323412422585);
#294=CURVE_STYLE('',#447,POSITIVE_LENGTH_MEASURE(1.0E-006),#448);
#295=LINE('',#449,#450);
#296=CURVE_STYLE('',#451,POSITIVE_LENGTH_MEASURE(1.0E-006),#452);
#297=LINE('',#453,#454);
#298=POINT_STYLE(' ',#455,POSITIVE_LENGTH_MEASURE(1.0E-006),#456);
#299=CARTESIAN_POINT('',(0.6,0.435676587577415,-3.1));
#300=POINT_STYLE(' ',#457,POSITIVE_LENGTH_MEASURE(1.0E-006),#458);
#301=CARTESIAN_POINT('',(6.51,7.1099999999,0.0));
#302=POINT_STYLE(' ',#459,POSITIVE_LENGTH_MEASURE(1.0E-006),#460);
#303=CARTESIAN_POINT('',(6.51,6.67432341242259,-3.1));
#304=PRODUCT_CONTEXT('',#61,'mechanical');
#305=PRODUCT_DEFINITION_FORMATION_WITH_SPECIFIED_SOURCE(' ','NONE',#176,.NOT_KNOWN.);
#306=CARTESIAN_POINT('',(0.0,0.0,0.0));
#307=DIRECTION('',(0.0,0.0,1.0));
#308=DIRECTION('',(1.0,0.0,0.0));
#309= (NAMED_UNIT(#184)LENGTH_UNIT()SI_UNIT(.MILLI.,.METRE.));
#310=SURFACE_SIDE_STYLE('',(#462));
#311=EDGE_LOOP('',(#463,#464,#465,#466));
#312=AXIS2_PLACEMENT_3D('',#467,#468,#469);
#313=DRAUGHTING_PRE_DEFINED_CURVE_FONT('continuous');
#314=COLOUR_RGB('',0.800000011920929,0.800000011920929,0.800000011920929);
#315=CARTESIAN_POINT('',(6.51,6.67432341242259,-3.1));
#316=VECTOR('',#470,1.0);
#317=DRAUGHTING_PRE_DEFINED_CURVE_FONT('continuous');
#318=COLOUR_RGB('',0.800000011920929,0.800000011920929,0.800000011920929);
#319=CARTESIAN_POINT('',(0.6,0.0,0.0));
#320=VECTOR('',#471,1.0);
#321=PRE_DEFINED_MARKER('');
#322=COLOUR_RGB('',0.800000011920929,0.800000011920929,0.800000011920929);
#323=DRAUGHTING_PRE_DEFINED_CURVE_FONT('continuous');
#324=COLOUR_RGB('',0.800000011920929,0.800000011920929,0.800000011920929);
#325=AXIS2_PLACEMENT_3D('',#472,#473,#474);
#326=DRAUGHTING_PRE_DEFINED_CURVE_FONT('continuous');
#327=COLOUR_RGB('',0.800000011920929,0.800000011920929,0.800000011920929);
#328=CARTESIAN_POINT('',(7.11,6.51,0.0));
#329=VECTOR('',#475,1.0);
#330=SURFACE_SIDE_STYLE('',(#476));
#331=EDGE_LOOP('',(#477,#478,#479,#480));
#332=AXIS2_PLACEMENT_3D('',#481,#482,#483);
#333=SURFACE_SIDE_STYLE('',(#484));
#334=EDGE_LOOP('',(#485,#486,#487,#488,#489,#490,#491,#492));
#335=AXIS2_PLACEMENT_3D('',#493,#494,#495);
#336=DRAUGHTING_PRE_DEFINED_CURVE_FONT('continuous');
#337=COLOUR_RGB('',0.800000011920929,0.800000011920929,0.800000011920929);
#338=CARTESIAN_POINT('',(0.6,0.0,0.0));
#339=VECTOR('',#496,1.0);
#340=SURFACE_SIDE_STYLE('',(#497));
#341=EDGE_LOOP('',(#498,#499,#500,#501,#502,#503,#504,#505));
#342=AXIS2_PLACEMENT_3D('',#506,#507,#508);
#343=DRAUGHTING_PRE_DEFINED_CURVE_FONT('continuous');
#344=COLOUR_RGB('',0.800000011920929,0.800000011920929,0.800000011920929);
#345=CARTESIAN_POINT('',(6.51,7.1099999999,0.0));
#346=VECTOR('',#509,1.0);
#347=PRE_DEFINED_MARKER('');
#348=COLOUR_RGB('',0.800000011920929,0.800000011920929,0.800000011920929);
#349=SURFACE_SIDE_STYLE('',(#510));
#350=EDGE_LOOP('',(#511,#512,#513,#514));
#351=AXIS2_PLACEMENT_3D('',#515,#516,#517);
#352=PRE_DEFINED_MARKER('');
#353=COLOUR_RGB('',0.800000011920929,0.800000011920929,0.800000011920929);
#354=DRAUGHTING_PRE_DEFINED_CURVE_FONT('continuous');
#355=COLOUR_RGB('',0.800000011920929,0.800000011920929,0.800000011920929);
#356=CARTESIAN_POINT('',(7.1099999999,0.6,0.0));
#357=VECTOR('',#518,1.0);
#358=DRAUGHTING_PRE_DEFINED_CURVE_FONT('continuous');
#359=COLOUR_RGB('',0.800000011920929,0.800000011920929,0.800000011920929);
#360=CARTESIAN_POINT('',(0.6,7.11,0.0));
#361=VECTOR('',#519,1.0);
#362=DRAUGHTING_PRE_DEFINED_CURVE_FONT('continuous');
#363=COLOUR_RGB('',0.800000011920929,0.800000011920929,0.800000011920929);
#364=CARTESIAN_POINT('',(1.00000452363247E-010,6.51,0.0));
#365=VECTOR('',#520,1.0);
#366=DRAUGHTING_PRE_DEFINED_CURVE_FONT('continuous');
#367=COLOUR_RGB('',0.800000011920929,0.800000011920929,0.800000011920929);
#368=AXIS2_PLACEMENT_3D('',#521,#522,#523);
#369=PRE_DEFINED_MARKER('');
#370=COLOUR_RGB('',0.800000011920929,0.800000011920929,0.800000011920929);
#371=SURFACE_SIDE_STYLE('',(#524));
#372=EDGE_LOOP('',(#525,#526,#527,#528));
#373=AXIS2_PLACEMENT_3D('',#529,#530,#531);
#374=DRAUGHTING_PRE_DEFINED_CURVE_FONT('continuous');
#375=COLOUR_RGB('',0.800000011920929,0.800000011920929,0.800000011920929);
#376=AXIS2_PLACEMENT_3D('',#532,#533,#534);
#377=PRE_DEFINED_MARKER('');
#378=COLOUR_RGB('',0.800000011920929,0.800000011920929,0.800000011920929);
#379=PRE_DEFINED_MARKER('');
#380=COLOUR_RGB('',0.800000011920929,0.800000011920929,0.800000011920929);
#381=DRAUGHTING_PRE_DEFINED_CURVE_FONT('continuous');
#382=COLOUR_RGB('',0.800000011920929,0.800000011920929,0.800000011920929);
#383=AXIS2_PLACEMENT_3D('',#535,#536,#537);
#384=DRAUGHTING_PRE_DEFINED_CURVE_FONT('continuous');
#385=COLOUR_RGB('',0.800000011920929,0.800000011920929,0.800000011920929);
#386=CARTESIAN_POINT('',(0.0,6.51,0.0));
#387=VECTOR('',#538,1.0);
#388=PRE_DEFINED_MARKER('');
#389=COLOUR_RGB('',0.800000011920929,0.800000011920929,0.800000011920929);
#390=DRAUGHTING_PRE_DEFINED_CURVE_FONT('continuous');
#391=COLOUR_RGB('',0.800000011920929,0.800000011920929,0.800000011920929);
#392=CARTESIAN_POINT('',(6.51,0.0,0.0));
#393=VECTOR('',#539,1.0);
#394=DRAUGHTING_PRE_DEFINED_CURVE_FONT('continuous');
#395=COLOUR_RGB('',0.800000011920929,0.800000011920929,0.800000011920929);
#396=CARTESIAN_POINT('',(0.6,0.435676587577415,-3.1));
#397=VECTOR('',#540,1.0);
#398=DRAUGHTING_PRE_DEFINED_CURVE_FONT('continuous');
#399=COLOUR_RGB('',0.800000011920929,0.800000011920929,0.800000011920929);
#400=CARTESIAN_POINT('',(6.67432341242259,0.6,-3.1));
#401=VECTOR('',#541,1.0);
#402=SURFACE_SIDE_STYLE('',(#542));
#403=EDGE_LOOP('',(#543,#544,#545,#546));
#404=AXIS2_PLACEMENT_3D('',#547,#548,#549);
#405=PRE_DEFINED_MARKER('');
#406=COLOUR_RGB('',0.800000011920929,0.800000011920929,0.800000011920929);
#407=DRAUGHTING_PRE_DEFINED_CURVE_FONT('continuous');
#408=COLOUR_RGB('',0.800000011920929,0.800000011920929,0.800000011920929);
#409=AXIS2_PLACEMENT_3D('',#550,#551,#552);
#410=SURFACE_SIDE_STYLE('',(#553));
#411=EDGE_LOOP('',(#554,#555,#556,#557));
#412=AXIS2_PLACEMENT_3D('',#558,#559,#560);
#413=PRE_DEFINED_MARKER('');
#414=COLOUR_RGB('',0.800000011920929,0.800000011920929,0.800000011920929);
#415=DRAUGHTING_PRE_DEFINED_CURVE_FONT('continuous');
#416=COLOUR_RGB('',0.800000011920929,0.800000011920929,0.800000011920929);
#417=AXIS2_PLACEMENT_3D('',#561,#562,#563);
#418=PRE_DEFINED_MARKER('');
#419=COLOUR_RGB('',0.800000011920929,0.800000011920929,0.800000011920929);
#420=SURFACE_SIDE_STYLE('',(#564));
#421=PRE_DEFINED_MARKER('');
#422=COLOUR_RGB('',0.800000011920929,0.800000011920929,0.800000011920929);
#423=PRE_DEFINED_MARKER('');
#424=COLOUR_RGB('',0.800000011920929,0.800000011920929,0.800000011920929);
#425=SURFACE_SIDE_STYLE('',(#565));
#426=EDGE_LOOP('',(#566,#567,#568,#569));
#427=AXIS2_PLACEMENT_3D('',#570,#571,#572);
#428=DRAUGHTING_PRE_DEFINED_CURVE_FONT('continuous');
#429=COLOUR_RGB('',0.800000011920929,0.800000011920929,0.800000011920929);
#430=CARTESIAN_POINT('',(7.11,0.6,0.0));
#431=VECTOR('',#573,1.0);
#432=DRAUGHTING_PRE_DEFINED_CURVE_FONT('continuous');
#433=COLOUR_RGB('',0.800000011920929,0.800000011920929,0.800000011920929);
#434=AXIS2_PLACEMENT_3D('',#574,#575,#576);
#435=DRAUGHTING_PRE_DEFINED_CURVE_FONT('continuous');
#436=COLOUR_RGB('',0.800000011920929,0.800000011920929,0.800000011920929);
#437=CARTESIAN_POINT('',(6.51,7.11,0.0));
#438=VECTOR('',#577,1.0);
#439=SURFACE_SIDE_STYLE('',(#578));
#440=EDGE_LOOP('',(#579,#580,#581,#582));
#441=AXIS2_PLACEMENT_3D('',#583,#584,#585);
#442=PRE_DEFINED_MARKER('');
#443=COLOUR_RGB('',0.800000011920929,0.800000011920929,0.800000011920929);
#444=DRAUGHTING_PRE_DEFINED_CURVE_FONT('continuous');
#445=COLOUR_RGB('',0.800000011920929,0.800000011920929,0.800000011920929);
#446=AXIS2_PLACEMENT_3D('',#586,#587,#588);
#447=DRAUGHTING_PRE_DEFINED_CURVE_FONT('continuous');
#448=COLOUR_RGB('',0.800000011920929,0.800000011920929,0.800000011920929);
#449=CARTESIAN_POINT('',(0.0,0.600000000000001,0.0));
#450=VECTOR('',#589,1.0);
#451=DRAUGHTING_PRE_DEFINED_CURVE_FONT('continuous');
#452=COLOUR_RGB('',0.800000011920929,0.800000011920929,0.800000011920929);
#453=CARTESIAN_POINT('',(0.435676587577415,6.51,-3.1));
#454=VECTOR('',#590,1.0);
#455=PRE_DEFINED_MARKER('');
#456=COLOUR_RGB('',0.800000011920929,0.800000011920929,0.800000011920929);
#457=PRE_DEFINED_MARKER('');
#458=COLOUR_RGB('',0.800000011920929,0.800000011920929,0.800000011920929);
#459=PRE_DEFINED_MARKER('');
#460=COLOUR_RGB('',0.800000011920929,0.800000011920929,0.800000011920929);
#462=SURFACE_STYLE_FILL_AREA(#591);
#463=ORIENTED_EDGE('',*,*,#109,.T.);
#464=ORIENTED_EDGE('',*,*,#103,.F.);
#465=ORIENTED_EDGE('',*,*,#157,.F.);
#466=ORIENTED_EDGE('',*,*,#127,.T.);
#467=CARTESIAN_POINT('',(6.5099999999,0.6000000001,0.0));
#468=DIRECTION('',(-0.0,-0.0,1.0));
#469=DIRECTION('',(1.66666680456729E-010,-1.0,0.0));
#470=DIRECTION('',(-1.0,0.0,0.0));
#471=DIRECTION('',(0.0,0.139173100960066,-0.99026806874157));
#472=CARTESIAN_POINT('',(0.6000000001,0.6000000001,0.0));
#473=DIRECTION('',(0.0,0.0,1.0));
#474=DIRECTION('',(-1.0,-1.66666310382387E-010,0.0));
#475=DIRECTION('',(-0.139173100991391,-2.31956005541703E-011,-0.990268068737168));
#476=SURFACE_STYLE_FILL_AREA(#592);
#477=ORIENTED_EDGE('',*,*,#129,.T.);
#478=ORIENTED_EDGE('',*,*,#127,.F.);
#479=ORIENTED_EDGE('',*,*,#91,.F.);
#480=ORIENTED_EDGE('',*,*,#79,.T.);
#481=CARTESIAN_POINT('',(0.6,0.0,0.0));
#482=DIRECTION('',(-0.0,-0.99026806874157,-0.139173100960066));
#483=DIRECTION('',(-1.0,0.0,0.0));
#484=SURFACE_STYLE_FILL_AREA(#593);
#485=ORIENTED_EDGE('',*,*,#109,.F.);
#486=ORIENTED_EDGE('',*,*,#129,.F.);
#487=ORIENTED_EDGE('',*,*,#137,.F.);
#488=ORIENTED_EDGE('',*,*,#169,.F.);
#489=ORIENTED_EDGE('',*,*,#165,.F.);
#490=ORIENTED_EDGE('',*,*,#77,.F.);
#491=ORIENTED_EDGE('',*,*,#143,.F.);
#492=ORIENTED_EDGE('',*,*,#131,.F.);
#493=CARTESIAN_POINT('',(3.555,3.555,-3.1));
#494=DIRECTION('',(0.0,0.0,1.0));
#495=DIRECTION('',(1.0,0.0,0.0));
#496=DIRECTION('',(1.0,0.0,0.0));
#497=SURFACE_STYLE_FILL_AREA(#594);
#498=ORIENTED_EDGE('',*,*,#91,.T.);
#499=ORIENTED_EDGE('',*,*,#157,.T.);
#500=ORIENTED_EDGE('',*,*,#155,.T.);
#501=ORIENTED_EDGE('',*,*,#121,.T.);
#502=ORIENTED_EDGE('',*,*,#159,.T.);
#503=ORIENTED_EDGE('',*,*,#115,.T.);
#504=ORIENTED_EDGE('',*,*,#123,.T.);
#505=ORIENTED_EDGE('',*,*,#83,.T.);
#506=CARTESIAN_POINT('',(3.555,3.555,0.0));
#507=DIRECTION('',(0.0,0.0,1.0));
#508=DIRECTION('',(1.0,0.0,0.0));
#509=DIRECTION('',(0.0,-0.139173100928741,-0.990268068745973));
#510=SURFACE_STYLE_FILL_AREA(#595);
#511=ORIENTED_EDGE('',*,*,#143,.T.);
#512=ORIENTED_EDGE('',*,*,#95,.F.);
#513=ORIENTED_EDGE('',*,*,#121,.F.);
#514=ORIENTED_EDGE('',*,*,#85,.T.);
#515=CARTESIAN_POINT('',(6.5099999999,6.5099999999,0.0));
#516=DIRECTION('',(-0.0,-0.0,1.0));
#517=DIRECTION('',(1.0,1.66666680456728E-010,0.0));
#518=DIRECTION('',(-0.139173100928741,0.0,-0.990268068745973));
#519=DIRECTION('',(2.31956005541703E-011,-0.139173100991392,-0.990268068737168));
#520=DIRECTION('',(0.13917310092874,0.0,-0.990268068745973));
#521=CARTESIAN_POINT('',(6.5099999999,0.6000000001,-3.1));
#522=DIRECTION('',(0.0,0.0,1.0));
#523=DIRECTION('',(1.66666680456729E-010,-1.0,0.0));
#524=SURFACE_STYLE_FILL_AREA(#596);
#525=ORIENTED_EDGE('',*,*,#77,.T.);
#526=ORIENTED_EDGE('',*,*,#105,.F.);
#527=ORIENTED_EDGE('',*,*,#159,.F.);
#528=ORIENTED_EDGE('',*,*,#95,.T.);
#529=CARTESIAN_POINT('',(6.51,7.1099999999,0.0));
#530=DIRECTION('',(0.0,0.990268068745973,-0.139173100928741));
#531=DIRECTION('',(1.0,-0.0,0.0));
#532=CARTESIAN_POINT('',(0.6000000001,6.5099999999,0.0));
#533=DIRECTION('',(0.0,0.0,1.0));
#534=DIRECTION('',(-1.6666705053107E-010,1.0,0.0));
#535=CARTESIAN_POINT('',(6.5099999999,6.5099999999,0.0));
#536=DIRECTION('',(0.0,-0.0,1.0));
#537=DIRECTION('',(1.0,1.66666680456728E-010,0.0));
#538=DIRECTION('',(0.0,-1.0,0.0));
#539=DIRECTION('',(-2.31953168332902E-011,0.139173100991391,-0.990268068737168));
#540=DIRECTION('',(1.0,0.0,0.0));
#541=DIRECTION('',(0.0,1.0,0.0));
#542=SURFACE_STYLE_FILL_AREA(#597);
#543=ORIENTED_EDGE('',*,*,#131,.T.);
#544=ORIENTED_EDGE('',*,*,#85,.F.);
#545=ORIENTED_EDGE('',*,*,#155,.F.);
#546=ORIENTED_EDGE('',*,*,#103,.T.);
#547=CARTESIAN_POINT('',(7.1099999999,0.6,0.0));
#548=DIRECTION('',(0.990268068745973,-0.0,-0.139173100928741));
#549=DIRECTION('',(-0.0,-1.0,0.0));
#550=CARTESIAN_POINT('',(0.6000000001,0.6000000001,-3.1));
#551=DIRECTION('',(0.0,0.0,1.0));
#552=DIRECTION('',(-1.0,-1.66666310382387E-010,0.0));
#553=SURFACE_STYLE_FILL_AREA(#598);
#554=ORIENTED_EDGE('',*,*,#165,.T.);
#555=ORIENTED_EDGE('',*,*,#107,.F.);
#556=ORIENTED_EDGE('',*,*,#115,.F.);
#557=ORIENTED_EDGE('',*,*,#105,.T.);
#558=CARTESIAN_POINT('',(0.6000000001,6.5099999999,0.0));
#559=DIRECTION('',(-0.0,-0.0,1.0));
#560=DIRECTION('',(-1.6666705053107E-010,1.0,0.0));
#561=CARTESIAN_POINT('',(6.5099999999,6.5099999999,-3.1));
#562=DIRECTION('',(0.0,-0.0,1.0));
#563=DIRECTION('',(1.0,1.66666680456728E-010,0.0));
#564=SURFACE_STYLE_FILL_AREA(#599);
#565=SURFACE_STYLE_FILL_AREA(#600);
#566=ORIENTED_EDGE('',*,*,#137,.T.);
#567=ORIENTED_EDGE('',*,*,#79,.F.);
#568=ORIENTED_EDGE('',*,*,#83,.F.);
#569=ORIENTED_EDGE('',*,*,#167,.T.);
#570=CARTESIAN_POINT('',(0.6000000001,0.6000000001,0.0));
#571=DIRECTION('',(0.0,-0.0,1.0));
#572=DIRECTION('',(-1.0,-1.66666310382387E-010,0.0));
#573=DIRECTION('',(0.0,1.0,0.0));
#574=CARTESIAN_POINT('',(6.5099999999,0.6000000001,0.0));
#575=DIRECTION('',(0.0,0.0,1.0));
#576=DIRECTION('',(1.66666680456729E-010,-1.0,0.0));
#577=DIRECTION('',(-1.0,0.0,0.0));
#578=SURFACE_STYLE_FILL_AREA(#601);
#579=ORIENTED_EDGE('',*,*,#169,.T.);
#580=ORIENTED_EDGE('',*,*,#167,.F.);
#581=ORIENTED_EDGE('',*,*,#123,.F.);
#582=ORIENTED_EDGE('',*,*,#107,.T.);
#583=CARTESIAN_POINT('',(1.00000452363247E-010,6.51,0.0));
#584=DIRECTION('',(-0.990268068745973,0.0,-0.13917310092874));
#585=DIRECTION('',(0.0,1.0,0.0));
#586=CARTESIAN_POINT('',(0.6000000001,6.5099999999,-3.1));
#587=DIRECTION('',(0.0,0.0,1.0));
#588=DIRECTION('',(-1.6666705053107E-010,1.0,0.0));
#589=DIRECTION('',(0.139173100991391,2.31954232286202E-011,-0.990268068737168));
#590=DIRECTION('',(0.0,-1.0,0.0));
#591=FILL_AREA_STYLE('',(#602));
#592=FILL_AREA_STYLE('',(#603));
#593=FILL_AREA_STYLE('',(#604));
#594=FILL_AREA_STYLE('',(#605));
#595=FILL_AREA_STYLE('',(#606));
#596=FILL_AREA_STYLE('',(#607));
#597=FILL_AREA_STYLE('',(#608));
#598=FILL_AREA_STYLE('',(#609));
#599=FILL_AREA_STYLE('',(#610));
#600=FILL_AREA_STYLE('',(#611));
#601=FILL_AREA_STYLE('',(#612));
#602=FILL_AREA_STYLE_COLOUR('',#613);
#603=FILL_AREA_STYLE_COLOUR('',#614);
#604=FILL_AREA_STYLE_COLOUR('',#615);
#605=FILL_AREA_STYLE_COLOUR('',#616);
#606=FILL_AREA_STYLE_COLOUR('',#617);
#607=FILL_AREA_STYLE_COLOUR('',#618);
#608=FILL_AREA_STYLE_COLOUR('',#619);
#609=FILL_AREA_STYLE_COLOUR('',#620);
#610=FILL_AREA_STYLE_COLOUR('',#621);
#611=FILL_AREA_STYLE_COLOUR('',#622);
#612=FILL_AREA_STYLE_COLOUR('',#623);
#613=COLOUR_RGB('',0.800000011920929,0.800000011920929,0.800000011920929);
#614=COLOUR_RGB('',0.800000011920929,0.800000011920929,0.800000011920929);
#615=COLOUR_RGB('',0.800000011920929,0.800000011920929,0.800000011920929);
#616=COLOUR_RGB('',0.800000011920929,0.800000011920929,0.800000011920929);
#617=COLOUR_RGB('',0.800000011920929,0.800000011920929,0.800000011920929);
#618=COLOUR_RGB('',0.800000011920929,0.800000011920929,0.800000011920929);
#619=COLOUR_RGB('',0.800000011920929,0.800000011920929,0.800000011920929);
#620=COLOUR_RGB('',0.800000011920929,0.800000011920929,0.800000011920929);
#621=COLOUR_RGB('',0.800000011920929,0.800000011920929,0.800000011920929);
#622=COLOUR_RGB('',0.800000011920929,0.800000011920929,0.800000011920929);
#623=COLOUR_RGB('',0.800000011920929,0.800000011920929,0.800000011920929);
#624=AXIS2_PLACEMENT_3D('PCS',#625,#626,#627);
#625=CARTESIAN_POINT('',(0.0,0.0,0.0));
#626=DIRECTION('',(0.0,0.0,1.0));
#627=DIRECTION('',(1.0,0.0,0.0));
#628=AXIS2_PLACEMENT_3D('MCS',#629,#630,#631);
#629=CARTESIAN_POINT('',(3.555,3.555,0.0));
#630=DIRECTION('',(0.0,0.0,1.0));
#631=DIRECTION('',(1.0,0.0,0.0));
#632=CONSTRUCTIVE_GEOMETRY_REPRESENTATION_RELATIONSHIP('coordinate systems',$,#65,#633);
#633=CONSTRUCTIVE_GEOMETRY_REPRESENTATION('coordinate systems',(#624,#628),#6);
ENDSEC;
END-ISO-10303-21;
