ISO-10303-21;
HEADER;
FILE_DESCRIPTION(('no description'),'unknown implementation level');
FILE_NAME('solidSfGgT9ntN49rFeKDjdALTTNqZFM_1.STP','  ',('CIMSOURCE GmbH'),('CADClick - KiM GmbH - www.kimweb.de'),'unknown preprocess','ACIS','unknown authorization');
FILE_SCHEMA(('automotive_design'));
ENDSEC;
DATA;
#1=MECHANICAL_DESIGN_GEOMETRIC_PRESENTATION_REPRESENTATION(' ',(#10,#11,#12,#13,#14,#15,#16,#17,#18,#19,#20,#21,#22,#23,#24,#25,#26,#27,#28,#29,#30,#31,#32,#33,#34,#35,#36,#37,#38,#39,#40,#41,#42,#43,#44,#45,#46,#47,#48,#49,#50,#51,#52,#53,#54,#55,#56,#57,#58,#59,#60),#6);
#2=PRODUCT_DEFINITION_CONTEXT('',#61,'design');
#3=APPLICATION_PROTOCOL_DEFINITION('INTERNATIONAL STANDARD','automotive_design',1994,#61);
#4=PRODUCT_CATEGORY_RELATIONSHIP('NONE','NONE',#62,#63);
#5=SHAPE_DEFINITION_REPRESENTATION(#64,#65);
#6= (GEOMETRIC_REPRESENTATION_CONTEXT(3)GLOBAL_UNCERTAINTY_ASSIGNED_CONTEXT((#68))GLOBAL_UNIT_ASSIGNED_CONTEXT((#70,#71,#72))REPRESENTATION_CONTEXT('NONE','WORKSPACE'));
#10=STYLED_ITEM('',(#74),#75);
#11=STYLED_ITEM('',(#76),#77);
#12=STYLED_ITEM('',(#78),#79);
#13=STYLED_ITEM('',(#80),#81);
#14=STYLED_ITEM('',(#82),#83);
#15=STYLED_ITEM('',(#84),#85);
#16=STYLED_ITEM('',(#86),#87);
#17=STYLED_ITEM('',(#88),#89);
#18=STYLED_ITEM('',(#90),#91);
#19=STYLED_ITEM('',(#92),#93);
#20=STYLED_ITEM('',(#94),#95);
#21=STYLED_ITEM('',(#96),#97);
#22=STYLED_ITEM('',(#98),#99);
#23=STYLED_ITEM('',(#100),#101);
#24=STYLED_ITEM('',(#102),#103);
#25=STYLED_ITEM('',(#104),#105);
#26=STYLED_ITEM('',(#106),#107);
#27=STYLED_ITEM('',(#108),#109);
#28=STYLED_ITEM('',(#110),#111);
#29=STYLED_ITEM('',(#112),#113);
#30=STYLED_ITEM('',(#114),#115);
#31=STYLED_ITEM('',(#116),#117);
#32=STYLED_ITEM('',(#118),#119);
#33=STYLED_ITEM('',(#120),#121);
#34=STYLED_ITEM('',(#122),#123);
#35=STYLED_ITEM('',(#124),#125);
#36=STYLED_ITEM('',(#126),#127);
#37=STYLED_ITEM('',(#128),#129);
#38=STYLED_ITEM('',(#130),#131);
#39=STYLED_ITEM('',(#132),#133);
#40=STYLED_ITEM('',(#134),#135);
#41=STYLED_ITEM('',(#136),#137);
#42=STYLED_ITEM('',(#138),#139);
#43=STYLED_ITEM('',(#140),#141);
#44=STYLED_ITEM('',(#142),#143);
#45=STYLED_ITEM('',(#144),#145);
#46=STYLED_ITEM('',(#146),#147);
#47=STYLED_ITEM('',(#148),#149);
#48=STYLED_ITEM('',(#150),#151);
#49=STYLED_ITEM('',(#152),#153);
#50=STYLED_ITEM('',(#154),#155);
#51=STYLED_ITEM('',(#156),#157);
#52=STYLED_ITEM('',(#158),#159);
#53=STYLED_ITEM('',(#160),#161);
#54=STYLED_ITEM('',(#162),#163);
#55=STYLED_ITEM('',(#164),#165);
#56=STYLED_ITEM('',(#166),#167);
#57=STYLED_ITEM('',(#168),#169);
#58=STYLED_ITEM('',(#170),#171);
#59=STYLED_ITEM('',(#172),#173);
#60=STYLED_ITEM('',(#174),#175);
#61=APPLICATION_CONTEXT(' ');
#62=PRODUCT_CATEGORY('part','NONE');
#63=PRODUCT_RELATED_PRODUCT_CATEGORY('detail',' ',(#176));
#64=PRODUCT_DEFINITION_SHAPE('NONE','NONE',#177);
#65=ADVANCED_BREP_SHAPE_REPRESENTATION('1',(#161,#178),#6);
#68=UNCERTAINTY_MEASURE_WITH_UNIT(LENGTH_MEASURE(1.0E-006),#70,'','');
#70= (CONVERSION_BASED_UNIT('MILLIMETRE',#181)LENGTH_UNIT()NAMED_UNIT(#184));
#71= (NAMED_UNIT(#186)PLANE_ANGLE_UNIT()SI_UNIT($,.RADIAN.));
#72= (NAMED_UNIT(#186)SOLID_ANGLE_UNIT()SI_UNIT($,.STERADIAN.));
#74=PRESENTATION_STYLE_ASSIGNMENT((#192));
#75=EDGE_CURVE('',#117,#163,#193,.T.);
#76=PRESENTATION_STYLE_ASSIGNMENT((#194));
#77=VERTEX_POINT('',#195);
#78=PRESENTATION_STYLE_ASSIGNMENT((#196));
#79=ADVANCED_FACE('',(#197),#198,.T.);
#80=PRESENTATION_STYLE_ASSIGNMENT((#199));
#81=VERTEX_POINT('',#200);
#82=PRESENTATION_STYLE_ASSIGNMENT((#201));
#83=EDGE_CURVE('',#99,#89,#202,.T.);
#84=PRESENTATION_STYLE_ASSIGNMENT((#203));
#85=EDGE_CURVE('',#105,#141,#204,.T.);
#86=PRESENTATION_STYLE_ASSIGNMENT((#205));
#87=EDGE_CURVE('',#141,#121,#206,.T.);
#88=PRESENTATION_STYLE_ASSIGNMENT((#207));
#89=VERTEX_POINT('',#208);
#90=PRESENTATION_STYLE_ASSIGNMENT((#209));
#91=EDGE_CURVE('',#153,#117,#210,.T.);
#92=PRESENTATION_STYLE_ASSIGNMENT((#211));
#93=ADVANCED_FACE('',(#212),#213,.T.);
#94=PRESENTATION_STYLE_ASSIGNMENT((#214));
#95=VERTEX_POINT('',#215);
#96=PRESENTATION_STYLE_ASSIGNMENT((#216));
#97=EDGE_CURVE('',#117,#127,#217,.T.);
#98=PRESENTATION_STYLE_ASSIGNMENT((#218));
#99=VERTEX_POINT('',#219);
#100=PRESENTATION_STYLE_ASSIGNMENT((#220));
#101=EDGE_CURVE('',#81,#99,#221,.T.);
#102=PRESENTATION_STYLE_ASSIGNMENT((#222));
#103=EDGE_CURVE('',#105,#153,#223,.T.);
#104=PRESENTATION_STYLE_ASSIGNMENT((#224));
#105=VERTEX_POINT('',#225);
#106=PRESENTATION_STYLE_ASSIGNMENT((#226));
#107=EDGE_CURVE('',#77,#99,#227,.T.);
#108=PRESENTATION_STYLE_ASSIGNMENT((#228));
#109=EDGE_CURVE('',#151,#105,#229,.T.);
#110=PRESENTATION_STYLE_ASSIGNMENT((#230));
#111=ADVANCED_FACE('',(#231),#232,.F.);
#112=PRESENTATION_STYLE_ASSIGNMENT((#233));
#113=EDGE_CURVE('',#133,#165,#234,.T.);
#114=PRESENTATION_STYLE_ASSIGNMENT((#235));
#115=EDGE_CURVE('',#95,#141,#236,.T.);
#116=PRESENTATION_STYLE_ASSIGNMENT((#237));
#117=VERTEX_POINT('',#238);
#118=PRESENTATION_STYLE_ASSIGNMENT((#239));
#119=EDGE_CURVE('',#165,#131,#240,.T.);
#120=PRESENTATION_STYLE_ASSIGNMENT((#241));
#121=VERTEX_POINT('',#242);
#122=PRESENTATION_STYLE_ASSIGNMENT((#243));
#123=ADVANCED_FACE('',(#244),#245,.T.);
#124=PRESENTATION_STYLE_ASSIGNMENT((#246));
#125=EDGE_CURVE('',#131,#95,#247,.T.);
#126=PRESENTATION_STYLE_ASSIGNMENT((#248));
#127=VERTEX_POINT('',#249);
#128=PRESENTATION_STYLE_ASSIGNMENT((#250));
#129=EDGE_CURVE('',#77,#133,#251,.T.);
#130=PRESENTATION_STYLE_ASSIGNMENT((#252));
#131=VERTEX_POINT('',#253);
#132=PRESENTATION_STYLE_ASSIGNMENT((#254));
#133=VERTEX_POINT('',#255);
#134=PRESENTATION_STYLE_ASSIGNMENT((#256));
#135=ADVANCED_FACE('',(#257),#258,.T.);
#136=PRESENTATION_STYLE_ASSIGNMENT((#259));
#137=EDGE_CURVE('',#151,#95,#260,.T.);
#138=PRESENTATION_STYLE_ASSIGNMENT((#261));
#139=EDGE_CURVE('',#165,#151,#262,.T.);
#140=PRESENTATION_STYLE_ASSIGNMENT((#263));
#141=VERTEX_POINT('',#264);
#142=PRESENTATION_STYLE_ASSIGNMENT((#265));
#143=ADVANCED_FACE('',(#266),#267,.T.);
#144=PRESENTATION_STYLE_ASSIGNMENT((#268));
#145=ADVANCED_FACE('',(#269),#270,.T.);
#146=PRESENTATION_STYLE_ASSIGNMENT((#271));
#147=EDGE_CURVE('',#133,#89,#272,.T.);
#148=PRESENTATION_STYLE_ASSIGNMENT((#273));
#149=ADVANCED_FACE('',(#274),#275,.T.);
#150=PRESENTATION_STYLE_ASSIGNMENT((#276));
#151=VERTEX_POINT('',#277);
#152=PRESENTATION_STYLE_ASSIGNMENT((#278));
#153=VERTEX_POINT('',#279);
#154=PRESENTATION_STYLE_ASSIGNMENT((#280));
#155=EDGE_CURVE('',#127,#81,#281,.T.);
#156=PRESENTATION_STYLE_ASSIGNMENT((#282));
#157=EDGE_CURVE('',#121,#163,#283,.T.);
#158=PRESENTATION_STYLE_ASSIGNMENT((#284));
#159=EDGE_CURVE('',#163,#81,#285,.T.);
#160=PRESENTATION_STYLE_ASSIGNMENT((#286));
#161=MANIFOLD_SOLID_BREP('1',#287);
#162=PRESENTATION_STYLE_ASSIGNMENT((#288));
#163=VERTEX_POINT('',#289);
#164=PRESENTATION_STYLE_ASSIGNMENT((#290));
#165=VERTEX_POINT('',#291);
#166=PRESENTATION_STYLE_ASSIGNMENT((#292));
#167=EDGE_CURVE('',#153,#121,#293,.T.);
#168=PRESENTATION_STYLE_ASSIGNMENT((#294));
#169=ADVANCED_FACE('',(#295),#296,.T.);
#170=PRESENTATION_STYLE_ASSIGNMENT((#297));
#171=EDGE_CURVE('',#127,#77,#298,.T.);
#172=PRESENTATION_STYLE_ASSIGNMENT((#299));
#173=EDGE_CURVE('',#89,#131,#300,.T.);
#174=PRESENTATION_STYLE_ASSIGNMENT((#301));
#175=ADVANCED_FACE('',(#302),#303,.T.);
#176=PRODUCT('1','1','PART-1-DESC',(#304));
#177=PRODUCT_DEFINITION('NONE','NONE',#305,#2);
#178=AXIS2_PLACEMENT_3D('',#306,#307,#308);
#181=LENGTH_MEASURE_WITH_UNIT(LENGTH_MEASURE(1.0),#309);
#184=DIMENSIONAL_EXPONENTS(1.0,0.0,0.0,0.0,0.0,0.0,0.0);
#186=DIMENSIONAL_EXPONENTS(0.0,0.0,0.0,0.0,0.0,0.0,0.0);
#192=CURVE_STYLE('',#310,POSITIVE_LENGTH_MEASURE(1.0E-006),#311);
#193=LINE('',#312,#313);
#194=POINT_STYLE(' ',#314,POSITIVE_LENGTH_MEASURE(1.0E-006),#315);
#195=CARTESIAN_POINT('',(8.3599999999,0.8,0.0));
#196=SURFACE_STYLE_USAGE(.BOTH.,#316);
#197=FACE_OUTER_BOUND('',#317,.T.);
#198=PLANE('',#318);
#199=POINT_STYLE(' ',#319,POSITIVE_LENGTH_MEASURE(1.0E-006),#320);
#200=CARTESIAN_POINT('',(7.55999999993851,0.491892921558372,-3.5));
#201=CURVE_STYLE('',#321,POSITIVE_LENGTH_MEASURE(1.0E-006),#322);
#202=LINE('',#323,#324);
#203=CURVE_STYLE('',#325,POSITIVE_LENGTH_MEASURE(1.0E-006),#326);
#204=LINE('',#327,#328);
#205=CURVE_STYLE('',#329,POSITIVE_LENGTH_MEASURE(1.0E-006),#330);
#206=LINE('',#331,#332);
#207=POINT_STYLE(' ',#333,POSITIVE_LENGTH_MEASURE(1.0E-006),#334);
#208=CARTESIAN_POINT('',(7.86810707844163,7.55999999993851,-3.5));
#209=CURVE_STYLE('',#335,POSITIVE_LENGTH_MEASURE(1.0E-006),#336);
#210=CIRCLE('',#337,0.8);
#211=SURFACE_STYLE_USAGE(.BOTH.,#338);
#212=FACE_OUTER_BOUND('',#339,.T.);
#213=PLANE('',#340);
#214=POINT_STYLE(' ',#341,POSITIVE_LENGTH_MEASURE(1.0E-006),#342);
#215=CARTESIAN_POINT('',(0.800000000061489,7.86810707844163,-3.5));
#216=CURVE_STYLE('',#343,POSITIVE_LENGTH_MEASURE(1.0E-006),#344);
#217=LINE('',#345,#346);
#218=POINT_STYLE(' ',#347,POSITIVE_LENGTH_MEASURE(1.0E-006),#348);
#219=CARTESIAN_POINT('',(7.86810707854163,0.8,-3.5));
#220=CURVE_STYLE('',#349,POSITIVE_LENGTH_MEASURE(1.0E-006),#350);
#221=CIRCLE('',#351,0.308107078541629);
#222=CURVE_STYLE('',#352,POSITIVE_LENGTH_MEASURE(1.0E-006),#353);
#223=LINE('',#354,#355);
#224=POINT_STYLE(' ',#356,POSITIVE_LENGTH_MEASURE(1.0E-006),#357);
#225=CARTESIAN_POINT('',(1.00000230318642E-010,7.56,0.0));
#226=CURVE_STYLE('',#358,POSITIVE_LENGTH_MEASURE(1.0E-006),#359);
#227=LINE('',#360,#361);
#228=CURVE_STYLE('',#362,POSITIVE_LENGTH_MEASURE(1.0E-006),#363);
#229=CIRCLE('',#364,0.800000000000004);
#230=SURFACE_STYLE_USAGE(.BOTH.,#365);
#231=FACE_OUTER_BOUND('',#366,.T.);
#232=PLANE('',#367);
#233=CURVE_STYLE('',#368,POSITIVE_LENGTH_MEASURE(1.0E-006),#369);
#234=CIRCLE('',#370,0.800000000000004);
#235=CURVE_STYLE('',#371,POSITIVE_LENGTH_MEASURE(1.0E-006),#372);
#236=CIRCLE('',#373,0.308107078541633);
#237=POINT_STYLE(' ',#374,POSITIVE_LENGTH_MEASURE(1.0E-006),#375);
#238=CARTESIAN_POINT('',(0.8,0.0,0.0));
#239=CURVE_STYLE('',#376,POSITIVE_LENGTH_MEASURE(1.0E-006),#377);
#240=LINE('',#378,#379);
#241=POINT_STYLE(' ',#380,POSITIVE_LENGTH_MEASURE(1.0E-006),#381);
#242=CARTESIAN_POINT('',(0.491892921558372,0.800000000061486,-3.5));
#243=SURFACE_STYLE_USAGE(.BOTH.,#382);
#244=FACE_OUTER_BOUND('',#383,.T.);
#245=PLANE('',#384);
#246=CURVE_STYLE('',#385,POSITIVE_LENGTH_MEASURE(1.0E-006),#386);
#247=LINE('',#387,#388);
#248=POINT_STYLE(' ',#389,POSITIVE_LENGTH_MEASURE(1.0E-006),#390);
#249=CARTESIAN_POINT('',(7.56,0.0,0.0));
#250=CURVE_STYLE('',#391,POSITIVE_LENGTH_MEASURE(1.0E-006),#392);
#251=LINE('',#393,#394);
#252=POINT_STYLE(' ',#395,POSITIVE_LENGTH_MEASURE(1.0E-006),#396);
#253=CARTESIAN_POINT('',(7.56,7.86810707854163,-3.5));
#254=POINT_STYLE(' ',#397,POSITIVE_LENGTH_MEASURE(1.0E-006),#398);
#255=CARTESIAN_POINT('',(8.36,7.56,0.0));
#256=SURFACE_STYLE_USAGE(.BOTH.,#399);
#257=FACE_OUTER_BOUND('',#400,.T.);
#258=PLANE('',#401);
#259=CURVE_STYLE('',#402,POSITIVE_LENGTH_MEASURE(1.0E-006),#403);
#260=LINE('',#404,#405);
#261=CURVE_STYLE('',#406,POSITIVE_LENGTH_MEASURE(1.0E-006),#407);
#262=LINE('',#408,#409);
#263=POINT_STYLE(' ',#410,POSITIVE_LENGTH_MEASURE(1.0E-006),#411);
#264=CARTESIAN_POINT('',(0.491892921458372,7.56,-3.5));
#265=SURFACE_STYLE_USAGE(.BOTH.,#412);
#266=FACE_OUTER_BOUND('',#413,.T.);
#267=CONICAL_SURFACE('',#414,0.8,0.139626340159547);
#268=SURFACE_STYLE_USAGE(.BOTH.,#415);
#269=FACE_OUTER_BOUND('',#416,.T.);
#270=CONICAL_SURFACE('',#417,0.800000000000004,0.139626340159547);
#271=CURVE_STYLE('',#418,POSITIVE_LENGTH_MEASURE(1.0E-006),#419);
#272=LINE('',#420,#421);
#273=SURFACE_STYLE_USAGE(.BOTH.,#422);
#274=FACE_OUTER_BOUND('',#423,.T.);
#275=CONICAL_SURFACE('',#424,0.8,0.139626340159547);
#276=POINT_STYLE(' ',#425,POSITIVE_LENGTH_MEASURE(1.0E-006),#426);
#277=CARTESIAN_POINT('',(0.8,8.36,0.0));
#278=POINT_STYLE(' ',#427,POSITIVE_LENGTH_MEASURE(1.0E-006),#428);
#279=CARTESIAN_POINT('',(0.0,0.8,0.0));
#280=CURVE_STYLE('',#429,POSITIVE_LENGTH_MEASURE(1.0E-006),#430);
#281=LINE('',#431,#432);
#282=CURVE_STYLE('',#433,POSITIVE_LENGTH_MEASURE(1.0E-006),#434);
#283=CIRCLE('',#435,0.308107078541628);
#284=CURVE_STYLE('',#436,POSITIVE_LENGTH_MEASURE(1.0E-006),#437);
#285=LINE('',#438,#439);
#286=SURFACE_STYLE_USAGE(.BOTH.,#440);
#287=CLOSED_SHELL('',(#143,#175,#169,#135,#145,#79,#149,#93,#111,#123));
#288=POINT_STYLE(' ',#441,POSITIVE_LENGTH_MEASURE(1.0E-006),#442);
#289=CARTESIAN_POINT('',(0.8,0.491892921458372,-3.5));
#290=POINT_STYLE(' ',#443,POSITIVE_LENGTH_MEASURE(1.0E-006),#444);
#291=CARTESIAN_POINT('',(7.56,8.3599999999,0.0));
#292=CURVE_STYLE('',#445,POSITIVE_LENGTH_MEASURE(1.0E-006),#446);
#293=LINE('',#447,#448);
#294=SURFACE_STYLE_USAGE(.BOTH.,#449);
#295=FACE_OUTER_BOUND('',#450,.T.);
#296=CONICAL_SURFACE('',#451,0.800000000000004,0.139626340159547);
#297=CURVE_STYLE('',#452,POSITIVE_LENGTH_MEASURE(1.0E-006),#453);
#298=CIRCLE('',#454,0.8);
#299=CURVE_STYLE('',#455,POSITIVE_LENGTH_MEASURE(1.0E-006),#456);
#300=CIRCLE('',#457,0.308107078541633);
#301=SURFACE_STYLE_USAGE(.BOTH.,#458);
#302=FACE_OUTER_BOUND('',#459,.T.);
#303=PLANE('',#460);
#304=PRODUCT_CONTEXT('',#61,'mechanical');
#305=PRODUCT_DEFINITION_FORMATION_WITH_SPECIFIED_SOURCE(' ','NONE',#176,.NOT_KNOWN.);
#306=CARTESIAN_POINT('',(0.0,0.0,0.0));
#307=DIRECTION('',(0.0,0.0,1.0));
#308=DIRECTION('',(1.0,0.0,0.0));
#309= (NAMED_UNIT(#184)LENGTH_UNIT()SI_UNIT(.MILLI.,.METRE.));
#310=DRAUGHTING_PRE_DEFINED_CURVE_FONT('continuous');
#311=COLOUR_RGB('',0.800000011920929,0.800000011920929,0.800000011920929);
#312=CARTESIAN_POINT('',(0.8,0.0,0.0));
#313=VECTOR('',#462,1.0);
#314=PRE_DEFINED_MARKER('');
#315=COLOUR_RGB('',0.800000011920929,0.800000011920929,0.800000011920929);
#316=SURFACE_SIDE_STYLE('',(#463));
#317=EDGE_LOOP('',(#464,#465,#466,#467));
#318=AXIS2_PLACEMENT_3D('',#468,#469,#470);
#319=PRE_DEFINED_MARKER('');
#320=COLOUR_RGB('',0.800000011920929,0.800000011920929,0.800000011920929);
#321=DRAUGHTING_PRE_DEFINED_CURVE_FONT('continuous');
#322=COLOUR_RGB('',0.800000011920929,0.800000011920929,0.800000011920929);
#323=CARTESIAN_POINT('',(7.86810707854163,0.8,-3.5));
#324=VECTOR('',#471,1.0);
#325=DRAUGHTING_PRE_DEFINED_CURVE_FONT('continuous');
#326=COLOUR_RGB('',0.800000011920929,0.800000011920929,0.800000011920929);
#327=CARTESIAN_POINT('',(1.00000230318642E-010,7.56,0.0));
#328=VECTOR('',#472,1.0);
#329=DRAUGHTING_PRE_DEFINED_CURVE_FONT('continuous');
#330=COLOUR_RGB('',0.800000011920929,0.800000011920929,0.800000011920929);
#331=CARTESIAN_POINT('',(0.491892921458372,7.56,-3.5));
#332=VECTOR('',#473,1.0);
#333=PRE_DEFINED_MARKER('');
#334=COLOUR_RGB('',0.800000011920929,0.800000011920929,0.800000011920929);
#335=DRAUGHTING_PRE_DEFINED_CURVE_FONT('continuous');
#336=COLOUR_RGB('',0.800000011920929,0.800000011920929,0.800000011920929);
#337=AXIS2_PLACEMENT_3D('',#474,#475,#476);
#338=SURFACE_SIDE_STYLE('',(#477));
#339=EDGE_LOOP('',(#478,#479,#480,#481));
#340=AXIS2_PLACEMENT_3D('',#482,#483,#484);
#341=PRE_DEFINED_MARKER('');
#342=COLOUR_RGB('',0.800000011920929,0.800000011920929,0.800000011920929);
#343=DRAUGHTING_PRE_DEFINED_CURVE_FONT('continuous');
#344=COLOUR_RGB('',0.800000011920929,0.800000011920929,0.800000011920929);
#345=CARTESIAN_POINT('',(0.8,0.0,0.0));
#346=VECTOR('',#485,1.0);
#347=PRE_DEFINED_MARKER('');
#348=COLOUR_RGB('',0.800000011920929,0.800000011920929,0.800000011920929);
#349=DRAUGHTING_PRE_DEFINED_CURVE_FONT('continuous');
#350=COLOUR_RGB('',0.800000011920929,0.800000011920929,0.800000011920929);
#351=AXIS2_PLACEMENT_3D('',#486,#487,#488);
#352=DRAUGHTING_PRE_DEFINED_CURVE_FONT('continuous');
#353=COLOUR_RGB('',0.800000011920929,0.800000011920929,0.800000011920929);
#354=CARTESIAN_POINT('',(0.0,7.56,0.0));
#355=VECTOR('',#489,1.0);
#356=PRE_DEFINED_MARKER('');
#357=COLOUR_RGB('',0.800000011920929,0.800000011920929,0.800000011920929);
#358=DRAUGHTING_PRE_DEFINED_CURVE_FONT('continuous');
#359=COLOUR_RGB('',0.800000011920929,0.800000011920929,0.800000011920929);
#360=CARTESIAN_POINT('',(8.3599999999,0.8,0.0));
#361=VECTOR('',#490,1.0);
#362=DRAUGHTING_PRE_DEFINED_CURVE_FONT('continuous');
#363=COLOUR_RGB('',0.800000011920929,0.800000011920929,0.800000011920929);
#364=AXIS2_PLACEMENT_3D('',#491,#492,#493);
#365=SURFACE_SIDE_STYLE('',(#494));
#366=EDGE_LOOP('',(#495,#496,#497,#498,#499,#500,#501,#502));
#367=AXIS2_PLACEMENT_3D('',#503,#504,#505);
#368=DRAUGHTING_PRE_DEFINED_CURVE_FONT('continuous');
#369=COLOUR_RGB('',0.800000011920929,0.800000011920929,0.800000011920929);
#370=AXIS2_PLACEMENT_3D('',#506,#507,#508);
#371=DRAUGHTING_PRE_DEFINED_CURVE_FONT('continuous');
#372=COLOUR_RGB('',0.800000011920929,0.800000011920929,0.800000011920929);
#373=AXIS2_PLACEMENT_3D('',#509,#510,#511);
#374=PRE_DEFINED_MARKER('');
#375=COLOUR_RGB('',0.800000011920929,0.800000011920929,0.800000011920929);
#376=DRAUGHTING_PRE_DEFINED_CURVE_FONT('continuous');
#377=COLOUR_RGB('',0.800000011920929,0.800000011920929,0.800000011920929);
#378=CARTESIAN_POINT('',(7.56,8.3599999999,0.0));
#379=VECTOR('',#512,1.0);
#380=PRE_DEFINED_MARKER('');
#381=COLOUR_RGB('',0.800000011920929,0.800000011920929,0.800000011920929);
#382=SURFACE_SIDE_STYLE('',(#513));
#383=EDGE_LOOP('',(#514,#515,#516,#517,#518,#519,#520,#521));
#384=AXIS2_PLACEMENT_3D('',#522,#523,#524);
#385=DRAUGHTING_PRE_DEFINED_CURVE_FONT('continuous');
#386=COLOUR_RGB('',0.800000011920929,0.800000011920929,0.800000011920929);
#387=CARTESIAN_POINT('',(7.56,7.86810707854163,-3.5));
#388=VECTOR('',#525,1.0);
#389=PRE_DEFINED_MARKER('');
#390=COLOUR_RGB('',0.800000011920929,0.800000011920929,0.800000011920929);
#391=DRAUGHTING_PRE_DEFINED_CURVE_FONT('continuous');
#392=COLOUR_RGB('',0.800000011920929,0.800000011920929,0.800000011920929);
#393=CARTESIAN_POINT('',(8.36,0.8,0.0));
#394=VECTOR('',#526,1.0);
#395=PRE_DEFINED_MARKER('');
#396=COLOUR_RGB('',0.800000011920929,0.800000011920929,0.800000011920929);
#397=PRE_DEFINED_MARKER('');
#398=COLOUR_RGB('',0.800000011920929,0.800000011920929,0.800000011920929);
#399=SURFACE_SIDE_STYLE('',(#527));
#400=EDGE_LOOP('',(#528,#529,#530,#531));
#401=AXIS2_PLACEMENT_3D('',#532,#533,#534);
#402=DRAUGHTING_PRE_DEFINED_CURVE_FONT('continuous');
#403=COLOUR_RGB('',0.800000011920929,0.800000011920929,0.800000011920929);
#404=CARTESIAN_POINT('',(0.8,8.36,0.0));
#405=VECTOR('',#535,1.0);
#406=DRAUGHTING_PRE_DEFINED_CURVE_FONT('continuous');
#407=COLOUR_RGB('',0.800000011920929,0.800000011920929,0.800000011920929);
#408=CARTESIAN_POINT('',(7.56,8.36,0.0));
#409=VECTOR('',#536,1.0);
#410=PRE_DEFINED_MARKER('');
#411=COLOUR_RGB('',0.800000011920929,0.800000011920929,0.800000011920929);
#412=SURFACE_SIDE_STYLE('',(#537));
#413=EDGE_LOOP('',(#538,#539,#540,#541));
#414=AXIS2_PLACEMENT_3D('',#542,#543,#544);
#415=SURFACE_SIDE_STYLE('',(#545));
#416=EDGE_LOOP('',(#546,#547,#548,#549));
#417=AXIS2_PLACEMENT_3D('',#550,#551,#552);
#418=DRAUGHTING_PRE_DEFINED_CURVE_FONT('continuous');
#419=COLOUR_RGB('',0.800000011920929,0.800000011920929,0.800000011920929);
#420=CARTESIAN_POINT('',(8.36,7.56,0.0));
#421=VECTOR('',#553,1.0);
#422=SURFACE_SIDE_STYLE('',(#554));
#423=EDGE_LOOP('',(#555,#556,#557,#558));
#424=AXIS2_PLACEMENT_3D('',#559,#560,#561);
#425=PRE_DEFINED_MARKER('');
#426=COLOUR_RGB('',0.800000011920929,0.800000011920929,0.800000011920929);
#427=PRE_DEFINED_MARKER('');
#428=COLOUR_RGB('',0.800000011920929,0.800000011920929,0.800000011920929);
#429=DRAUGHTING_PRE_DEFINED_CURVE_FONT('continuous');
#430=COLOUR_RGB('',0.800000011920929,0.800000011920929,0.800000011920929);
#431=CARTESIAN_POINT('',(7.56,0.0,0.0));
#432=VECTOR('',#562,1.0);
#433=DRAUGHTING_PRE_DEFINED_CURVE_FONT('continuous');
#434=COLOUR_RGB('',0.800000011920929,0.800000011920929,0.800000011920929);
#435=AXIS2_PLACEMENT_3D('',#563,#564,#565);
#436=DRAUGHTING_PRE_DEFINED_CURVE_FONT('continuous');
#437=COLOUR_RGB('',0.800000011920929,0.800000011920929,0.800000011920929);
#438=CARTESIAN_POINT('',(0.8,0.491892921458372,-3.5));
#439=VECTOR('',#566,1.0);
#440=SURFACE_SIDE_STYLE('',(#567));
#441=PRE_DEFINED_MARKER('');
#442=COLOUR_RGB('',0.800000011920929,0.800000011920929,0.800000011920929);
#443=PRE_DEFINED_MARKER('');
#444=COLOUR_RGB('',0.800000011920929,0.800000011920929,0.800000011920929);
#445=DRAUGHTING_PRE_DEFINED_CURVE_FONT('continuous');
#446=COLOUR_RGB('',0.800000011920929,0.800000011920929,0.800000011920929);
#447=CARTESIAN_POINT('',(0.0,0.8,0.0));
#448=VECTOR('',#568,1.0);
#449=SURFACE_SIDE_STYLE('',(#569));
#450=EDGE_LOOP('',(#570,#571,#572,#573));
#451=AXIS2_PLACEMENT_3D('',#574,#575,#576);
#452=DRAUGHTING_PRE_DEFINED_CURVE_FONT('continuous');
#453=COLOUR_RGB('',0.800000011920929,0.800000011920929,0.800000011920929);
#454=AXIS2_PLACEMENT_3D('',#577,#578,#579);
#455=DRAUGHTING_PRE_DEFINED_CURVE_FONT('continuous');
#456=COLOUR_RGB('',0.800000011920929,0.800000011920929,0.800000011920929);
#457=AXIS2_PLACEMENT_3D('',#580,#581,#582);
#458=SURFACE_SIDE_STYLE('',(#583));
#459=EDGE_LOOP('',(#584,#585,#586,#587));
#460=AXIS2_PLACEMENT_3D('',#588,#589,#590);
#462=DIRECTION('',(0.0,0.139173100960066,-0.99026806874157));
#463=SURFACE_STYLE_FILL_AREA(#591);
#464=ORIENTED_EDGE('',*,*,#87,.T.);
#465=ORIENTED_EDGE('',*,*,#167,.F.);
#466=ORIENTED_EDGE('',*,*,#103,.F.);
#467=ORIENTED_EDGE('',*,*,#85,.T.);
#468=CARTESIAN_POINT('',(1.00000230318642E-010,7.56,0.0));
#469=DIRECTION('',(-0.99026806874547,0.0,-0.13917310093232));
#470=DIRECTION('',(0.0,1.0,0.0));
#471=DIRECTION('',(0.0,1.0,0.0));
#472=DIRECTION('',(0.13917310093232,0.0,-0.99026806874547));
#473=DIRECTION('',(0.0,-1.0,0.0));
#474=CARTESIAN_POINT('',(0.8000000001,0.8000000001,0.0));
#475=DIRECTION('',(0.0,0.0,1.0));
#476=DIRECTION('',(-1.0,-1.24999455231034E-010,0.0));
#477=SURFACE_STYLE_FILL_AREA(#592);
#478=ORIENTED_EDGE('',*,*,#159,.T.);
#479=ORIENTED_EDGE('',*,*,#155,.F.);
#480=ORIENTED_EDGE('',*,*,#97,.F.);
#481=ORIENTED_EDGE('',*,*,#75,.T.);
#482=CARTESIAN_POINT('',(0.8,0.0,0.0));
#483=DIRECTION('',(-0.0,-0.99026806874157,-0.139173100960066));
#484=DIRECTION('',(-1.0,0.0,0.0));
#485=DIRECTION('',(1.0,0.0,0.0));
#486=CARTESIAN_POINT('',(7.5599999999,0.8000000001,-3.5));
#487=DIRECTION('',(0.0,0.0,1.0));
#488=DIRECTION('',(1.25002230788596E-010,-1.0,0.0));
#489=DIRECTION('',(0.0,-1.0,0.0));
#490=DIRECTION('',(-0.139173100932321,0.0,-0.99026806874547));
#491=CARTESIAN_POINT('',(0.800000000100004,7.5599999999,0.0));
#492=DIRECTION('',(0.0,0.0,1.0));
#493=DIRECTION('',(-1.25005700235547E-010,1.0,0.0));
#494=SURFACE_STYLE_FILL_AREA(#593);
#495=ORIENTED_EDGE('',*,*,#101,.F.);
#496=ORIENTED_EDGE('',*,*,#159,.F.);
#497=ORIENTED_EDGE('',*,*,#157,.F.);
#498=ORIENTED_EDGE('',*,*,#87,.F.);
#499=ORIENTED_EDGE('',*,*,#115,.F.);
#500=ORIENTED_EDGE('',*,*,#125,.F.);
#501=ORIENTED_EDGE('',*,*,#173,.F.);
#502=ORIENTED_EDGE('',*,*,#83,.F.);
#503=CARTESIAN_POINT('',(4.18,4.18,-3.5));
#504=DIRECTION('',(0.0,0.0,1.0));
#505=DIRECTION('',(1.0,0.0,0.0));
#506=CARTESIAN_POINT('',(7.5599999999,7.5599999999,0.0));
#507=DIRECTION('',(0.0,-0.0,1.0));
#508=DIRECTION('',(1.0,1.25005561457669E-010,0.0));
#509=CARTESIAN_POINT('',(0.800000000100004,7.5599999999,-3.5));
#510=DIRECTION('',(0.0,0.0,1.0));
#511=DIRECTION('',(-1.25005700235547E-010,1.0,0.0));
#512=DIRECTION('',(0.0,-0.139173100932321,-0.99026806874547));
#513=SURFACE_STYLE_FILL_AREA(#594);
#514=ORIENTED_EDGE('',*,*,#97,.T.);
#515=ORIENTED_EDGE('',*,*,#171,.T.);
#516=ORIENTED_EDGE('',*,*,#129,.T.);
#517=ORIENTED_EDGE('',*,*,#113,.T.);
#518=ORIENTED_EDGE('',*,*,#139,.T.);
#519=ORIENTED_EDGE('',*,*,#109,.T.);
#520=ORIENTED_EDGE('',*,*,#103,.T.);
#521=ORIENTED_EDGE('',*,*,#91,.T.);
#522=CARTESIAN_POINT('',(4.18,4.18,0.0));
#523=DIRECTION('',(0.0,0.0,1.0));
#524=DIRECTION('',(1.0,0.0,0.0));
#525=DIRECTION('',(-1.0,0.0,0.0));
#526=DIRECTION('',(0.0,1.0,0.0));
#527=SURFACE_STYLE_FILL_AREA(#595);
#528=ORIENTED_EDGE('',*,*,#125,.T.);
#529=ORIENTED_EDGE('',*,*,#137,.F.);
#530=ORIENTED_EDGE('',*,*,#139,.F.);
#531=ORIENTED_EDGE('',*,*,#119,.T.);
#532=CARTESIAN_POINT('',(7.56,8.3599999999,0.0));
#533=DIRECTION('',(0.0,0.99026806874547,-0.139173100932321));
#534=DIRECTION('',(1.0,-0.0,0.0));
#535=DIRECTION('',(1.73974482228135E-011,-0.139173100987811,-0.990268068737671));
#536=DIRECTION('',(-1.0,0.0,0.0));
#537=SURFACE_STYLE_FILL_AREA(#596);
#538=ORIENTED_EDGE('',*,*,#101,.T.);
#539=ORIENTED_EDGE('',*,*,#107,.F.);
#540=ORIENTED_EDGE('',*,*,#171,.F.);
#541=ORIENTED_EDGE('',*,*,#155,.T.);
#542=CARTESIAN_POINT('',(7.5599999999,0.8000000001,0.0));
#543=DIRECTION('',(-0.0,-0.0,1.0));
#544=DIRECTION('',(1.25002230788596E-010,-1.0,0.0));
#545=SURFACE_STYLE_FILL_AREA(#597);
#546=ORIENTED_EDGE('',*,*,#115,.T.);
#547=ORIENTED_EDGE('',*,*,#85,.F.);
#548=ORIENTED_EDGE('',*,*,#109,.F.);
#549=ORIENTED_EDGE('',*,*,#137,.T.);
#550=CARTESIAN_POINT('',(0.800000000100004,7.5599999999,0.0));
#551=DIRECTION('',(-0.0,-0.0,1.0));
#552=DIRECTION('',(-1.25005700235547E-010,1.0,0.0));
#553=DIRECTION('',(-0.139173100987811,-1.73974482228135E-011,-0.990268068737671));
#554=SURFACE_STYLE_FILL_AREA(#598);
#555=ORIENTED_EDGE('',*,*,#157,.T.);
#556=ORIENTED_EDGE('',*,*,#75,.F.);
#557=ORIENTED_EDGE('',*,*,#91,.F.);
#558=ORIENTED_EDGE('',*,*,#167,.T.);
#559=CARTESIAN_POINT('',(0.8000000001,0.8000000001,0.0));
#560=DIRECTION('',(0.0,-0.0,1.0));
#561=DIRECTION('',(-1.0,-1.24999455231034E-010,0.0));
#562=DIRECTION('',(-1.73966943359034E-011,0.139173100987811,-0.990268068737671));
#563=CARTESIAN_POINT('',(0.8000000001,0.8000000001,-3.5));
#564=DIRECTION('',(0.0,0.0,1.0));
#565=DIRECTION('',(-1.0,-1.24999455231034E-010,0.0));
#566=DIRECTION('',(1.0,0.0,0.0));
#567=SURFACE_STYLE_FILL_AREA(#599);
#568=DIRECTION('',(0.139173100987811,1.73966315119943E-011,-0.990268068737671));
#569=SURFACE_STYLE_FILL_AREA(#600);
#570=ORIENTED_EDGE('',*,*,#173,.T.);
#571=ORIENTED_EDGE('',*,*,#119,.F.);
#572=ORIENTED_EDGE('',*,*,#113,.F.);
#573=ORIENTED_EDGE('',*,*,#147,.T.);
#574=CARTESIAN_POINT('',(7.5599999999,7.5599999999,0.0));
#575=DIRECTION('',(-0.0,-0.0,1.0));
#576=DIRECTION('',(1.0,1.25005561457669E-010,0.0));
#577=CARTESIAN_POINT('',(7.5599999999,0.8000000001,0.0));
#578=DIRECTION('',(0.0,0.0,1.0));
#579=DIRECTION('',(1.25002230788596E-010,-1.0,0.0));
#580=CARTESIAN_POINT('',(7.5599999999,7.5599999999,-3.5));
#581=DIRECTION('',(0.0,-0.0,1.0));
#582=DIRECTION('',(1.0,1.25005561457669E-010,0.0));
#583=SURFACE_STYLE_FILL_AREA(#601);
#584=ORIENTED_EDGE('',*,*,#83,.T.);
#585=ORIENTED_EDGE('',*,*,#147,.F.);
#586=ORIENTED_EDGE('',*,*,#129,.F.);
#587=ORIENTED_EDGE('',*,*,#107,.T.);
#588=CARTESIAN_POINT('',(8.3599999999,0.8,0.0));
#589=DIRECTION('',(0.99026806874547,-0.0,-0.139173100932321));
#590=DIRECTION('',(-0.0,-1.0,0.0));
#591=FILL_AREA_STYLE('',(#602));
#592=FILL_AREA_STYLE('',(#603));
#593=FILL_AREA_STYLE('',(#604));
#594=FILL_AREA_STYLE('',(#605));
#595=FILL_AREA_STYLE('',(#606));
#596=FILL_AREA_STYLE('',(#607));
#597=FILL_AREA_STYLE('',(#608));
#598=FILL_AREA_STYLE('',(#609));
#599=FILL_AREA_STYLE('',(#610));
#600=FILL_AREA_STYLE('',(#611));
#601=FILL_AREA_STYLE('',(#612));
#602=FILL_AREA_STYLE_COLOUR('',#613);
#603=FILL_AREA_STYLE_COLOUR('',#614);
#604=FILL_AREA_STYLE_COLOUR('',#615);
#605=FILL_AREA_STYLE_COLOUR('',#616);
#606=FILL_AREA_STYLE_COLOUR('',#617);
#607=FILL_AREA_STYLE_COLOUR('',#618);
#608=FILL_AREA_STYLE_COLOUR('',#619);
#609=FILL_AREA_STYLE_COLOUR('',#620);
#610=FILL_AREA_STYLE_COLOUR('',#621);
#611=FILL_AREA_STYLE_COLOUR('',#622);
#612=FILL_AREA_STYLE_COLOUR('',#623);
#613=COLOUR_RGB('',0.800000011920929,0.800000011920929,0.800000011920929);
#614=COLOUR_RGB('',0.800000011920929,0.800000011920929,0.800000011920929);
#615=COLOUR_RGB('',0.800000011920929,0.800000011920929,0.800000011920929);
#616=COLOUR_RGB('',0.800000011920929,0.800000011920929,0.800000011920929);
#617=COLOUR_RGB('',0.800000011920929,0.800000011920929,0.800000011920929);
#618=COLOUR_RGB('',0.800000011920929,0.800000011920929,0.800000011920929);
#619=COLOUR_RGB('',0.800000011920929,0.800000011920929,0.800000011920929);
#620=COLOUR_RGB('',0.800000011920929,0.800000011920929,0.800000011920929);
#621=COLOUR_RGB('',0.800000011920929,0.800000011920929,0.800000011920929);
#622=COLOUR_RGB('',0.800000011920929,0.800000011920929,0.800000011920929);
#623=COLOUR_RGB('',0.800000011920929,0.800000011920929,0.800000011920929);
#624=AXIS2_PLACEMENT_3D('PCS',#625,#626,#627);
#625=CARTESIAN_POINT('',(0.0,0.0,0.0));
#626=DIRECTION('',(0.0,0.0,1.0));
#627=DIRECTION('',(1.0,0.0,0.0));
#628=AXIS2_PLACEMENT_3D('MCS',#629,#630,#631);
#629=CARTESIAN_POINT('',(4.18,4.18,0.0));
#630=DIRECTION('',(0.0,0.0,1.0));
#631=DIRECTION('',(1.0,0.0,0.0));
#632=CONSTRUCTIVE_GEOMETRY_REPRESENTATION_RELATIONSHIP('coordinate systems',$,#65,#633);
#633=CONSTRUCTIVE_GEOMETRY_REPRESENTATION('coordinate systems',(#624,#628),#6);
ENDSEC;
END-ISO-10303-21;
