ISO-10303-21;
HEADER;
FILE_DESCRIPTION(('no description'),'unknown implementation level');
FILE_NAME('solidCejPp9mrgWbzmatYEd7W_jscBGI_1.STP','  ',('CIMSOURCE GmbH'),('CADClick - KiM GmbH - www.kimweb.de'),'unknown preprocess','ACIS','unknown authorization');
FILE_SCHEMA(('automotive_design'));
ENDSEC;
DATA;
#1=MECHANICAL_DESIGN_GEOMETRIC_PRESENTATION_REPRESENTATION(' ',(#10,#11,#12,#13,#14,#15,#16,#17,#18,#19,#20,#21,#22,#23,#24,#25,#26,#27,#28,#29,#30,#31,#32,#33,#34,#35,#36,#37,#38,#39,#40,#41,#42,#43,#44,#45,#46,#47,#48,#49,#50,#51,#52,#53,#54,#55,#56,#57,#58,#59,#60),#6);
#2=PRODUCT_DEFINITION_CONTEXT('',#61,'design');
#3=APPLICATION_PROTOCOL_DEFINITION('INTERNATIONAL STANDARD','automotive_design',1994,#61);
#4=PRODUCT_CATEGORY_RELATIONSHIP('NONE','NONE',#62,#63);
#5=SHAPE_DEFINITION_REPRESENTATION(#64,#65);
#6= (GEOMETRIC_REPRESENTATION_CONTEXT(3)GLOBAL_UNCERTAINTY_ASSIGNED_CONTEXT((#68))GLOBAL_UNIT_ASSIGNED_CONTEXT((#70,#71,#72))REPRESENTATION_CONTEXT('NONE','WORKSPACE'));
#10=STYLED_ITEM('',(#74),#75);
#11=STYLED_ITEM('',(#76),#77);
#12=STYLED_ITEM('',(#78),#79);
#13=STYLED_ITEM('',(#80),#81);
#14=STYLED_ITEM('',(#82),#83);
#15=STYLED_ITEM('',(#84),#85);
#16=STYLED_ITEM('',(#86),#87);
#17=STYLED_ITEM('',(#88),#89);
#18=STYLED_ITEM('',(#90),#91);
#19=STYLED_ITEM('',(#92),#93);
#20=STYLED_ITEM('',(#94),#95);
#21=STYLED_ITEM('',(#96),#97);
#22=STYLED_ITEM('',(#98),#99);
#23=STYLED_ITEM('',(#100),#101);
#24=STYLED_ITEM('',(#102),#103);
#25=STYLED_ITEM('',(#104),#105);
#26=STYLED_ITEM('',(#106),#107);
#27=STYLED_ITEM('',(#108),#109);
#28=STYLED_ITEM('',(#110),#111);
#29=STYLED_ITEM('',(#112),#113);
#30=STYLED_ITEM('',(#114),#115);
#31=STYLED_ITEM('',(#116),#117);
#32=STYLED_ITEM('',(#118),#119);
#33=STYLED_ITEM('',(#120),#121);
#34=STYLED_ITEM('',(#122),#123);
#35=STYLED_ITEM('',(#124),#125);
#36=STYLED_ITEM('',(#126),#127);
#37=STYLED_ITEM('',(#128),#129);
#38=STYLED_ITEM('',(#130),#131);
#39=STYLED_ITEM('',(#132),#133);
#40=STYLED_ITEM('',(#134),#135);
#41=STYLED_ITEM('',(#136),#137);
#42=STYLED_ITEM('',(#138),#139);
#43=STYLED_ITEM('',(#140),#141);
#44=STYLED_ITEM('',(#142),#143);
#45=STYLED_ITEM('',(#144),#145);
#46=STYLED_ITEM('',(#146),#147);
#47=STYLED_ITEM('',(#148),#149);
#48=STYLED_ITEM('',(#150),#151);
#49=STYLED_ITEM('',(#152),#153);
#50=STYLED_ITEM('',(#154),#155);
#51=STYLED_ITEM('',(#156),#157);
#52=STYLED_ITEM('',(#158),#159);
#53=STYLED_ITEM('',(#160),#161);
#54=STYLED_ITEM('',(#162),#163);
#55=STYLED_ITEM('',(#164),#165);
#56=STYLED_ITEM('',(#166),#167);
#57=STYLED_ITEM('',(#168),#169);
#58=STYLED_ITEM('',(#170),#171);
#59=STYLED_ITEM('',(#172),#173);
#60=STYLED_ITEM('',(#174),#175);
#61=APPLICATION_CONTEXT(' ');
#62=PRODUCT_CATEGORY('part','NONE');
#63=PRODUCT_RELATED_PRODUCT_CATEGORY('detail',' ',(#176));
#64=PRODUCT_DEFINITION_SHAPE('NONE','NONE',#177);
#65=ADVANCED_BREP_SHAPE_REPRESENTATION('1',(#157,#178),#6);
#68=UNCERTAINTY_MEASURE_WITH_UNIT(LENGTH_MEASURE(1.0E-006),#70,'','');
#70= (CONVERSION_BASED_UNIT('MILLIMETRE',#181)LENGTH_UNIT()NAMED_UNIT(#184));
#71= (NAMED_UNIT(#186)PLANE_ANGLE_UNIT()SI_UNIT($,.RADIAN.));
#72= (NAMED_UNIT(#186)SOLID_ANGLE_UNIT()SI_UNIT($,.STERADIAN.));
#74=PRESENTATION_STYLE_ASSIGNMENT((#192));
#75=VERTEX_POINT('',#193);
#76=PRESENTATION_STYLE_ASSIGNMENT((#194));
#77=ADVANCED_FACE('',(#195),#196,.T.);
#78=PRESENTATION_STYLE_ASSIGNMENT((#197));
#79=ADVANCED_FACE('',(#198),#199,.T.);
#80=PRESENTATION_STYLE_ASSIGNMENT((#200));
#81=EDGE_CURVE('',#93,#171,#201,.T.);
#82=PRESENTATION_STYLE_ASSIGNMENT((#202));
#83=EDGE_CURVE('',#163,#159,#203,.T.);
#84=PRESENTATION_STYLE_ASSIGNMENT((#204));
#85=VERTEX_POINT('',#205);
#86=PRESENTATION_STYLE_ASSIGNMENT((#206));
#87=EDGE_CURVE('',#127,#85,#207,.T.);
#88=PRESENTATION_STYLE_ASSIGNMENT((#208));
#89=EDGE_CURVE('',#129,#99,#209,.T.);
#90=PRESENTATION_STYLE_ASSIGNMENT((#210));
#91=EDGE_CURVE('',#137,#127,#211,.T.);
#92=PRESENTATION_STYLE_ASSIGNMENT((#212));
#93=VERTEX_POINT('',#213);
#94=PRESENTATION_STYLE_ASSIGNMENT((#214));
#95=EDGE_CURVE('',#163,#93,#215,.T.);
#96=PRESENTATION_STYLE_ASSIGNMENT((#216));
#97=VERTEX_POINT('',#217);
#98=PRESENTATION_STYLE_ASSIGNMENT((#218));
#99=VERTEX_POINT('',#219);
#100=PRESENTATION_STYLE_ASSIGNMENT((#220));
#101=EDGE_CURVE('',#173,#131,#221,.T.);
#102=PRESENTATION_STYLE_ASSIGNMENT((#222));
#103=EDGE_CURVE('',#121,#99,#223,.T.);
#104=PRESENTATION_STYLE_ASSIGNMENT((#224));
#105=ADVANCED_FACE('',(#225),#226,.F.);
#106=PRESENTATION_STYLE_ASSIGNMENT((#227));
#107=ADVANCED_FACE('',(#228),#229,.T.);
#108=PRESENTATION_STYLE_ASSIGNMENT((#230));
#109=EDGE_CURVE('',#145,#121,#231,.T.);
#110=PRESENTATION_STYLE_ASSIGNMENT((#232));
#111=ADVANCED_FACE('',(#233),#234,.T.);
#112=PRESENTATION_STYLE_ASSIGNMENT((#235));
#113=EDGE_CURVE('',#85,#75,#236,.T.);
#114=PRESENTATION_STYLE_ASSIGNMENT((#237));
#115=EDGE_CURVE('',#75,#145,#238,.T.);
#116=PRESENTATION_STYLE_ASSIGNMENT((#239));
#117=EDGE_CURVE('',#75,#131,#240,.T.);
#118=PRESENTATION_STYLE_ASSIGNMENT((#241));
#119=VERTEX_POINT('',#242);
#120=PRESENTATION_STYLE_ASSIGNMENT((#243));
#121=VERTEX_POINT('',#244);
#122=PRESENTATION_STYLE_ASSIGNMENT((#245));
#123=EDGE_CURVE('',#121,#163,#246,.T.);
#124=PRESENTATION_STYLE_ASSIGNMENT((#247));
#125=EDGE_CURVE('',#119,#173,#248,.T.);
#126=PRESENTATION_STYLE_ASSIGNMENT((#249));
#127=VERTEX_POINT('',#250);
#128=PRESENTATION_STYLE_ASSIGNMENT((#251));
#129=VERTEX_POINT('',#252);
#130=PRESENTATION_STYLE_ASSIGNMENT((#253));
#131=VERTEX_POINT('',#254);
#132=PRESENTATION_STYLE_ASSIGNMENT((#255));
#133=EDGE_CURVE('',#159,#171,#256,.T.);
#134=PRESENTATION_STYLE_ASSIGNMENT((#257));
#135=EDGE_CURVE('',#127,#119,#258,.T.);
#136=PRESENTATION_STYLE_ASSIGNMENT((#259));
#137=VERTEX_POINT('',#260);
#138=PRESENTATION_STYLE_ASSIGNMENT((#261));
#139=EDGE_CURVE('',#171,#97,#262,.T.);
#140=PRESENTATION_STYLE_ASSIGNMENT((#263));
#141=EDGE_CURVE('',#97,#119,#264,.T.);
#142=PRESENTATION_STYLE_ASSIGNMENT((#265));
#143=EDGE_CURVE('',#85,#173,#266,.T.);
#144=PRESENTATION_STYLE_ASSIGNMENT((#267));
#145=VERTEX_POINT('',#268);
#146=PRESENTATION_STYLE_ASSIGNMENT((#269));
#147=ADVANCED_FACE('',(#270),#271,.T.);
#148=PRESENTATION_STYLE_ASSIGNMENT((#272));
#149=ADVANCED_FACE('',(#273),#274,.T.);
#150=PRESENTATION_STYLE_ASSIGNMENT((#275));
#151=ADVANCED_FACE('',(#276),#277,.T.);
#152=PRESENTATION_STYLE_ASSIGNMENT((#278));
#153=EDGE_CURVE('',#137,#97,#279,.T.);
#154=PRESENTATION_STYLE_ASSIGNMENT((#280));
#155=EDGE_CURVE('',#131,#129,#281,.T.);
#156=PRESENTATION_STYLE_ASSIGNMENT((#282));
#157=MANIFOLD_SOLID_BREP('1',#283);
#158=PRESENTATION_STYLE_ASSIGNMENT((#284));
#159=VERTEX_POINT('',#285);
#160=PRESENTATION_STYLE_ASSIGNMENT((#286));
#161=EDGE_CURVE('',#145,#129,#287,.T.);
#162=PRESENTATION_STYLE_ASSIGNMENT((#288));
#163=VERTEX_POINT('',#289);
#164=PRESENTATION_STYLE_ASSIGNMENT((#290));
#165=EDGE_CURVE('',#99,#159,#291,.T.);
#166=PRESENTATION_STYLE_ASSIGNMENT((#292));
#167=ADVANCED_FACE('',(#293),#294,.T.);
#168=PRESENTATION_STYLE_ASSIGNMENT((#295));
#169=EDGE_CURVE('',#93,#137,#296,.T.);
#170=PRESENTATION_STYLE_ASSIGNMENT((#297));
#171=VERTEX_POINT('',#298);
#172=PRESENTATION_STYLE_ASSIGNMENT((#299));
#173=VERTEX_POINT('',#300);
#174=PRESENTATION_STYLE_ASSIGNMENT((#301));
#175=ADVANCED_FACE('',(#302),#303,.T.);
#176=PRODUCT('1','1','PART-1-DESC',(#304));
#177=PRODUCT_DEFINITION('NONE','NONE',#305,#2);
#178=AXIS2_PLACEMENT_3D('',#306,#307,#308);
#181=LENGTH_MEASURE_WITH_UNIT(LENGTH_MEASURE(1.0),#309);
#184=DIMENSIONAL_EXPONENTS(1.0,0.0,0.0,0.0,0.0,0.0,0.0);
#186=DIMENSIONAL_EXPONENTS(0.0,0.0,0.0,0.0,0.0,0.0,0.0);
#192=POINT_STYLE(' ',#310,POSITIVE_LENGTH_MEASURE(1.0E-006),#311);
#193=CARTESIAN_POINT('',(1.00000341340944E-010,8.82,0.0));
#194=SURFACE_STYLE_USAGE(.BOTH.,#312);
#195=FACE_OUTER_BOUND('',#313,.T.);
#196=PLANE('',#314);
#197=SURFACE_STYLE_USAGE(.BOTH.,#315);
#198=FACE_OUTER_BOUND('',#316,.T.);
#199=CONICAL_SURFACE('',#317,0.8,0.139626340159547);
#200=CURVE_STYLE('',#318,POSITIVE_LENGTH_MEASURE(1.0E-006),#319);
#201=LINE('',#320,#321);
#202=CURVE_STYLE('',#322,POSITIVE_LENGTH_MEASURE(1.0E-006),#323);
#203=LINE('',#324,#325);
#204=POINT_STYLE(' ',#326,POSITIVE_LENGTH_MEASURE(1.0E-006),#327);
#205=CARTESIAN_POINT('',(0.800000000000001,9.62,0.0));
#206=CURVE_STYLE('',#328,POSITIVE_LENGTH_MEASURE(1.0E-006),#329);
#207=LINE('',#330,#331);
#208=CURVE_STYLE('',#332,POSITIVE_LENGTH_MEASURE(1.0E-006),#333);
#209=CIRCLE('',#334,0.237836661190432);
#210=CURVE_STYLE('',#335,POSITIVE_LENGTH_MEASURE(1.0E-006),#336);
#211=CIRCLE('',#337,0.800000000000006);
#212=POINT_STYLE(' ',#338,POSITIVE_LENGTH_MEASURE(1.0E-006),#339);
#213=CARTESIAN_POINT('',(9.6199999999,0.8,0.0));
#214=CURVE_STYLE('',#340,POSITIVE_LENGTH_MEASURE(1.0E-006),#341);
#215=CIRCLE('',#342,0.8);
#216=POINT_STYLE(' ',#343,POSITIVE_LENGTH_MEASURE(1.0E-006),#344);
#217=CARTESIAN_POINT('',(9.05783666109043,8.81999999992973,-4.0));
#218=POINT_STYLE(' ',#345,POSITIVE_LENGTH_MEASURE(1.0E-006),#346);
#219=CARTESIAN_POINT('',(0.8,0.562163338809567,-4.0));
#220=CURVE_STYLE('',#347,POSITIVE_LENGTH_MEASURE(1.0E-006),#348);
#221=CIRCLE('',#349,0.237836661190437);
#222=CURVE_STYLE('',#350,POSITIVE_LENGTH_MEASURE(1.0E-006),#351);
#223=LINE('',#352,#353);
#224=SURFACE_STYLE_USAGE(.BOTH.,#354);
#225=FACE_OUTER_BOUND('',#355,.T.);
#226=PLANE('',#356);
#227=SURFACE_STYLE_USAGE(.BOTH.,#357);
#228=FACE_OUTER_BOUND('',#358,.T.);
#229=CONICAL_SURFACE('',#359,0.800000000000004,0.139626340159547);
#230=CURVE_STYLE('',#360,POSITIVE_LENGTH_MEASURE(1.0E-006),#361);
#231=CIRCLE('',#362,0.8);
#232=SURFACE_STYLE_USAGE(.BOTH.,#363);
#233=FACE_OUTER_BOUND('',#364,.T.);
#234=PLANE('',#365);
#235=CURVE_STYLE('',#366,POSITIVE_LENGTH_MEASURE(1.0E-006),#367);
#236=CIRCLE('',#368,0.800000000000004);
#237=CURVE_STYLE('',#369,POSITIVE_LENGTH_MEASURE(1.0E-006),#370);
#238=LINE('',#371,#372);
#239=CURVE_STYLE('',#373,POSITIVE_LENGTH_MEASURE(1.0E-006),#374);
#240=LINE('',#375,#376);
#241=POINT_STYLE(' ',#377,POSITIVE_LENGTH_MEASURE(1.0E-006),#378);
#242=CARTESIAN_POINT('',(8.82,9.05783666119043,-4.0));
#243=POINT_STYLE(' ',#379,POSITIVE_LENGTH_MEASURE(1.0E-006),#380);
#244=CARTESIAN_POINT('',(0.8,0.0,0.0));
#245=CURVE_STYLE('',#381,POSITIVE_LENGTH_MEASURE(1.0E-006),#382);
#246=LINE('',#383,#384);
#247=CURVE_STYLE('',#385,POSITIVE_LENGTH_MEASURE(1.0E-006),#386);
#248=LINE('',#387,#388);
#249=POINT_STYLE(' ',#389,POSITIVE_LENGTH_MEASURE(1.0E-006),#390);
#250=CARTESIAN_POINT('',(8.82,9.6199999999,0.0));
#251=POINT_STYLE(' ',#391,POSITIVE_LENGTH_MEASURE(1.0E-006),#392);
#252=CARTESIAN_POINT('',(0.562163338909568,0.80000000007027,-4.0));
#253=POINT_STYLE(' ',#393,POSITIVE_LENGTH_MEASURE(1.0E-006),#394);
#254=CARTESIAN_POINT('',(0.562163338809567,8.82,-4.0));
#255=CURVE_STYLE('',#395,POSITIVE_LENGTH_MEASURE(1.0E-006),#396);
#256=CIRCLE('',#397,0.237836661190433);
#257=CURVE_STYLE('',#398,POSITIVE_LENGTH_MEASURE(1.0E-006),#399);
#258=LINE('',#400,#401);
#259=POINT_STYLE(' ',#402,POSITIVE_LENGTH_MEASURE(1.0E-006),#403);
#260=CARTESIAN_POINT('',(9.62,8.82,0.0));
#261=CURVE_STYLE('',#404,POSITIVE_LENGTH_MEASURE(1.0E-006),#405);
#262=LINE('',#406,#407);
#263=CURVE_STYLE('',#408,POSITIVE_LENGTH_MEASURE(1.0E-006),#409);
#264=CIRCLE('',#410,0.237836661190439);
#265=CURVE_STYLE('',#411,POSITIVE_LENGTH_MEASURE(1.0E-006),#412);
#266=LINE('',#413,#414);
#267=POINT_STYLE(' ',#415,POSITIVE_LENGTH_MEASURE(1.0E-006),#416);
#268=CARTESIAN_POINT('',(0.0,0.800000000000001,0.0));
#269=SURFACE_STYLE_USAGE(.BOTH.,#417);
#270=FACE_OUTER_BOUND('',#418,.T.);
#271=PLANE('',#419);
#272=SURFACE_STYLE_USAGE(.BOTH.,#420);
#273=FACE_OUTER_BOUND('',#421,.T.);
#274=CONICAL_SURFACE('',#422,0.800000000000006,0.139626340159547);
#275=SURFACE_STYLE_USAGE(.BOTH.,#423);
#276=FACE_OUTER_BOUND('',#424,.T.);
#277=PLANE('',#425);
#278=CURVE_STYLE('',#426,POSITIVE_LENGTH_MEASURE(1.0E-006),#427);
#279=LINE('',#428,#429);
#280=CURVE_STYLE('',#430,POSITIVE_LENGTH_MEASURE(1.0E-006),#431);
#281=LINE('',#432,#433);
#282=SURFACE_STYLE_USAGE(.BOTH.,#434);
#283=CLOSED_SHELL('',(#175,#77,#149,#151,#107,#147,#79,#167,#105,#111));
#284=POINT_STYLE(' ',#435,POSITIVE_LENGTH_MEASURE(1.0E-006),#436);
#285=CARTESIAN_POINT('',(8.81999999992973,0.562163338909568,-4.0));
#286=CURVE_STYLE('',#437,POSITIVE_LENGTH_MEASURE(1.0E-006),#438);
#287=LINE('',#439,#440);
#288=POINT_STYLE(' ',#441,POSITIVE_LENGTH_MEASURE(1.0E-006),#442);
#289=CARTESIAN_POINT('',(8.82,0.0,0.0));
#290=CURVE_STYLE('',#443,POSITIVE_LENGTH_MEASURE(1.0E-006),#444);
#291=LINE('',#445,#446);
#292=SURFACE_STYLE_USAGE(.BOTH.,#447);
#293=FACE_OUTER_BOUND('',#448,.T.);
#294=PLANE('',#449);
#295=CURVE_STYLE('',#450,POSITIVE_LENGTH_MEASURE(1.0E-006),#451);
#296=LINE('',#452,#453);
#297=POINT_STYLE(' ',#454,POSITIVE_LENGTH_MEASURE(1.0E-006),#455);
#298=CARTESIAN_POINT('',(9.05783666119043,0.8,-4.0));
#299=POINT_STYLE(' ',#456,POSITIVE_LENGTH_MEASURE(1.0E-006),#457);
#300=CARTESIAN_POINT('',(0.800000000070274,9.05783666109043,-4.0));
#301=SURFACE_STYLE_USAGE(.BOTH.,#458);
#302=FACE_OUTER_BOUND('',#459,.T.);
#303=CONICAL_SURFACE('',#460,0.8,0.139626340159547);
#304=PRODUCT_CONTEXT('',#61,'mechanical');
#305=PRODUCT_DEFINITION_FORMATION_WITH_SPECIFIED_SOURCE(' ','NONE',#176,.NOT_KNOWN.);
#306=CARTESIAN_POINT('',(0.0,0.0,0.0));
#307=DIRECTION('',(0.0,0.0,1.0));
#308=DIRECTION('',(1.0,0.0,0.0));
#309= (NAMED_UNIT(#184)LENGTH_UNIT()SI_UNIT(.MILLI.,.METRE.));
#310=PRE_DEFINED_MARKER('');
#311=COLOUR_RGB('',0.800000011920929,0.800000011920929,0.800000011920929);
#312=SURFACE_SIDE_STYLE('',(#462));
#313=EDGE_LOOP('',(#463,#464,#465,#466));
#314=AXIS2_PLACEMENT_3D('',#467,#468,#469);
#315=SURFACE_SIDE_STYLE('',(#470));
#316=EDGE_LOOP('',(#471,#472,#473,#474));
#317=AXIS2_PLACEMENT_3D('',#475,#476,#477);
#318=DRAUGHTING_PRE_DEFINED_CURVE_FONT('continuous');
#319=COLOUR_RGB('',0.800000011920929,0.800000011920929,0.800000011920929);
#320=CARTESIAN_POINT('',(9.6199999999,0.8,0.0));
#321=VECTOR('',#478,1.0);
#322=DRAUGHTING_PRE_DEFINED_CURVE_FONT('continuous');
#323=COLOUR_RGB('',0.800000011920929,0.800000011920929,0.800000011920929);
#324=CARTESIAN_POINT('',(8.82,0.0,0.0));
#325=VECTOR('',#479,1.0);
#326=PRE_DEFINED_MARKER('');
#327=COLOUR_RGB('',0.800000011920929,0.800000011920929,0.800000011920929);
#328=DRAUGHTING_PRE_DEFINED_CURVE_FONT('continuous');
#329=COLOUR_RGB('',0.800000011920929,0.800000011920929,0.800000011920929);
#330=CARTESIAN_POINT('',(8.82,9.62,0.0));
#331=VECTOR('',#480,1.0);
#332=DRAUGHTING_PRE_DEFINED_CURVE_FONT('continuous');
#333=COLOUR_RGB('',0.800000011920929,0.800000011920929,0.800000011920929);
#334=AXIS2_PLACEMENT_3D('',#481,#482,#483);
#335=DRAUGHTING_PRE_DEFINED_CURVE_FONT('continuous');
#336=COLOUR_RGB('',0.800000011920929,0.800000011920929,0.800000011920929);
#337=AXIS2_PLACEMENT_3D('',#484,#485,#486);
#338=PRE_DEFINED_MARKER('');
#339=COLOUR_RGB('',0.800000011920929,0.800000011920929,0.800000011920929);
#340=DRAUGHTING_PRE_DEFINED_CURVE_FONT('continuous');
#341=COLOUR_RGB('',0.800000011920929,0.800000011920929,0.800000011920929);
#342=AXIS2_PLACEMENT_3D('',#487,#488,#489);
#343=PRE_DEFINED_MARKER('');
#344=COLOUR_RGB('',0.800000011920929,0.800000011920929,0.800000011920929);
#345=PRE_DEFINED_MARKER('');
#346=COLOUR_RGB('',0.800000011920929,0.800000011920929,0.800000011920929);
#347=DRAUGHTING_PRE_DEFINED_CURVE_FONT('continuous');
#348=COLOUR_RGB('',0.800000011920929,0.800000011920929,0.800000011920929);
#349=AXIS2_PLACEMENT_3D('',#490,#491,#492);
#350=DRAUGHTING_PRE_DEFINED_CURVE_FONT('continuous');
#351=COLOUR_RGB('',0.800000011920929,0.800000011920929,0.800000011920929);
#352=CARTESIAN_POINT('',(0.8,0.0,0.0));
#353=VECTOR('',#493,1.0);
#354=SURFACE_SIDE_STYLE('',(#494));
#355=EDGE_LOOP('',(#495,#496,#497,#498,#499,#500,#501,#502));
#356=AXIS2_PLACEMENT_3D('',#503,#504,#505);
#357=SURFACE_SIDE_STYLE('',(#506));
#358=EDGE_LOOP('',(#507,#508,#509,#510));
#359=AXIS2_PLACEMENT_3D('',#511,#512,#513);
#360=DRAUGHTING_PRE_DEFINED_CURVE_FONT('continuous');
#361=COLOUR_RGB('',0.800000011920929,0.800000011920929,0.800000011920929);
#362=AXIS2_PLACEMENT_3D('',#514,#515,#516);
#363=SURFACE_SIDE_STYLE('',(#517));
#364=EDGE_LOOP('',(#518,#519,#520,#521,#522,#523,#524,#525));
#365=AXIS2_PLACEMENT_3D('',#526,#527,#528);
#366=DRAUGHTING_PRE_DEFINED_CURVE_FONT('continuous');
#367=COLOUR_RGB('',0.800000011920929,0.800000011920929,0.800000011920929);
#368=AXIS2_PLACEMENT_3D('',#529,#530,#531);
#369=DRAUGHTING_PRE_DEFINED_CURVE_FONT('continuous');
#370=COLOUR_RGB('',0.800000011920929,0.800000011920929,0.800000011920929);
#371=CARTESIAN_POINT('',(0.0,8.82,0.0));
#372=VECTOR('',#532,1.0);
#373=DRAUGHTING_PRE_DEFINED_CURVE_FONT('continuous');
#374=COLOUR_RGB('',0.800000011920929,0.800000011920929,0.800000011920929);
#375=CARTESIAN_POINT('',(1.00000341340944E-010,8.82,0.0));
#376=VECTOR('',#533,1.0);
#377=PRE_DEFINED_MARKER('');
#378=COLOUR_RGB('',0.800000011920929,0.800000011920929,0.800000011920929);
#379=PRE_DEFINED_MARKER('');
#380=COLOUR_RGB('',0.800000011920929,0.800000011920929,0.800000011920929);
#381=DRAUGHTING_PRE_DEFINED_CURVE_FONT('continuous');
#382=COLOUR_RGB('',0.800000011920929,0.800000011920929,0.800000011920929);
#383=CARTESIAN_POINT('',(0.8,0.0,0.0));
#384=VECTOR('',#534,1.0);
#385=DRAUGHTING_PRE_DEFINED_CURVE_FONT('continuous');
#386=COLOUR_RGB('',0.800000011920929,0.800000011920929,0.800000011920929);
#387=CARTESIAN_POINT('',(8.82,9.05783666119043,-4.0));
#388=VECTOR('',#535,1.0);
#389=PRE_DEFINED_MARKER('');
#390=COLOUR_RGB('',0.800000011920929,0.800000011920929,0.800000011920929);
#391=PRE_DEFINED_MARKER('');
#392=COLOUR_RGB('',0.800000011920929,0.800000011920929,0.800000011920929);
#393=PRE_DEFINED_MARKER('');
#394=COLOUR_RGB('',0.800000011920929,0.800000011920929,0.800000011920929);
#395=DRAUGHTING_PRE_DEFINED_CURVE_FONT('continuous');
#396=COLOUR_RGB('',0.800000011920929,0.800000011920929,0.800000011920929);
#397=AXIS2_PLACEMENT_3D('',#536,#537,#538);
#398=DRAUGHTING_PRE_DEFINED_CURVE_FONT('continuous');
#399=COLOUR_RGB('',0.800000011920929,0.800000011920929,0.800000011920929);
#400=CARTESIAN_POINT('',(8.82,9.6199999999,0.0));
#401=VECTOR('',#539,1.0);
#402=PRE_DEFINED_MARKER('');
#403=COLOUR_RGB('',0.800000011920929,0.800000011920929,0.800000011920929);
#404=DRAUGHTING_PRE_DEFINED_CURVE_FONT('continuous');
#405=COLOUR_RGB('',0.800000011920929,0.800000011920929,0.800000011920929);
#406=CARTESIAN_POINT('',(9.05783666119043,0.8,-4.0));
#407=VECTOR('',#540,1.0);
#408=DRAUGHTING_PRE_DEFINED_CURVE_FONT('continuous');
#409=COLOUR_RGB('',0.800000011920929,0.800000011920929,0.800000011920929);
#410=AXIS2_PLACEMENT_3D('',#541,#542,#543);
#411=DRAUGHTING_PRE_DEFINED_CURVE_FONT('continuous');
#412=COLOUR_RGB('',0.800000011920929,0.800000011920929,0.800000011920929);
#413=CARTESIAN_POINT('',(0.800000000000001,9.62,0.0));
#414=VECTOR('',#544,1.0);
#415=PRE_DEFINED_MARKER('');
#416=COLOUR_RGB('',0.800000011920929,0.800000011920929,0.800000011920929);
#417=SURFACE_SIDE_STYLE('',(#545));
#418=EDGE_LOOP('',(#546,#547,#548,#549));
#419=AXIS2_PLACEMENT_3D('',#550,#551,#552);
#420=SURFACE_SIDE_STYLE('',(#553));
#421=EDGE_LOOP('',(#554,#555,#556,#557));
#422=AXIS2_PLACEMENT_3D('',#558,#559,#560);
#423=SURFACE_SIDE_STYLE('',(#561));
#424=EDGE_LOOP('',(#562,#563,#564,#565));
#425=AXIS2_PLACEMENT_3D('',#566,#567,#568);
#426=DRAUGHTING_PRE_DEFINED_CURVE_FONT('continuous');
#427=COLOUR_RGB('',0.800000011920929,0.800000011920929,0.800000011920929);
#428=CARTESIAN_POINT('',(9.62,8.82,0.0));
#429=VECTOR('',#569,1.0);
#430=DRAUGHTING_PRE_DEFINED_CURVE_FONT('continuous');
#431=COLOUR_RGB('',0.800000011920929,0.800000011920929,0.800000011920929);
#432=CARTESIAN_POINT('',(0.562163338809567,8.82,-4.0));
#433=VECTOR('',#570,1.0);
#434=SURFACE_SIDE_STYLE('',(#571));
#435=PRE_DEFINED_MARKER('');
#436=COLOUR_RGB('',0.800000011920929,0.800000011920929,0.800000011920929);
#437=DRAUGHTING_PRE_DEFINED_CURVE_FONT('continuous');
#438=COLOUR_RGB('',0.800000011920929,0.800000011920929,0.800000011920929);
#439=CARTESIAN_POINT('',(0.0,0.800000000000001,0.0));
#440=VECTOR('',#572,1.0);
#441=PRE_DEFINED_MARKER('');
#442=COLOUR_RGB('',0.800000011920929,0.800000011920929,0.800000011920929);
#443=DRAUGHTING_PRE_DEFINED_CURVE_FONT('continuous');
#444=COLOUR_RGB('',0.800000011920929,0.800000011920929,0.800000011920929);
#445=CARTESIAN_POINT('',(0.8,0.562163338809567,-4.0));
#446=VECTOR('',#573,1.0);
#447=SURFACE_SIDE_STYLE('',(#574));
#448=EDGE_LOOP('',(#575,#576,#577,#578));
#449=AXIS2_PLACEMENT_3D('',#579,#580,#581);
#450=DRAUGHTING_PRE_DEFINED_CURVE_FONT('continuous');
#451=COLOUR_RGB('',0.800000011920929,0.800000011920929,0.800000011920929);
#452=CARTESIAN_POINT('',(9.62,0.8,0.0));
#453=VECTOR('',#582,1.0);
#454=PRE_DEFINED_MARKER('');
#455=COLOUR_RGB('',0.800000011920929,0.800000011920929,0.800000011920929);
#456=PRE_DEFINED_MARKER('');
#457=COLOUR_RGB('',0.800000011920929,0.800000011920929,0.800000011920929);
#458=SURFACE_SIDE_STYLE('',(#583));
#459=EDGE_LOOP('',(#584,#585,#586,#587));
#460=AXIS2_PLACEMENT_3D('',#588,#589,#590);
#462=SURFACE_STYLE_FILL_AREA(#591);
#463=ORIENTED_EDGE('',*,*,#139,.T.);
#464=ORIENTED_EDGE('',*,*,#153,.F.);
#465=ORIENTED_EDGE('',*,*,#169,.F.);
#466=ORIENTED_EDGE('',*,*,#81,.T.);
#467=CARTESIAN_POINT('',(9.6199999999,0.8,0.0));
#468=DIRECTION('',(0.990268068744982,-0.0,-0.139173100935789));
#469=DIRECTION('',(-0.0,-1.0,0.0));
#470=SURFACE_STYLE_FILL_AREA(#592);
#471=ORIENTED_EDGE('',*,*,#89,.T.);
#472=ORIENTED_EDGE('',*,*,#103,.F.);
#473=ORIENTED_EDGE('',*,*,#109,.F.);
#474=ORIENTED_EDGE('',*,*,#161,.T.);
#475=CARTESIAN_POINT('',(0.8000000001,0.8000000001,0.0));
#476=DIRECTION('',(0.0,-0.0,1.0));
#477=DIRECTION('',(-1.0,-1.24999455231034E-010,0.0));
#478=DIRECTION('',(-0.139173100935789,0.0,-0.990268068744982));
#479=DIRECTION('',(-1.73967571598212E-011,0.139173100984343,-0.990268068738158));
#480=DIRECTION('',(-1.0,0.0,0.0));
#481=CARTESIAN_POINT('',(0.8000000001,0.8000000001,-4.0));
#482=DIRECTION('',(0.0,0.0,1.0));
#483=DIRECTION('',(-1.0,-1.24999455231034E-010,0.0));
#484=CARTESIAN_POINT('',(8.81999999989999,8.81999999989999,0.0));
#485=DIRECTION('',(0.0,-0.0,1.0));
#486=DIRECTION('',(1.0,1.25004451234644E-010,0.0));
#487=CARTESIAN_POINT('',(8.8199999999,0.800000000100001,0.0));
#488=DIRECTION('',(0.0,0.0,1.0));
#489=DIRECTION('',(1.25000010342546E-010,-1.0,0.0));
#490=CARTESIAN_POINT('',(0.800000000100005,8.81999999989999,-4.0));
#491=DIRECTION('',(0.0,0.0,1.0));
#492=DIRECTION('',(-1.25005977791303E-010,1.0,0.0));
#493=DIRECTION('',(0.0,0.139173100960066,-0.99026806874157));
#494=SURFACE_STYLE_FILL_AREA(#593);
#495=ORIENTED_EDGE('',*,*,#133,.F.);
#496=ORIENTED_EDGE('',*,*,#165,.F.);
#497=ORIENTED_EDGE('',*,*,#89,.F.);
#498=ORIENTED_EDGE('',*,*,#155,.F.);
#499=ORIENTED_EDGE('',*,*,#101,.F.);
#500=ORIENTED_EDGE('',*,*,#125,.F.);
#501=ORIENTED_EDGE('',*,*,#141,.F.);
#502=ORIENTED_EDGE('',*,*,#139,.F.);
#503=CARTESIAN_POINT('',(4.81,4.81,-4.0));
#504=DIRECTION('',(0.0,0.0,1.0));
#505=DIRECTION('',(1.0,0.0,0.0));
#506=SURFACE_STYLE_FILL_AREA(#594);
#507=ORIENTED_EDGE('',*,*,#101,.T.);
#508=ORIENTED_EDGE('',*,*,#117,.F.);
#509=ORIENTED_EDGE('',*,*,#113,.F.);
#510=ORIENTED_EDGE('',*,*,#143,.T.);
#511=CARTESIAN_POINT('',(0.800000000100005,8.81999999989999,0.0));
#512=DIRECTION('',(-0.0,-0.0,1.0));
#513=DIRECTION('',(-1.25005977791303E-010,1.0,0.0));
#514=CARTESIAN_POINT('',(0.8000000001,0.8000000001,0.0));
#515=DIRECTION('',(0.0,0.0,1.0));
#516=DIRECTION('',(-1.0,-1.24999455231034E-010,0.0));
#517=SURFACE_STYLE_FILL_AREA(#595);
#518=ORIENTED_EDGE('',*,*,#123,.T.);
#519=ORIENTED_EDGE('',*,*,#95,.T.);
#520=ORIENTED_EDGE('',*,*,#169,.T.);
#521=ORIENTED_EDGE('',*,*,#91,.T.);
#522=ORIENTED_EDGE('',*,*,#87,.T.);
#523=ORIENTED_EDGE('',*,*,#113,.T.);
#524=ORIENTED_EDGE('',*,*,#115,.T.);
#525=ORIENTED_EDGE('',*,*,#109,.T.);
#526=CARTESIAN_POINT('',(4.81,4.81,0.0));
#527=DIRECTION('',(0.0,0.0,1.0));
#528=DIRECTION('',(1.0,0.0,0.0));
#529=CARTESIAN_POINT('',(0.800000000100005,8.81999999989999,0.0));
#530=DIRECTION('',(0.0,0.0,1.0));
#531=DIRECTION('',(-1.25005977791303E-010,1.0,0.0));
#532=DIRECTION('',(0.0,-1.0,0.0));
#533=DIRECTION('',(0.139173100935789,0.0,-0.990268068744982));
#534=DIRECTION('',(1.0,0.0,0.0));
#535=DIRECTION('',(-1.0,0.0,0.0));
#536=CARTESIAN_POINT('',(8.8199999999,0.800000000100001,-4.0));
#537=DIRECTION('',(0.0,0.0,1.0));
#538=DIRECTION('',(1.25000010342546E-010,-1.0,0.0));
#539=DIRECTION('',(0.0,-0.139173100935789,-0.990268068744982));
#540=DIRECTION('',(0.0,1.0,0.0));
#541=CARTESIAN_POINT('',(8.81999999989999,8.81999999989999,-4.0));
#542=DIRECTION('',(0.0,-0.0,1.0));
#543=DIRECTION('',(1.0,1.25004451234644E-010,0.0));
#544=DIRECTION('',(1.73973068690264E-011,-0.139173100984343,-0.990268068738158));
#545=SURFACE_STYLE_FILL_AREA(#596);
#546=ORIENTED_EDGE('',*,*,#155,.T.);
#547=ORIENTED_EDGE('',*,*,#161,.F.);
#548=ORIENTED_EDGE('',*,*,#115,.F.);
#549=ORIENTED_EDGE('',*,*,#117,.T.);
#550=CARTESIAN_POINT('',(1.00000341340944E-010,8.82,0.0));
#551=DIRECTION('',(-0.990268068744982,0.0,-0.139173100935789));
#552=DIRECTION('',(0.0,1.0,0.0));
#553=SURFACE_STYLE_FILL_AREA(#597);
#554=ORIENTED_EDGE('',*,*,#141,.T.);
#555=ORIENTED_EDGE('',*,*,#135,.F.);
#556=ORIENTED_EDGE('',*,*,#91,.F.);
#557=ORIENTED_EDGE('',*,*,#153,.T.);
#558=CARTESIAN_POINT('',(8.81999999989999,8.81999999989999,0.0));
#559=DIRECTION('',(-0.0,-0.0,1.0));
#560=DIRECTION('',(1.0,1.25004451234644E-010,0.0));
#561=SURFACE_STYLE_FILL_AREA(#598);
#562=ORIENTED_EDGE('',*,*,#125,.T.);
#563=ORIENTED_EDGE('',*,*,#143,.F.);
#564=ORIENTED_EDGE('',*,*,#87,.F.);
#565=ORIENTED_EDGE('',*,*,#135,.T.);
#566=CARTESIAN_POINT('',(8.82,9.6199999999,0.0));
#567=DIRECTION('',(0.0,0.990268068744982,-0.139173100935789));
#568=DIRECTION('',(1.0,-0.0,0.0));
#569=DIRECTION('',(-0.139173100984343,-1.73971969271853E-011,-0.990268068738158));
#570=DIRECTION('',(0.0,-1.0,0.0));
#571=SURFACE_STYLE_FILL_AREA(#599);
#572=DIRECTION('',(0.139173100984343,1.73964548197583E-011,-0.990268068738158));
#573=DIRECTION('',(1.0,0.0,0.0));
#574=SURFACE_STYLE_FILL_AREA(#600);
#575=ORIENTED_EDGE('',*,*,#165,.T.);
#576=ORIENTED_EDGE('',*,*,#83,.F.);
#577=ORIENTED_EDGE('',*,*,#123,.F.);
#578=ORIENTED_EDGE('',*,*,#103,.T.);
#579=CARTESIAN_POINT('',(0.8,0.0,0.0));
#580=DIRECTION('',(-0.0,-0.99026806874157,-0.139173100960066));
#581=DIRECTION('',(-1.0,0.0,0.0));
#582=DIRECTION('',(0.0,1.0,0.0));
#583=SURFACE_STYLE_FILL_AREA(#601);
#584=ORIENTED_EDGE('',*,*,#133,.T.);
#585=ORIENTED_EDGE('',*,*,#81,.F.);
#586=ORIENTED_EDGE('',*,*,#95,.F.);
#587=ORIENTED_EDGE('',*,*,#83,.T.);
#588=CARTESIAN_POINT('',(8.8199999999,0.800000000100001,0.0));
#589=DIRECTION('',(-0.0,-0.0,1.0));
#590=DIRECTION('',(1.25000010342546E-010,-1.0,0.0));
#591=FILL_AREA_STYLE('',(#602));
#592=FILL_AREA_STYLE('',(#603));
#593=FILL_AREA_STYLE('',(#604));
#594=FILL_AREA_STYLE('',(#605));
#595=FILL_AREA_STYLE('',(#606));
#596=FILL_AREA_STYLE('',(#607));
#597=FILL_AREA_STYLE('',(#608));
#598=FILL_AREA_STYLE('',(#609));
#599=FILL_AREA_STYLE('',(#610));
#600=FILL_AREA_STYLE('',(#611));
#601=FILL_AREA_STYLE('',(#612));
#602=FILL_AREA_STYLE_COLOUR('',#613);
#603=FILL_AREA_STYLE_COLOUR('',#614);
#604=FILL_AREA_STYLE_COLOUR('',#615);
#605=FILL_AREA_STYLE_COLOUR('',#616);
#606=FILL_AREA_STYLE_COLOUR('',#617);
#607=FILL_AREA_STYLE_COLOUR('',#618);
#608=FILL_AREA_STYLE_COLOUR('',#619);
#609=FILL_AREA_STYLE_COLOUR('',#620);
#610=FILL_AREA_STYLE_COLOUR('',#621);
#611=FILL_AREA_STYLE_COLOUR('',#622);
#612=FILL_AREA_STYLE_COLOUR('',#623);
#613=COLOUR_RGB('',0.800000011920929,0.800000011920929,0.800000011920929);
#614=COLOUR_RGB('',0.800000011920929,0.800000011920929,0.800000011920929);
#615=COLOUR_RGB('',0.800000011920929,0.800000011920929,0.800000011920929);
#616=COLOUR_RGB('',0.800000011920929,0.800000011920929,0.800000011920929);
#617=COLOUR_RGB('',0.800000011920929,0.800000011920929,0.800000011920929);
#618=COLOUR_RGB('',0.800000011920929,0.800000011920929,0.800000011920929);
#619=COLOUR_RGB('',0.800000011920929,0.800000011920929,0.800000011920929);
#620=COLOUR_RGB('',0.800000011920929,0.800000011920929,0.800000011920929);
#621=COLOUR_RGB('',0.800000011920929,0.800000011920929,0.800000011920929);
#622=COLOUR_RGB('',0.800000011920929,0.800000011920929,0.800000011920929);
#623=COLOUR_RGB('',0.800000011920929,0.800000011920929,0.800000011920929);
#624=AXIS2_PLACEMENT_3D('PCS',#625,#626,#627);
#625=CARTESIAN_POINT('',(0.0,0.0,0.0));
#626=DIRECTION('',(0.0,0.0,1.0));
#627=DIRECTION('',(1.0,0.0,0.0));
#628=AXIS2_PLACEMENT_3D('MCS',#629,#630,#631);
#629=CARTESIAN_POINT('',(4.81,4.81,0.0));
#630=DIRECTION('',(0.0,0.0,1.0));
#631=DIRECTION('',(1.0,0.0,0.0));
#632=CONSTRUCTIVE_GEOMETRY_REPRESENTATION_RELATIONSHIP('coordinate systems',$,#65,#633);
#633=CONSTRUCTIVE_GEOMETRY_REPRESENTATION('coordinate systems',(#624,#628),#6);
ENDSEC;
END-ISO-10303-21;
