ISO-10303-21;
HEADER;
FILE_DESCRIPTION(('no description'),'unknown implementation level');
FILE_NAME('solidwjYv5kUV7_U_oAuGY2h5iiS_SCw_1.STP','  ',('CIMSOURCE GmbH'),('CADClick - KiM GmbH - www.kimweb.de'),'unknown preprocess','ACIS','unknown authorization');
FILE_SCHEMA(('automotive_design'));
ENDSEC;
DATA;
#1=MECHANICAL_DESIGN_GEOMETRIC_PRESENTATION_REPRESENTATION(' ',(#10,#11,#12,#13,#14,#15,#16,#17,#18,#19,#20,#21,#22,#23,#24,#25,#26,#27,#28,#29,#30,#31,#32,#33,#34,#35,#36,#37,#38,#39,#40,#41,#42,#43,#44,#45,#46,#47,#48,#49,#50,#51,#52,#53,#54,#55,#56,#57,#58,#59,#60),#6);
#2=PRODUCT_DEFINITION_CONTEXT('',#61,'design');
#3=APPLICATION_PROTOCOL_DEFINITION('INTERNATIONAL STANDARD','automotive_design',1994,#61);
#4=PRODUCT_CATEGORY_RELATIONSHIP('NONE','NONE',#62,#63);
#5=SHAPE_DEFINITION_REPRESENTATION(#64,#65);
#6= (GEOMETRIC_REPRESENTATION_CONTEXT(3)GLOBAL_UNCERTAINTY_ASSIGNED_CONTEXT((#68))GLOBAL_UNIT_ASSIGNED_CONTEXT((#70,#71,#72))REPRESENTATION_CONTEXT('NONE','WORKSPACE'));
#10=STYLED_ITEM('',(#74),#75);
#11=STYLED_ITEM('',(#76),#77);
#12=STYLED_ITEM('',(#78),#79);
#13=STYLED_ITEM('',(#80),#81);
#14=STYLED_ITEM('',(#82),#83);
#15=STYLED_ITEM('',(#84),#85);
#16=STYLED_ITEM('',(#86),#87);
#17=STYLED_ITEM('',(#88),#89);
#18=STYLED_ITEM('',(#90),#91);
#19=STYLED_ITEM('',(#92),#93);
#20=STYLED_ITEM('',(#94),#95);
#21=STYLED_ITEM('',(#96),#97);
#22=STYLED_ITEM('',(#98),#99);
#23=STYLED_ITEM('',(#100),#101);
#24=STYLED_ITEM('',(#102),#103);
#25=STYLED_ITEM('',(#104),#105);
#26=STYLED_ITEM('',(#106),#107);
#27=STYLED_ITEM('',(#108),#109);
#28=STYLED_ITEM('',(#110),#111);
#29=STYLED_ITEM('',(#112),#113);
#30=STYLED_ITEM('',(#114),#115);
#31=STYLED_ITEM('',(#116),#117);
#32=STYLED_ITEM('',(#118),#119);
#33=STYLED_ITEM('',(#120),#121);
#34=STYLED_ITEM('',(#122),#123);
#35=STYLED_ITEM('',(#124),#125);
#36=STYLED_ITEM('',(#126),#127);
#37=STYLED_ITEM('',(#128),#129);
#38=STYLED_ITEM('',(#130),#131);
#39=STYLED_ITEM('',(#132),#133);
#40=STYLED_ITEM('',(#134),#135);
#41=STYLED_ITEM('',(#136),#137);
#42=STYLED_ITEM('',(#138),#139);
#43=STYLED_ITEM('',(#140),#141);
#44=STYLED_ITEM('',(#142),#143);
#45=STYLED_ITEM('',(#144),#145);
#46=STYLED_ITEM('',(#146),#147);
#47=STYLED_ITEM('',(#148),#149);
#48=STYLED_ITEM('',(#150),#151);
#49=STYLED_ITEM('',(#152),#153);
#50=STYLED_ITEM('',(#154),#155);
#51=STYLED_ITEM('',(#156),#157);
#52=STYLED_ITEM('',(#158),#159);
#53=STYLED_ITEM('',(#160),#161);
#54=STYLED_ITEM('',(#162),#163);
#55=STYLED_ITEM('',(#164),#165);
#56=STYLED_ITEM('',(#166),#167);
#57=STYLED_ITEM('',(#168),#169);
#58=STYLED_ITEM('',(#170),#171);
#59=STYLED_ITEM('',(#172),#173);
#60=STYLED_ITEM('',(#174),#175);
#61=APPLICATION_CONTEXT(' ');
#62=PRODUCT_CATEGORY('part','NONE');
#63=PRODUCT_RELATED_PRODUCT_CATEGORY('detail',' ',(#176));
#64=PRODUCT_DEFINITION_SHAPE('NONE','NONE',#177);
#65=ADVANCED_BREP_SHAPE_REPRESENTATION('1',(#171,#178),#6);
#68=UNCERTAINTY_MEASURE_WITH_UNIT(LENGTH_MEASURE(1.0E-006),#70,'','');
#70= (CONVERSION_BASED_UNIT('MILLIMETRE',#181)LENGTH_UNIT()NAMED_UNIT(#184));
#71= (NAMED_UNIT(#186)PLANE_ANGLE_UNIT()SI_UNIT($,.RADIAN.));
#72= (NAMED_UNIT(#186)SOLID_ANGLE_UNIT()SI_UNIT($,.STERADIAN.));
#74=PRESENTATION_STYLE_ASSIGNMENT((#192));
#75=EDGE_CURVE('',#155,#143,#193,.T.);
#76=PRESENTATION_STYLE_ASSIGNMENT((#194));
#77=EDGE_CURVE('',#111,#91,#195,.T.);
#78=PRESENTATION_STYLE_ASSIGNMENT((#196));
#79=EDGE_CURVE('',#101,#135,#197,.T.);
#80=PRESENTATION_STYLE_ASSIGNMENT((#198));
#81=VERTEX_POINT('',#199);
#82=PRESENTATION_STYLE_ASSIGNMENT((#200));
#83=EDGE_CURVE('',#135,#155,#201,.T.);
#84=PRESENTATION_STYLE_ASSIGNMENT((#202));
#85=ADVANCED_FACE('',(#203),#204,.T.);
#86=PRESENTATION_STYLE_ASSIGNMENT((#205));
#87=VERTEX_POINT('',#206);
#88=PRESENTATION_STYLE_ASSIGNMENT((#207));
#89=ADVANCED_FACE('',(#208),#209,.T.);
#90=PRESENTATION_STYLE_ASSIGNMENT((#210));
#91=VERTEX_POINT('',#211);
#92=PRESENTATION_STYLE_ASSIGNMENT((#212));
#93=VERTEX_POINT('',#213);
#94=PRESENTATION_STYLE_ASSIGNMENT((#214));
#95=EDGE_CURVE('',#159,#149,#215,.T.);
#96=PRESENTATION_STYLE_ASSIGNMENT((#216));
#97=EDGE_CURVE('',#101,#87,#217,.T.);
#98=PRESENTATION_STYLE_ASSIGNMENT((#218));
#99=ADVANCED_FACE('',(#219),#220,.T.);
#100=PRESENTATION_STYLE_ASSIGNMENT((#221));
#101=VERTEX_POINT('',#222);
#102=PRESENTATION_STYLE_ASSIGNMENT((#223));
#103=VERTEX_POINT('',#224);
#104=PRESENTATION_STYLE_ASSIGNMENT((#225));
#105=EDGE_CURVE('',#103,#81,#226,.T.);
#106=PRESENTATION_STYLE_ASSIGNMENT((#227));
#107=EDGE_CURVE('',#87,#113,#228,.T.);
#108=PRESENTATION_STYLE_ASSIGNMENT((#229));
#109=ADVANCED_FACE('',(#230),#231,.F.);
#110=PRESENTATION_STYLE_ASSIGNMENT((#232));
#111=VERTEX_POINT('',#233);
#112=PRESENTATION_STYLE_ASSIGNMENT((#234));
#113=VERTEX_POINT('',#235);
#114=PRESENTATION_STYLE_ASSIGNMENT((#236));
#115=EDGE_CURVE('',#131,#111,#237,.T.);
#116=PRESENTATION_STYLE_ASSIGNMENT((#238));
#117=VERTEX_POINT('',#239);
#118=PRESENTATION_STYLE_ASSIGNMENT((#240));
#119=ADVANCED_FACE('',(#241),#242,.T.);
#120=PRESENTATION_STYLE_ASSIGNMENT((#243));
#121=EDGE_CURVE('',#159,#101,#244,.T.);
#122=PRESENTATION_STYLE_ASSIGNMENT((#245));
#123=ADVANCED_FACE('',(#246),#247,.T.);
#124=PRESENTATION_STYLE_ASSIGNMENT((#248));
#125=EDGE_CURVE('',#175,#117,#249,.T.);
#126=PRESENTATION_STYLE_ASSIGNMENT((#250));
#127=ADVANCED_FACE('',(#251),#252,.T.);
#128=PRESENTATION_STYLE_ASSIGNMENT((#253));
#129=ADVANCED_FACE('',(#254),#255,.T.);
#130=PRESENTATION_STYLE_ASSIGNMENT((#256));
#131=VERTEX_POINT('',#257);
#132=PRESENTATION_STYLE_ASSIGNMENT((#258));
#133=EDGE_CURVE('',#131,#81,#259,.T.);
#134=PRESENTATION_STYLE_ASSIGNMENT((#260));
#135=VERTEX_POINT('',#261);
#136=PRESENTATION_STYLE_ASSIGNMENT((#262));
#137=EDGE_CURVE('',#149,#135,#263,.T.);
#138=PRESENTATION_STYLE_ASSIGNMENT((#264));
#139=EDGE_CURVE('',#87,#155,#265,.T.);
#140=PRESENTATION_STYLE_ASSIGNMENT((#266));
#141=EDGE_CURVE('',#93,#103,#267,.T.);
#142=PRESENTATION_STYLE_ASSIGNMENT((#268));
#143=VERTEX_POINT('',#269);
#144=PRESENTATION_STYLE_ASSIGNMENT((#270));
#145=EDGE_CURVE('',#117,#131,#271,.T.);
#146=PRESENTATION_STYLE_ASSIGNMENT((#272));
#147=ADVANCED_FACE('',(#273),#274,.T.);
#148=PRESENTATION_STYLE_ASSIGNMENT((#275));
#149=VERTEX_POINT('',#276);
#150=PRESENTATION_STYLE_ASSIGNMENT((#277));
#151=EDGE_CURVE('',#91,#149,#278,.T.);
#152=PRESENTATION_STYLE_ASSIGNMENT((#279));
#153=EDGE_CURVE('',#117,#103,#280,.T.);
#154=PRESENTATION_STYLE_ASSIGNMENT((#281));
#155=VERTEX_POINT('',#282);
#156=PRESENTATION_STYLE_ASSIGNMENT((#283));
#157=ADVANCED_FACE('',(#284),#285,.T.);
#158=PRESENTATION_STYLE_ASSIGNMENT((#286));
#159=VERTEX_POINT('',#287);
#160=PRESENTATION_STYLE_ASSIGNMENT((#288));
#161=EDGE_CURVE('',#113,#143,#289,.T.);
#162=PRESENTATION_STYLE_ASSIGNMENT((#290));
#163=EDGE_CURVE('',#143,#93,#291,.T.);
#164=PRESENTATION_STYLE_ASSIGNMENT((#292));
#165=EDGE_CURVE('',#175,#93,#293,.T.);
#166=PRESENTATION_STYLE_ASSIGNMENT((#294));
#167=EDGE_CURVE('',#81,#91,#295,.T.);
#168=PRESENTATION_STYLE_ASSIGNMENT((#296));
#169=EDGE_CURVE('',#113,#175,#297,.T.);
#170=PRESENTATION_STYLE_ASSIGNMENT((#298));
#171=MANIFOLD_SOLID_BREP('1',#299);
#172=PRESENTATION_STYLE_ASSIGNMENT((#300));
#173=EDGE_CURVE('',#111,#159,#301,.T.);
#174=PRESENTATION_STYLE_ASSIGNMENT((#302));
#175=VERTEX_POINT('',#303);
#176=PRODUCT('1','1','PART-1-DESC',(#304));
#177=PRODUCT_DEFINITION('NONE','NONE',#305,#2);
#178=AXIS2_PLACEMENT_3D('',#306,#307,#308);
#181=LENGTH_MEASURE_WITH_UNIT(LENGTH_MEASURE(1.0),#309);
#184=DIMENSIONAL_EXPONENTS(1.0,0.0,0.0,0.0,0.0,0.0,0.0);
#186=DIMENSIONAL_EXPONENTS(0.0,0.0,0.0,0.0,0.0,0.0,0.0);
#192=CURVE_STYLE('',#310,POSITIVE_LENGTH_MEASURE(1.0E-006),#311);
#193=CIRCLE('',#312,0.297295826488041);
#194=CURVE_STYLE('',#313,POSITIVE_LENGTH_MEASURE(1.0E-006),#314);
#195=LINE('',#315,#316);
#196=CURVE_STYLE('',#317,POSITIVE_LENGTH_MEASURE(1.0E-006),#318);
#197=LINE('',#319,#320);
#198=POINT_STYLE(' ',#321,POSITIVE_LENGTH_MEASURE(1.0E-006),#322);
#199=CARTESIAN_POINT('',(11.867295826388,11.5699999999297,-5.0));
#200=CURVE_STYLE('',#323,POSITIVE_LENGTH_MEASURE(1.0E-006),#324);
#201=LINE('',#325,#326);
#202=SURFACE_STYLE_USAGE(.BOTH.,#327);
#203=FACE_OUTER_BOUND('',#328,.T.);
#204=PLANE('',#329);
#205=POINT_STYLE(' ',#330,POSITIVE_LENGTH_MEASURE(1.0E-006),#331);
#206=CARTESIAN_POINT('',(0.0,1.0,0.0));
#207=SURFACE_STYLE_USAGE(.BOTH.,#332);
#208=FACE_OUTER_BOUND('',#333,.T.);
#209=PLANE('',#334);
#210=POINT_STYLE(' ',#335,POSITIVE_LENGTH_MEASURE(1.0E-006),#336);
#211=CARTESIAN_POINT('',(11.57,11.867295826488,-5.0));
#212=POINT_STYLE(' ',#337,POSITIVE_LENGTH_MEASURE(1.0E-006),#338);
#213=CARTESIAN_POINT('',(11.5699999999297,0.702704173611959,-5.0));
#214=CURVE_STYLE('',#339,POSITIVE_LENGTH_MEASURE(1.0E-006),#340);
#215=LINE('',#341,#342);
#216=CURVE_STYLE('',#343,POSITIVE_LENGTH_MEASURE(1.0E-006),#344);
#217=LINE('',#345,#346);
#218=SURFACE_STYLE_USAGE(.BOTH.,#347);
#219=FACE_OUTER_BOUND('',#348,.T.);
#220=CONICAL_SURFACE('',#349,0.999999999999998,0.139626340159547);
#221=POINT_STYLE(' ',#350,POSITIVE_LENGTH_MEASURE(1.0E-006),#351);
#222=CARTESIAN_POINT('',(1.00000008274037E-010,11.57,0.0));
#223=POINT_STYLE(' ',#352,POSITIVE_LENGTH_MEASURE(1.0E-006),#353);
#224=CARTESIAN_POINT('',(11.867295826488,1.0,-5.0));
#225=CURVE_STYLE('',#354,POSITIVE_LENGTH_MEASURE(1.0E-006),#355);
#226=LINE('',#356,#357);
#227=CURVE_STYLE('',#358,POSITIVE_LENGTH_MEASURE(1.0E-006),#359);
#228=CIRCLE('',#360,1.0);
#229=SURFACE_STYLE_USAGE(.BOTH.,#361);
#230=FACE_OUTER_BOUND('',#362,.T.);
#231=PLANE('',#363);
#232=POINT_STYLE(' ',#364,POSITIVE_LENGTH_MEASURE(1.0E-006),#365);
#233=CARTESIAN_POINT('',(11.57,12.5699999999,0.0));
#234=POINT_STYLE(' ',#366,POSITIVE_LENGTH_MEASURE(1.0E-006),#367);
#235=CARTESIAN_POINT('',(1.0,0.0,0.0));
#236=CURVE_STYLE('',#368,POSITIVE_LENGTH_MEASURE(1.0E-006),#369);
#237=CIRCLE('',#370,0.999999999999998);
#238=POINT_STYLE(' ',#371,POSITIVE_LENGTH_MEASURE(1.0E-006),#372);
#239=CARTESIAN_POINT('',(12.5699999999,1.0,0.0));
#240=SURFACE_STYLE_USAGE(.BOTH.,#373);
#241=FACE_OUTER_BOUND('',#374,.T.);
#242=CONICAL_SURFACE('',#375,1.0,0.139626340159547);
#243=CURVE_STYLE('',#376,POSITIVE_LENGTH_MEASURE(1.0E-006),#377);
#244=CIRCLE('',#378,0.999999999999998);
#245=SURFACE_STYLE_USAGE(.BOTH.,#379);
#246=FACE_OUTER_BOUND('',#380,.T.);
#247=CONICAL_SURFACE('',#381,0.999999999999998,0.139626340159547);
#248=CURVE_STYLE('',#382,POSITIVE_LENGTH_MEASURE(1.0E-006),#383);
#249=CIRCLE('',#384,1.0);
#250=SURFACE_STYLE_USAGE(.BOTH.,#385);
#251=FACE_OUTER_BOUND('',#386,.T.);
#252=PLANE('',#387);
#253=SURFACE_STYLE_USAGE(.BOTH.,#388);
#254=FACE_OUTER_BOUND('',#389,.T.);
#255=PLANE('',#390);
#256=POINT_STYLE(' ',#391,POSITIVE_LENGTH_MEASURE(1.0E-006),#392);
#257=CARTESIAN_POINT('',(12.57,11.57,0.0));
#258=CURVE_STYLE('',#393,POSITIVE_LENGTH_MEASURE(1.0E-006),#394);
#259=LINE('',#395,#396);
#260=POINT_STYLE(' ',#397,POSITIVE_LENGTH_MEASURE(1.0E-006),#398);
#261=CARTESIAN_POINT('',(0.702704173511959,11.57,-5.0));
#262=CURVE_STYLE('',#399,POSITIVE_LENGTH_MEASURE(1.0E-006),#400);
#263=CIRCLE('',#401,0.297295826488039);
#264=CURVE_STYLE('',#402,POSITIVE_LENGTH_MEASURE(1.0E-006),#403);
#265=LINE('',#404,#405);
#266=CURVE_STYLE('',#406,POSITIVE_LENGTH_MEASURE(1.0E-006),#407);
#267=CIRCLE('',#408,0.297295826488041);
#268=POINT_STYLE(' ',#409,POSITIVE_LENGTH_MEASURE(1.0E-006),#410);
#269=CARTESIAN_POINT('',(1.0,0.702704173511959,-5.0));
#270=CURVE_STYLE('',#411,POSITIVE_LENGTH_MEASURE(1.0E-006),#412);
#271=LINE('',#413,#414);
#272=SURFACE_STYLE_USAGE(.BOTH.,#415);
#273=FACE_OUTER_BOUND('',#416,.T.);
#274=CONICAL_SURFACE('',#417,1.0,0.139626340159547);
#275=POINT_STYLE(' ',#418,POSITIVE_LENGTH_MEASURE(1.0E-006),#419);
#276=CARTESIAN_POINT('',(1.00000000007027,11.867295826388,-5.0));
#277=CURVE_STYLE('',#420,POSITIVE_LENGTH_MEASURE(1.0E-006),#421);
#278=LINE('',#422,#423);
#279=CURVE_STYLE('',#424,POSITIVE_LENGTH_MEASURE(1.0E-006),#425);
#280=LINE('',#426,#427);
#281=POINT_STYLE(' ',#428,POSITIVE_LENGTH_MEASURE(1.0E-006),#429);
#282=CARTESIAN_POINT('',(0.702704173611959,1.00000000007027,-5.0));
#283=SURFACE_STYLE_USAGE(.BOTH.,#430);
#284=FACE_OUTER_BOUND('',#431,.T.);
#285=PLANE('',#432);
#286=POINT_STYLE(' ',#433,POSITIVE_LENGTH_MEASURE(1.0E-006),#434);
#287=CARTESIAN_POINT('',(1.0,12.57,0.0));
#288=CURVE_STYLE('',#435,POSITIVE_LENGTH_MEASURE(1.0E-006),#436);
#289=LINE('',#437,#438);
#290=CURVE_STYLE('',#439,POSITIVE_LENGTH_MEASURE(1.0E-006),#440);
#291=LINE('',#441,#442);
#292=CURVE_STYLE('',#443,POSITIVE_LENGTH_MEASURE(1.0E-006),#444);
#293=LINE('',#445,#446);
#294=CURVE_STYLE('',#447,POSITIVE_LENGTH_MEASURE(1.0E-006),#448);
#295=CIRCLE('',#449,0.297295826488039);
#296=CURVE_STYLE('',#450,POSITIVE_LENGTH_MEASURE(1.0E-006),#451);
#297=LINE('',#452,#453);
#298=SURFACE_STYLE_USAGE(.BOTH.,#454);
#299=CLOSED_SHELL('',(#119,#129,#99,#157,#123,#89,#147,#127,#109,#85));
#300=CURVE_STYLE('',#455,POSITIVE_LENGTH_MEASURE(1.0E-006),#456);
#301=LINE('',#457,#458);
#302=POINT_STYLE(' ',#459,POSITIVE_LENGTH_MEASURE(1.0E-006),#460);
#303=CARTESIAN_POINT('',(11.57,0.0,0.0));
#304=PRODUCT_CONTEXT('',#61,'mechanical');
#305=PRODUCT_DEFINITION_FORMATION_WITH_SPECIFIED_SOURCE(' ','NONE',#176,.NOT_KNOWN.);
#306=CARTESIAN_POINT('',(0.0,0.0,0.0));
#307=DIRECTION('',(0.0,0.0,1.0));
#308=DIRECTION('',(1.0,0.0,0.0));
#309= (NAMED_UNIT(#184)LENGTH_UNIT()SI_UNIT(.MILLI.,.METRE.));
#310=DRAUGHTING_PRE_DEFINED_CURVE_FONT('continuous');
#311=COLOUR_RGB('',0.800000011920929,0.800000011920929,0.800000011920929);
#312=AXIS2_PLACEMENT_3D('',#462,#463,#464);
#313=DRAUGHTING_PRE_DEFINED_CURVE_FONT('continuous');
#314=COLOUR_RGB('',0.800000011920929,0.800000011920929,0.800000011920929);
#315=CARTESIAN_POINT('',(11.57,12.5699999999,0.0));
#316=VECTOR('',#465,1.0);
#317=DRAUGHTING_PRE_DEFINED_CURVE_FONT('continuous');
#318=COLOUR_RGB('',0.800000011920929,0.800000011920929,0.800000011920929);
#319=CARTESIAN_POINT('',(1.00000008274037E-010,11.57,0.0));
#320=VECTOR('',#466,1.0);
#321=PRE_DEFINED_MARKER('');
#322=COLOUR_RGB('',0.800000011920929,0.800000011920929,0.800000011920929);
#323=DRAUGHTING_PRE_DEFINED_CURVE_FONT('continuous');
#324=COLOUR_RGB('',0.800000011920929,0.800000011920929,0.800000011920929);
#325=CARTESIAN_POINT('',(0.702704173511959,11.57,-5.0));
#326=VECTOR('',#467,1.0);
#327=SURFACE_SIDE_STYLE('',(#468));
#328=EDGE_LOOP('',(#469,#470,#471,#472,#473,#474,#475,#476));
#329=AXIS2_PLACEMENT_3D('',#477,#478,#479);
#330=PRE_DEFINED_MARKER('');
#331=COLOUR_RGB('',0.800000011920929,0.800000011920929,0.800000011920929);
#332=SURFACE_SIDE_STYLE('',(#480));
#333=EDGE_LOOP('',(#481,#482,#483,#484));
#334=AXIS2_PLACEMENT_3D('',#485,#486,#487);
#335=PRE_DEFINED_MARKER('');
#336=COLOUR_RGB('',0.800000011920929,0.800000011920929,0.800000011920929);
#337=PRE_DEFINED_MARKER('');
#338=COLOUR_RGB('',0.800000011920929,0.800000011920929,0.800000011920929);
#339=DRAUGHTING_PRE_DEFINED_CURVE_FONT('continuous');
#340=COLOUR_RGB('',0.800000011920929,0.800000011920929,0.800000011920929);
#341=CARTESIAN_POINT('',(1.0,12.57,0.0));
#342=VECTOR('',#488,1.0);
#343=DRAUGHTING_PRE_DEFINED_CURVE_FONT('continuous');
#344=COLOUR_RGB('',0.800000011920929,0.800000011920929,0.800000011920929);
#345=CARTESIAN_POINT('',(0.0,11.57,0.0));
#346=VECTOR('',#489,1.0);
#347=SURFACE_SIDE_STYLE('',(#490));
#348=EDGE_LOOP('',(#491,#492,#493,#494));
#349=AXIS2_PLACEMENT_3D('',#495,#496,#497);
#350=PRE_DEFINED_MARKER('');
#351=COLOUR_RGB('',0.800000011920929,0.800000011920929,0.800000011920929);
#352=PRE_DEFINED_MARKER('');
#353=COLOUR_RGB('',0.800000011920929,0.800000011920929,0.800000011920929);
#354=DRAUGHTING_PRE_DEFINED_CURVE_FONT('continuous');
#355=COLOUR_RGB('',0.800000011920929,0.800000011920929,0.800000011920929);
#356=CARTESIAN_POINT('',(11.867295826488,1.0,-5.0));
#357=VECTOR('',#498,1.0);
#358=DRAUGHTING_PRE_DEFINED_CURVE_FONT('continuous');
#359=COLOUR_RGB('',0.800000011920929,0.800000011920929,0.800000011920929);
#360=AXIS2_PLACEMENT_3D('',#499,#500,#501);
#361=SURFACE_SIDE_STYLE('',(#502));
#362=EDGE_LOOP('',(#503,#504,#505,#506,#507,#508,#509,#510));
#363=AXIS2_PLACEMENT_3D('',#511,#512,#513);
#364=PRE_DEFINED_MARKER('');
#365=COLOUR_RGB('',0.800000011920929,0.800000011920929,0.800000011920929);
#366=PRE_DEFINED_MARKER('');
#367=COLOUR_RGB('',0.800000011920929,0.800000011920929,0.800000011920929);
#368=DRAUGHTING_PRE_DEFINED_CURVE_FONT('continuous');
#369=COLOUR_RGB('',0.800000011920929,0.800000011920929,0.800000011920929);
#370=AXIS2_PLACEMENT_3D('',#514,#515,#516);
#371=PRE_DEFINED_MARKER('');
#372=COLOUR_RGB('',0.800000011920929,0.800000011920929,0.800000011920929);
#373=SURFACE_SIDE_STYLE('',(#517));
#374=EDGE_LOOP('',(#518,#519,#520,#521));
#375=AXIS2_PLACEMENT_3D('',#522,#523,#524);
#376=DRAUGHTING_PRE_DEFINED_CURVE_FONT('continuous');
#377=COLOUR_RGB('',0.800000011920929,0.800000011920929,0.800000011920929);
#378=AXIS2_PLACEMENT_3D('',#525,#526,#527);
#379=SURFACE_SIDE_STYLE('',(#528));
#380=EDGE_LOOP('',(#529,#530,#531,#532));
#381=AXIS2_PLACEMENT_3D('',#533,#534,#535);
#382=DRAUGHTING_PRE_DEFINED_CURVE_FONT('continuous');
#383=COLOUR_RGB('',0.800000011920929,0.800000011920929,0.800000011920929);
#384=AXIS2_PLACEMENT_3D('',#536,#537,#538);
#385=SURFACE_SIDE_STYLE('',(#539));
#386=EDGE_LOOP('',(#540,#541,#542,#543));
#387=AXIS2_PLACEMENT_3D('',#544,#545,#546);
#388=SURFACE_SIDE_STYLE('',(#547));
#389=EDGE_LOOP('',(#548,#549,#550,#551));
#390=AXIS2_PLACEMENT_3D('',#552,#553,#554);
#391=PRE_DEFINED_MARKER('');
#392=COLOUR_RGB('',0.800000011920929,0.800000011920929,0.800000011920929);
#393=DRAUGHTING_PRE_DEFINED_CURVE_FONT('continuous');
#394=COLOUR_RGB('',0.800000011920929,0.800000011920929,0.800000011920929);
#395=CARTESIAN_POINT('',(12.57,11.57,0.0));
#396=VECTOR('',#555,1.0);
#397=PRE_DEFINED_MARKER('');
#398=COLOUR_RGB('',0.800000011920929,0.800000011920929,0.800000011920929);
#399=DRAUGHTING_PRE_DEFINED_CURVE_FONT('continuous');
#400=COLOUR_RGB('',0.800000011920929,0.800000011920929,0.800000011920929);
#401=AXIS2_PLACEMENT_3D('',#556,#557,#558);
#402=DRAUGHTING_PRE_DEFINED_CURVE_FONT('continuous');
#403=COLOUR_RGB('',0.800000011920929,0.800000011920929,0.800000011920929);
#404=CARTESIAN_POINT('',(0.0,1.0,0.0));
#405=VECTOR('',#559,1.0);
#406=DRAUGHTING_PRE_DEFINED_CURVE_FONT('continuous');
#407=COLOUR_RGB('',0.800000011920929,0.800000011920929,0.800000011920929);
#408=AXIS2_PLACEMENT_3D('',#560,#561,#562);
#409=PRE_DEFINED_MARKER('');
#410=COLOUR_RGB('',0.800000011920929,0.800000011920929,0.800000011920929);
#411=DRAUGHTING_PRE_DEFINED_CURVE_FONT('continuous');
#412=COLOUR_RGB('',0.800000011920929,0.800000011920929,0.800000011920929);
#413=CARTESIAN_POINT('',(12.57,1.0,0.0));
#414=VECTOR('',#563,1.0);
#415=SURFACE_SIDE_STYLE('',(#564));
#416=EDGE_LOOP('',(#565,#566,#567,#568));
#417=AXIS2_PLACEMENT_3D('',#569,#570,#571);
#418=PRE_DEFINED_MARKER('');
#419=COLOUR_RGB('',0.800000011920929,0.800000011920929,0.800000011920929);
#420=DRAUGHTING_PRE_DEFINED_CURVE_FONT('continuous');
#421=COLOUR_RGB('',0.800000011920929,0.800000011920929,0.800000011920929);
#422=CARTESIAN_POINT('',(11.57,11.867295826488,-5.0));
#423=VECTOR('',#572,1.0);
#424=DRAUGHTING_PRE_DEFINED_CURVE_FONT('continuous');
#425=COLOUR_RGB('',0.800000011920929,0.800000011920929,0.800000011920929);
#426=CARTESIAN_POINT('',(12.5699999999,1.0,0.0));
#427=VECTOR('',#573,1.0);
#428=PRE_DEFINED_MARKER('');
#429=COLOUR_RGB('',0.800000011920929,0.800000011920929,0.800000011920929);
#430=SURFACE_SIDE_STYLE('',(#574));
#431=EDGE_LOOP('',(#575,#576,#577,#578));
#432=AXIS2_PLACEMENT_3D('',#579,#580,#581);
#433=PRE_DEFINED_MARKER('');
#434=COLOUR_RGB('',0.800000011920929,0.800000011920929,0.800000011920929);
#435=DRAUGHTING_PRE_DEFINED_CURVE_FONT('continuous');
#436=COLOUR_RGB('',0.800000011920929,0.800000011920929,0.800000011920929);
#437=CARTESIAN_POINT('',(1.0,0.0,0.0));
#438=VECTOR('',#582,1.0);
#439=DRAUGHTING_PRE_DEFINED_CURVE_FONT('continuous');
#440=COLOUR_RGB('',0.800000011920929,0.800000011920929,0.800000011920929);
#441=CARTESIAN_POINT('',(1.0,0.702704173511959,-5.0));
#442=VECTOR('',#583,1.0);
#443=DRAUGHTING_PRE_DEFINED_CURVE_FONT('continuous');
#444=COLOUR_RGB('',0.800000011920929,0.800000011920929,0.800000011920929);
#445=CARTESIAN_POINT('',(11.57,0.0,0.0));
#446=VECTOR('',#584,1.0);
#447=DRAUGHTING_PRE_DEFINED_CURVE_FONT('continuous');
#448=COLOUR_RGB('',0.800000011920929,0.800000011920929,0.800000011920929);
#449=AXIS2_PLACEMENT_3D('',#585,#586,#587);
#450=DRAUGHTING_PRE_DEFINED_CURVE_FONT('continuous');
#451=COLOUR_RGB('',0.800000011920929,0.800000011920929,0.800000011920929);
#452=CARTESIAN_POINT('',(1.0,0.0,0.0));
#453=VECTOR('',#588,1.0);
#454=SURFACE_SIDE_STYLE('',(#589));
#455=DRAUGHTING_PRE_DEFINED_CURVE_FONT('continuous');
#456=COLOUR_RGB('',0.800000011920929,0.800000011920929,0.800000011920929);
#457=CARTESIAN_POINT('',(11.57,12.57,0.0));
#458=VECTOR('',#590,1.0);
#459=PRE_DEFINED_MARKER('');
#460=COLOUR_RGB('',0.800000011920929,0.800000011920929,0.800000011920929);
#462=CARTESIAN_POINT('',(1.0000000001,1.0000000001,-5.0));
#463=DIRECTION('',(0.0,0.0,1.0));
#464=DIRECTION('',(-1.0,-9.99991200956174E-011,0.0));
#465=DIRECTION('',(0.0,-0.139173100940644,-0.9902680687443));
#466=DIRECTION('',(0.139173100940644,0.0,-0.9902680687443));
#467=DIRECTION('',(0.0,-1.0,0.0));
#468=SURFACE_STYLE_FILL_AREA(#591);
#469=ORIENTED_EDGE('',*,*,#169,.T.);
#470=ORIENTED_EDGE('',*,*,#125,.T.);
#471=ORIENTED_EDGE('',*,*,#145,.T.);
#472=ORIENTED_EDGE('',*,*,#115,.T.);
#473=ORIENTED_EDGE('',*,*,#173,.T.);
#474=ORIENTED_EDGE('',*,*,#121,.T.);
#475=ORIENTED_EDGE('',*,*,#97,.T.);
#476=ORIENTED_EDGE('',*,*,#107,.T.);
#477=CARTESIAN_POINT('',(6.285,6.285,0.0));
#478=DIRECTION('',(0.0,0.0,1.0));
#479=DIRECTION('',(1.0,0.0,0.0));
#480=SURFACE_STYLE_FILL_AREA(#592);
#481=ORIENTED_EDGE('',*,*,#83,.T.);
#482=ORIENTED_EDGE('',*,*,#139,.F.);
#483=ORIENTED_EDGE('',*,*,#97,.F.);
#484=ORIENTED_EDGE('',*,*,#79,.T.);
#485=CARTESIAN_POINT('',(1.00000008274037E-010,11.57,0.0));
#486=DIRECTION('',(-0.9902680687443,0.0,-0.139173100940644));
#487=DIRECTION('',(0.0,1.0,0.0));
#488=DIRECTION('',(1.39170539139752E-011,-0.139173100979488,-0.990268068738841));
#489=DIRECTION('',(0.0,-1.0,0.0));
#490=SURFACE_STYLE_FILL_AREA(#593);
#491=ORIENTED_EDGE('',*,*,#167,.T.);
#492=ORIENTED_EDGE('',*,*,#77,.F.);
#493=ORIENTED_EDGE('',*,*,#115,.F.);
#494=ORIENTED_EDGE('',*,*,#133,.T.);
#495=CARTESIAN_POINT('',(11.5699999999,11.5699999999,0.0));
#496=DIRECTION('',(-0.0,-0.0,1.0));
#497=DIRECTION('',(1.0,9.99982319171979E-011,0.0));
#498=DIRECTION('',(0.0,1.0,0.0));
#499=CARTESIAN_POINT('',(1.0000000001,1.0000000001,0.0));
#500=DIRECTION('',(0.0,0.0,1.0));
#501=DIRECTION('',(-1.0,-9.99991200956174E-011,0.0));
#502=SURFACE_STYLE_FILL_AREA(#594);
#503=ORIENTED_EDGE('',*,*,#141,.F.);
#504=ORIENTED_EDGE('',*,*,#163,.F.);
#505=ORIENTED_EDGE('',*,*,#75,.F.);
#506=ORIENTED_EDGE('',*,*,#83,.F.);
#507=ORIENTED_EDGE('',*,*,#137,.F.);
#508=ORIENTED_EDGE('',*,*,#151,.F.);
#509=ORIENTED_EDGE('',*,*,#167,.F.);
#510=ORIENTED_EDGE('',*,*,#105,.F.);
#511=CARTESIAN_POINT('',(6.285,6.285,-5.0));
#512=DIRECTION('',(0.0,0.0,1.0));
#513=DIRECTION('',(1.0,0.0,0.0));
#514=CARTESIAN_POINT('',(11.5699999999,11.5699999999,0.0));
#515=DIRECTION('',(0.0,-0.0,1.0));
#516=DIRECTION('',(1.0,9.99982319171979E-011,0.0));
#517=SURFACE_STYLE_FILL_AREA(#595);
#518=ORIENTED_EDGE('',*,*,#141,.T.);
#519=ORIENTED_EDGE('',*,*,#153,.F.);
#520=ORIENTED_EDGE('',*,*,#125,.F.);
#521=ORIENTED_EDGE('',*,*,#165,.T.);
#522=CARTESIAN_POINT('',(11.5699999999,1.0000000001,0.0));
#523=DIRECTION('',(-0.0,-0.0,1.0));
#524=DIRECTION('',(1.00000008274037E-010,-1.0,0.0));
#525=CARTESIAN_POINT('',(1.0000000001,11.5699999999,0.0));
#526=DIRECTION('',(0.0,0.0,1.0));
#527=DIRECTION('',(-9.99983429395003E-011,1.0,0.0));
#528=SURFACE_STYLE_FILL_AREA(#596);
#529=ORIENTED_EDGE('',*,*,#137,.T.);
#530=ORIENTED_EDGE('',*,*,#79,.F.);
#531=ORIENTED_EDGE('',*,*,#121,.F.);
#532=ORIENTED_EDGE('',*,*,#95,.T.);
#533=CARTESIAN_POINT('',(1.0000000001,11.5699999999,0.0));
#534=DIRECTION('',(-0.0,-0.0,1.0));
#535=DIRECTION('',(-9.99983429395003E-011,1.0,0.0));
#536=CARTESIAN_POINT('',(11.5699999999,1.0000000001,0.0));
#537=DIRECTION('',(0.0,0.0,1.0));
#538=DIRECTION('',(1.00000008274037E-010,-1.0,0.0));
#539=SURFACE_STYLE_FILL_AREA(#597);
#540=ORIENTED_EDGE('',*,*,#163,.T.);
#541=ORIENTED_EDGE('',*,*,#165,.F.);
#542=ORIENTED_EDGE('',*,*,#169,.F.);
#543=ORIENTED_EDGE('',*,*,#161,.T.);
#544=CARTESIAN_POINT('',(1.0,0.0,0.0));
#545=DIRECTION('',(-0.0,-0.99026806874157,-0.139173100960066));
#546=DIRECTION('',(-1.0,0.0,0.0));
#547=SURFACE_STYLE_FILL_AREA(#598);
#548=ORIENTED_EDGE('',*,*,#105,.T.);
#549=ORIENTED_EDGE('',*,*,#133,.F.);
#550=ORIENTED_EDGE('',*,*,#145,.F.);
#551=ORIENTED_EDGE('',*,*,#153,.T.);
#552=CARTESIAN_POINT('',(12.5699999999,1.0,0.0));
#553=DIRECTION('',(0.9902680687443,-0.0,-0.139173100940644));
#554=DIRECTION('',(-0.0,-1.0,0.0));
#555=DIRECTION('',(-0.139173100979488,-1.39170539139752E-011,-0.990268068738841));
#556=CARTESIAN_POINT('',(1.0000000001,11.5699999999,-5.0));
#557=DIRECTION('',(0.0,0.0,1.0));
#558=DIRECTION('',(-9.99983429395003E-011,1.0,0.0));
#559=DIRECTION('',(0.139173100979488,1.39173617511301E-011,-0.990268068738841));
#560=CARTESIAN_POINT('',(11.5699999999,1.0000000001,-5.0));
#561=DIRECTION('',(0.0,0.0,1.0));
#562=DIRECTION('',(1.00000008274037E-010,-1.0,0.0));
#563=DIRECTION('',(0.0,1.0,0.0));
#564=SURFACE_STYLE_FILL_AREA(#599);
#565=ORIENTED_EDGE('',*,*,#75,.T.);
#566=ORIENTED_EDGE('',*,*,#161,.F.);
#567=ORIENTED_EDGE('',*,*,#107,.F.);
#568=ORIENTED_EDGE('',*,*,#139,.T.);
#569=CARTESIAN_POINT('',(1.0000000001,1.0000000001,0.0));
#570=DIRECTION('',(0.0,-0.0,1.0));
#571=DIRECTION('',(-1.0,-9.99991200956174E-011,0.0));
#572=DIRECTION('',(-1.0,0.0,0.0));
#573=DIRECTION('',(-0.139173100940644,0.0,-0.9902680687443));
#574=SURFACE_STYLE_FILL_AREA(#600);
#575=ORIENTED_EDGE('',*,*,#151,.T.);
#576=ORIENTED_EDGE('',*,*,#95,.F.);
#577=ORIENTED_EDGE('',*,*,#173,.F.);
#578=ORIENTED_EDGE('',*,*,#77,.T.);
#579=CARTESIAN_POINT('',(11.57,12.5699999999,0.0));
#580=DIRECTION('',(0.0,0.9902680687443,-0.139173100940644));
#581=DIRECTION('',(1.0,-0.0,0.0));
#582=DIRECTION('',(0.0,0.139173100960066,-0.99026806874157));
#583=DIRECTION('',(1.0,0.0,0.0));
#584=DIRECTION('',(-1.39174057278665E-011,0.139173100979488,-0.990268068738841));
#585=CARTESIAN_POINT('',(11.5699999999,11.5699999999,-5.0));
#586=DIRECTION('',(0.0,-0.0,1.0));
#587=DIRECTION('',(1.0,9.99982319171979E-011,0.0));
#588=DIRECTION('',(1.0,0.0,0.0));
#589=SURFACE_STYLE_FILL_AREA(#601);
#590=DIRECTION('',(-1.0,0.0,0.0));
#591=FILL_AREA_STYLE('',(#602));
#592=FILL_AREA_STYLE('',(#603));
#593=FILL_AREA_STYLE('',(#604));
#594=FILL_AREA_STYLE('',(#605));
#595=FILL_AREA_STYLE('',(#606));
#596=FILL_AREA_STYLE('',(#607));
#597=FILL_AREA_STYLE('',(#608));
#598=FILL_AREA_STYLE('',(#609));
#599=FILL_AREA_STYLE('',(#610));
#600=FILL_AREA_STYLE('',(#611));
#601=FILL_AREA_STYLE('',(#612));
#602=FILL_AREA_STYLE_COLOUR('',#613);
#603=FILL_AREA_STYLE_COLOUR('',#614);
#604=FILL_AREA_STYLE_COLOUR('',#615);
#605=FILL_AREA_STYLE_COLOUR('',#616);
#606=FILL_AREA_STYLE_COLOUR('',#617);
#607=FILL_AREA_STYLE_COLOUR('',#618);
#608=FILL_AREA_STYLE_COLOUR('',#619);
#609=FILL_AREA_STYLE_COLOUR('',#620);
#610=FILL_AREA_STYLE_COLOUR('',#621);
#611=FILL_AREA_STYLE_COLOUR('',#622);
#612=FILL_AREA_STYLE_COLOUR('',#623);
#613=COLOUR_RGB('',0.800000011920929,0.800000011920929,0.800000011920929);
#614=COLOUR_RGB('',0.800000011920929,0.800000011920929,0.800000011920929);
#615=COLOUR_RGB('',0.800000011920929,0.800000011920929,0.800000011920929);
#616=COLOUR_RGB('',0.800000011920929,0.800000011920929,0.800000011920929);
#617=COLOUR_RGB('',0.800000011920929,0.800000011920929,0.800000011920929);
#618=COLOUR_RGB('',0.800000011920929,0.800000011920929,0.800000011920929);
#619=COLOUR_RGB('',0.800000011920929,0.800000011920929,0.800000011920929);
#620=COLOUR_RGB('',0.800000011920929,0.800000011920929,0.800000011920929);
#621=COLOUR_RGB('',0.800000011920929,0.800000011920929,0.800000011920929);
#622=COLOUR_RGB('',0.800000011920929,0.800000011920929,0.800000011920929);
#623=COLOUR_RGB('',0.800000011920929,0.800000011920929,0.800000011920929);
#624=AXIS2_PLACEMENT_3D('PCS',#625,#626,#627);
#625=CARTESIAN_POINT('',(0.0,0.0,0.0));
#626=DIRECTION('',(0.0,0.0,1.0));
#627=DIRECTION('',(1.0,0.0,0.0));
#628=AXIS2_PLACEMENT_3D('MCS',#629,#630,#631);
#629=CARTESIAN_POINT('',(6.285,6.285,0.0));
#630=DIRECTION('',(0.0,0.0,1.0));
#631=DIRECTION('',(1.0,0.0,0.0));
#632=CONSTRUCTIVE_GEOMETRY_REPRESENTATION_RELATIONSHIP('coordinate systems',$,#65,#633);
#633=CONSTRUCTIVE_GEOMETRY_REPRESENTATION('coordinate systems',(#624,#628),#6);
ENDSEC;
END-ISO-10303-21;
