ISO-10303-21;
HEADER;
FILE_DESCRIPTION(('no description'),'unknown implementation level');
FILE_NAME('soliddU96nblK0XgZ75B_ETXDhu4VJmM_1.STP','  ',('CIMSOURCE GmbH'),('CADClick - KiM GmbH - www.kimweb.de'),'unknown preprocess','ACIS','unknown authorization');
FILE_SCHEMA(('automotive_design'));
ENDSEC;
DATA;
#1=MECHANICAL_DESIGN_GEOMETRIC_PRESENTATION_REPRESENTATION(' ',(#10,#11,#12,#13,#14,#15,#16,#17,#18,#19,#20,#21,#22,#23,#24,#25,#26,#27,#28,#29,#30,#31,#32,#33,#34,#35,#36,#37,#38,#39,#40,#41,#42,#43,#44,#45,#46,#47,#48,#49,#50,#51,#52,#53,#54,#55,#56,#57,#58,#59,#60),#6);
#2=PRODUCT_DEFINITION_CONTEXT('',#61,'design');
#3=APPLICATION_PROTOCOL_DEFINITION('INTERNATIONAL STANDARD','automotive_design',1994,#61);
#4=PRODUCT_CATEGORY_RELATIONSHIP('NONE','NONE',#62,#63);
#5=SHAPE_DEFINITION_REPRESENTATION(#64,#65);
#6= (GEOMETRIC_REPRESENTATION_CONTEXT(3)GLOBAL_UNCERTAINTY_ASSIGNED_CONTEXT((#68))GLOBAL_UNIT_ASSIGNED_CONTEXT((#70,#71,#72))REPRESENTATION_CONTEXT('NONE','WORKSPACE'));
#10=STYLED_ITEM('',(#74),#75);
#11=STYLED_ITEM('',(#76),#77);
#12=STYLED_ITEM('',(#78),#79);
#13=STYLED_ITEM('',(#80),#81);
#14=STYLED_ITEM('',(#82),#83);
#15=STYLED_ITEM('',(#84),#85);
#16=STYLED_ITEM('',(#86),#87);
#17=STYLED_ITEM('',(#88),#89);
#18=STYLED_ITEM('',(#90),#91);
#19=STYLED_ITEM('',(#92),#93);
#20=STYLED_ITEM('',(#94),#95);
#21=STYLED_ITEM('',(#96),#97);
#22=STYLED_ITEM('',(#98),#99);
#23=STYLED_ITEM('',(#100),#101);
#24=STYLED_ITEM('',(#102),#103);
#25=STYLED_ITEM('',(#104),#105);
#26=STYLED_ITEM('',(#106),#107);
#27=STYLED_ITEM('',(#108),#109);
#28=STYLED_ITEM('',(#110),#111);
#29=STYLED_ITEM('',(#112),#113);
#30=STYLED_ITEM('',(#114),#115);
#31=STYLED_ITEM('',(#116),#117);
#32=STYLED_ITEM('',(#118),#119);
#33=STYLED_ITEM('',(#120),#121);
#34=STYLED_ITEM('',(#122),#123);
#35=STYLED_ITEM('',(#124),#125);
#36=STYLED_ITEM('',(#126),#127);
#37=STYLED_ITEM('',(#128),#129);
#38=STYLED_ITEM('',(#130),#131);
#39=STYLED_ITEM('',(#132),#133);
#40=STYLED_ITEM('',(#134),#135);
#41=STYLED_ITEM('',(#136),#137);
#42=STYLED_ITEM('',(#138),#139);
#43=STYLED_ITEM('',(#140),#141);
#44=STYLED_ITEM('',(#142),#143);
#45=STYLED_ITEM('',(#144),#145);
#46=STYLED_ITEM('',(#146),#147);
#47=STYLED_ITEM('',(#148),#149);
#48=STYLED_ITEM('',(#150),#151);
#49=STYLED_ITEM('',(#152),#153);
#50=STYLED_ITEM('',(#154),#155);
#51=STYLED_ITEM('',(#156),#157);
#52=STYLED_ITEM('',(#158),#159);
#53=STYLED_ITEM('',(#160),#161);
#54=STYLED_ITEM('',(#162),#163);
#55=STYLED_ITEM('',(#164),#165);
#56=STYLED_ITEM('',(#166),#167);
#57=STYLED_ITEM('',(#168),#169);
#58=STYLED_ITEM('',(#170),#171);
#59=STYLED_ITEM('',(#172),#173);
#60=STYLED_ITEM('',(#174),#175);
#61=APPLICATION_CONTEXT(' ');
#62=PRODUCT_CATEGORY('part','NONE');
#63=PRODUCT_RELATED_PRODUCT_CATEGORY('detail',' ',(#176));
#64=PRODUCT_DEFINITION_SHAPE('NONE','NONE',#177);
#65=ADVANCED_BREP_SHAPE_REPRESENTATION('1',(#147,#178),#6);
#68=UNCERTAINTY_MEASURE_WITH_UNIT(LENGTH_MEASURE(1.0E-006),#70,'','');
#70= (CONVERSION_BASED_UNIT('MILLIMETRE',#181)LENGTH_UNIT()NAMED_UNIT(#184));
#71= (NAMED_UNIT(#186)PLANE_ANGLE_UNIT()SI_UNIT($,.RADIAN.));
#72= (NAMED_UNIT(#186)SOLID_ANGLE_UNIT()SI_UNIT($,.STERADIAN.));
#74=PRESENTATION_STYLE_ASSIGNMENT((#192));
#75=EDGE_CURVE('',#169,#161,#193,.T.);
#76=PRESENTATION_STYLE_ASSIGNMENT((#194));
#77=EDGE_CURVE('',#137,#81,#195,.T.);
#78=PRESENTATION_STYLE_ASSIGNMENT((#196));
#79=EDGE_CURVE('',#111,#169,#197,.T.);
#80=PRESENTATION_STYLE_ASSIGNMENT((#198));
#81=VERTEX_POINT('',#199);
#82=PRESENTATION_STYLE_ASSIGNMENT((#200));
#83=EDGE_CURVE('',#131,#145,#201,.T.);
#84=PRESENTATION_STYLE_ASSIGNMENT((#202));
#85=VERTEX_POINT('',#203);
#86=PRESENTATION_STYLE_ASSIGNMENT((#204));
#87=ADVANCED_FACE('',(#205),#206,.F.);
#88=PRESENTATION_STYLE_ASSIGNMENT((#207));
#89=EDGE_CURVE('',#165,#131,#208,.T.);
#90=PRESENTATION_STYLE_ASSIGNMENT((#209));
#91=VERTEX_POINT('',#210);
#92=PRESENTATION_STYLE_ASSIGNMENT((#211));
#93=EDGE_CURVE('',#81,#125,#212,.T.);
#94=PRESENTATION_STYLE_ASSIGNMENT((#213));
#95=EDGE_CURVE('',#125,#109,#214,.T.);
#96=PRESENTATION_STYLE_ASSIGNMENT((#215));
#97=EDGE_CURVE('',#85,#149,#216,.T.);
#98=PRESENTATION_STYLE_ASSIGNMENT((#217));
#99=EDGE_CURVE('',#169,#85,#218,.T.);
#100=PRESENTATION_STYLE_ASSIGNMENT((#219));
#101=ADVANCED_FACE('',(#220),#221,.T.);
#102=PRESENTATION_STYLE_ASSIGNMENT((#222));
#103=EDGE_CURVE('',#91,#105,#223,.T.);
#104=PRESENTATION_STYLE_ASSIGNMENT((#224));
#105=VERTEX_POINT('',#225);
#106=PRESENTATION_STYLE_ASSIGNMENT((#226));
#107=ADVANCED_FACE('',(#227),#228,.T.);
#108=PRESENTATION_STYLE_ASSIGNMENT((#229));
#109=VERTEX_POINT('',#230);
#110=PRESENTATION_STYLE_ASSIGNMENT((#231));
#111=VERTEX_POINT('',#232);
#112=PRESENTATION_STYLE_ASSIGNMENT((#233));
#113=ADVANCED_FACE('',(#234),#235,.T.);
#114=PRESENTATION_STYLE_ASSIGNMENT((#236));
#115=EDGE_CURVE('',#111,#109,#237,.T.);
#116=PRESENTATION_STYLE_ASSIGNMENT((#238));
#117=EDGE_CURVE('',#109,#85,#239,.T.);
#118=PRESENTATION_STYLE_ASSIGNMENT((#240));
#119=EDGE_CURVE('',#91,#143,#241,.T.);
#120=PRESENTATION_STYLE_ASSIGNMENT((#242));
#121=EDGE_CURVE('',#143,#139,#243,.T.);
#122=PRESENTATION_STYLE_ASSIGNMENT((#244));
#123=EDGE_CURVE('',#105,#139,#245,.T.);
#124=PRESENTATION_STYLE_ASSIGNMENT((#246));
#125=VERTEX_POINT('',#247);
#126=PRESENTATION_STYLE_ASSIGNMENT((#248));
#127=EDGE_CURVE('',#145,#125,#249,.T.);
#128=PRESENTATION_STYLE_ASSIGNMENT((#250));
#129=EDGE_CURVE('',#81,#111,#251,.T.);
#130=PRESENTATION_STYLE_ASSIGNMENT((#252));
#131=VERTEX_POINT('',#253);
#132=PRESENTATION_STYLE_ASSIGNMENT((#254));
#133=EDGE_CURVE('',#161,#91,#255,.T.);
#134=PRESENTATION_STYLE_ASSIGNMENT((#256));
#135=EDGE_CURVE('',#139,#131,#257,.T.);
#136=PRESENTATION_STYLE_ASSIGNMENT((#258));
#137=VERTEX_POINT('',#259);
#138=PRESENTATION_STYLE_ASSIGNMENT((#260));
#139=VERTEX_POINT('',#261);
#140=PRESENTATION_STYLE_ASSIGNMENT((#262));
#141=ADVANCED_FACE('',(#263),#264,.T.);
#142=PRESENTATION_STYLE_ASSIGNMENT((#265));
#143=VERTEX_POINT('',#266);
#144=PRESENTATION_STYLE_ASSIGNMENT((#267));
#145=VERTEX_POINT('',#268);
#146=PRESENTATION_STYLE_ASSIGNMENT((#269));
#147=MANIFOLD_SOLID_BREP('1',#270);
#148=PRESENTATION_STYLE_ASSIGNMENT((#271));
#149=VERTEX_POINT('',#272);
#150=PRESENTATION_STYLE_ASSIGNMENT((#273));
#151=ADVANCED_FACE('',(#274),#275,.T.);
#152=PRESENTATION_STYLE_ASSIGNMENT((#276));
#153=EDGE_CURVE('',#161,#149,#277,.T.);
#154=PRESENTATION_STYLE_ASSIGNMENT((#278));
#155=ADVANCED_FACE('',(#279),#280,.T.);
#156=PRESENTATION_STYLE_ASSIGNMENT((#281));
#157=EDGE_CURVE('',#149,#143,#282,.T.);
#158=PRESENTATION_STYLE_ASSIGNMENT((#283));
#159=ADVANCED_FACE('',(#284),#285,.T.);
#160=PRESENTATION_STYLE_ASSIGNMENT((#286));
#161=VERTEX_POINT('',#287);
#162=PRESENTATION_STYLE_ASSIGNMENT((#288));
#163=ADVANCED_FACE('',(#289),#290,.T.);
#164=PRESENTATION_STYLE_ASSIGNMENT((#291));
#165=VERTEX_POINT('',#292);
#166=PRESENTATION_STYLE_ASSIGNMENT((#293));
#167=ADVANCED_FACE('',(#294),#295,.T.);
#168=PRESENTATION_STYLE_ASSIGNMENT((#296));
#169=VERTEX_POINT('',#297);
#170=PRESENTATION_STYLE_ASSIGNMENT((#298));
#171=EDGE_CURVE('',#105,#165,#299,.T.);
#172=PRESENTATION_STYLE_ASSIGNMENT((#300));
#173=EDGE_CURVE('',#137,#145,#301,.T.);
#174=PRESENTATION_STYLE_ASSIGNMENT((#302));
#175=EDGE_CURVE('',#165,#137,#303,.T.);
#176=PRODUCT('1','1','PART-1-DESC',(#304));
#177=PRODUCT_DEFINITION('NONE','NONE',#305,#2);
#178=AXIS2_PLACEMENT_3D('',#306,#307,#308);
#181=LENGTH_MEASURE_WITH_UNIT(LENGTH_MEASURE(1.0),#309);
#184=DIMENSIONAL_EXPONENTS(1.0,0.0,0.0,0.0,0.0,0.0,0.0);
#186=DIMENSIONAL_EXPONENTS(0.0,0.0,0.0,0.0,0.0,0.0,0.0);
#192=CURVE_STYLE('',#310,POSITIVE_LENGTH_MEASURE(1.0E-006),#311);
#193=LINE('',#312,#313);
#194=CURVE_STYLE('',#314,POSITIVE_LENGTH_MEASURE(1.0E-006),#315);
#195=CIRCLE('',#316,1.2);
#196=CURVE_STYLE('',#317,POSITIVE_LENGTH_MEASURE(1.0E-006),#318);
#197=CIRCLE('',#319,1.2);
#198=POINT_STYLE(' ',#320,POSITIVE_LENGTH_MEASURE(1.0E-006),#321);
#199=CARTESIAN_POINT('',(1.2,0.0,0.0));
#200=CURVE_STYLE('',#322,POSITIVE_LENGTH_MEASURE(1.0E-006),#323);
#201=LINE('',#324,#325);
#202=POINT_STYLE(' ',#326,POSITIVE_LENGTH_MEASURE(1.0E-006),#327);
#203=CARTESIAN_POINT('',(13.3191876595476,1.2,-5.2));
#204=SURFACE_STYLE_USAGE(.BOTH.,#328);
#205=FACE_OUTER_BOUND('',#329,.T.);
#206=PLANE('',#330);
#207=CURVE_STYLE('',#331,POSITIVE_LENGTH_MEASURE(1.0E-006),#332);
#208=LINE('',#333,#334);
#209=POINT_STYLE(' ',#335,POSITIVE_LENGTH_MEASURE(1.0E-006),#336);
#210=CARTESIAN_POINT('',(12.85,14.0499999999,0.0));
#211=CURVE_STYLE('',#337,POSITIVE_LENGTH_MEASURE(1.0E-006),#338);
#212=LINE('',#339,#340);
#213=CURVE_STYLE('',#341,POSITIVE_LENGTH_MEASURE(1.0E-006),#342);
#214=LINE('',#343,#344);
#215=CURVE_STYLE('',#345,POSITIVE_LENGTH_MEASURE(1.0E-006),#346);
#216=LINE('',#347,#348);
#217=CURVE_STYLE('',#349,POSITIVE_LENGTH_MEASURE(1.0E-006),#350);
#218=LINE('',#351,#352);
#219=SURFACE_STYLE_USAGE(.BOTH.,#353);
#220=FACE_OUTER_BOUND('',#354,.T.);
#221=PLANE('',#355);
#222=CURVE_STYLE('',#356,POSITIVE_LENGTH_MEASURE(1.0E-006),#357);
#223=LINE('',#358,#359);
#224=POINT_STYLE(' ',#360,POSITIVE_LENGTH_MEASURE(1.0E-006),#361);
#225=CARTESIAN_POINT('',(1.2,14.05,0.0));
#226=SURFACE_STYLE_USAGE(.BOTH.,#362);
#227=FACE_OUTER_BOUND('',#363,.T.);
#228=CONICAL_SURFACE('',#364,1.2,0.139626340159547);
#229=POINT_STYLE(' ',#365,POSITIVE_LENGTH_MEASURE(1.0E-006),#366);
#230=CARTESIAN_POINT('',(12.8499999999391,0.730812340552438,-5.2));
#231=POINT_STYLE(' ',#367,POSITIVE_LENGTH_MEASURE(1.0E-006),#368);
#232=CARTESIAN_POINT('',(12.85,0.0,0.0));
#233=SURFACE_STYLE_USAGE(.BOTH.,#369);
#234=FACE_OUTER_BOUND('',#370,.T.);
#235=PLANE('',#371);
#236=CURVE_STYLE('',#372,POSITIVE_LENGTH_MEASURE(1.0E-006),#373);
#237=LINE('',#374,#375);
#238=CURVE_STYLE('',#376,POSITIVE_LENGTH_MEASURE(1.0E-006),#377);
#239=CIRCLE('',#378,0.46918765954756);
#240=CURVE_STYLE('',#379,POSITIVE_LENGTH_MEASURE(1.0E-006),#380);
#241=LINE('',#381,#382);
#242=CURVE_STYLE('',#383,POSITIVE_LENGTH_MEASURE(1.0E-006),#384);
#243=LINE('',#385,#386);
#244=CURVE_STYLE('',#387,POSITIVE_LENGTH_MEASURE(1.0E-006),#388);
#245=LINE('',#389,#390);
#246=POINT_STYLE(' ',#391,POSITIVE_LENGTH_MEASURE(1.0E-006),#392);
#247=CARTESIAN_POINT('',(1.2,0.730812340452438,-5.2));
#248=CURVE_STYLE('',#393,POSITIVE_LENGTH_MEASURE(1.0E-006),#394);
#249=CIRCLE('',#395,0.469187659547562);
#250=CURVE_STYLE('',#396,POSITIVE_LENGTH_MEASURE(1.0E-006),#397);
#251=LINE('',#398,#399);
#252=POINT_STYLE(' ',#400,POSITIVE_LENGTH_MEASURE(1.0E-006),#401);
#253=CARTESIAN_POINT('',(0.730812340452438,12.85,-5.2));
#254=CURVE_STYLE('',#402,POSITIVE_LENGTH_MEASURE(1.0E-006),#403);
#255=CIRCLE('',#404,1.2);
#256=CURVE_STYLE('',#405,POSITIVE_LENGTH_MEASURE(1.0E-006),#406);
#257=CIRCLE('',#407,0.469187659547565);
#258=POINT_STYLE(' ',#408,POSITIVE_LENGTH_MEASURE(1.0E-006),#409);
#259=CARTESIAN_POINT('',(0.0,1.2,0.0));
#260=POINT_STYLE(' ',#410,POSITIVE_LENGTH_MEASURE(1.0E-006),#411);
#261=CARTESIAN_POINT('',(1.2000000000609,13.3191876594476,-5.2));
#262=SURFACE_STYLE_USAGE(.BOTH.,#412);
#263=FACE_OUTER_BOUND('',#413,.T.);
#264=PLANE('',#414);
#265=POINT_STYLE(' ',#415,POSITIVE_LENGTH_MEASURE(1.0E-006),#416);
#266=CARTESIAN_POINT('',(12.85,13.3191876595476,-5.2));
#267=POINT_STYLE(' ',#417,POSITIVE_LENGTH_MEASURE(1.0E-006),#418);
#268=CARTESIAN_POINT('',(0.730812340552438,1.2000000000609,-5.2));
#269=SURFACE_STYLE_USAGE(.BOTH.,#419);
#270=CLOSED_SHELL('',(#155,#113,#159,#141,#107,#151,#167,#163,#87,#101));
#271=POINT_STYLE(' ',#420,POSITIVE_LENGTH_MEASURE(1.0E-006),#421);
#272=CARTESIAN_POINT('',(13.3191876594476,12.8499999999391,-5.2));
#273=SURFACE_STYLE_USAGE(.BOTH.,#422);
#274=FACE_OUTER_BOUND('',#423,.T.);
#275=PLANE('',#424);
#276=CURVE_STYLE('',#425,POSITIVE_LENGTH_MEASURE(1.0E-006),#426);
#277=LINE('',#427,#428);
#278=SURFACE_STYLE_USAGE(.BOTH.,#429);
#279=FACE_OUTER_BOUND('',#430,.T.);
#280=CONICAL_SURFACE('',#431,1.2,0.139626340159547);
#281=CURVE_STYLE('',#432,POSITIVE_LENGTH_MEASURE(1.0E-006),#433);
#282=CIRCLE('',#434,0.469187659547565);
#283=SURFACE_STYLE_USAGE(.BOTH.,#435);
#284=FACE_OUTER_BOUND('',#436,.T.);
#285=CONICAL_SURFACE('',#437,1.2,0.139626340159547);
#286=POINT_STYLE(' ',#438,POSITIVE_LENGTH_MEASURE(1.0E-006),#439);
#287=CARTESIAN_POINT('',(14.05,12.85,0.0));
#288=SURFACE_STYLE_USAGE(.BOTH.,#440);
#289=FACE_OUTER_BOUND('',#441,.T.);
#290=PLANE('',#442);
#291=POINT_STYLE(' ',#443,POSITIVE_LENGTH_MEASURE(1.0E-006),#444);
#292=CARTESIAN_POINT('',(1.00000674407852E-010,12.85,0.0));
#293=SURFACE_STYLE_USAGE(.BOTH.,#445);
#294=FACE_OUTER_BOUND('',#446,.T.);
#295=CONICAL_SURFACE('',#447,1.2,0.139626340159547);
#296=POINT_STYLE(' ',#448,POSITIVE_LENGTH_MEASURE(1.0E-006),#449);
#297=CARTESIAN_POINT('',(14.0499999999,1.2,0.0));
#298=CURVE_STYLE('',#450,POSITIVE_LENGTH_MEASURE(1.0E-006),#451);
#299=CIRCLE('',#452,1.2);
#300=CURVE_STYLE('',#453,POSITIVE_LENGTH_MEASURE(1.0E-006),#454);
#301=LINE('',#455,#456);
#302=CURVE_STYLE('',#457,POSITIVE_LENGTH_MEASURE(1.0E-006),#458);
#303=LINE('',#459,#460);
#304=PRODUCT_CONTEXT('',#61,'mechanical');
#305=PRODUCT_DEFINITION_FORMATION_WITH_SPECIFIED_SOURCE(' ','NONE',#176,.NOT_KNOWN.);
#306=CARTESIAN_POINT('',(0.0,0.0,0.0));
#307=DIRECTION('',(0.0,0.0,1.0));
#308=DIRECTION('',(1.0,0.0,0.0));
#309= (NAMED_UNIT(#184)LENGTH_UNIT()SI_UNIT(.MILLI.,.METRE.));
#310=DRAUGHTING_PRE_DEFINED_CURVE_FONT('continuous');
#311=COLOUR_RGB('',0.800000011920929,0.800000011920929,0.800000011920929);
#312=CARTESIAN_POINT('',(14.05,1.2,0.0));
#313=VECTOR('',#462,1.0);
#314=DRAUGHTING_PRE_DEFINED_CURVE_FONT('continuous');
#315=COLOUR_RGB('',0.800000011920929,0.800000011920929,0.800000011920929);
#316=AXIS2_PLACEMENT_3D('',#463,#464,#465);
#317=DRAUGHTING_PRE_DEFINED_CURVE_FONT('continuous');
#318=COLOUR_RGB('',0.800000011920929,0.800000011920929,0.800000011920929);
#319=AXIS2_PLACEMENT_3D('',#466,#467,#468);
#320=PRE_DEFINED_MARKER('');
#321=COLOUR_RGB('',0.800000011920929,0.800000011920929,0.800000011920929);
#322=DRAUGHTING_PRE_DEFINED_CURVE_FONT('continuous');
#323=COLOUR_RGB('',0.800000011920929,0.800000011920929,0.800000011920929);
#324=CARTESIAN_POINT('',(0.730812340452438,12.85,-5.2));
#325=VECTOR('',#469,1.0);
#326=PRE_DEFINED_MARKER('');
#327=COLOUR_RGB('',0.800000011920929,0.800000011920929,0.800000011920929);
#328=SURFACE_SIDE_STYLE('',(#470));
#329=EDGE_LOOP('',(#471,#472,#473,#474,#475,#476,#477,#478));
#330=AXIS2_PLACEMENT_3D('',#479,#480,#481);
#331=DRAUGHTING_PRE_DEFINED_CURVE_FONT('continuous');
#332=COLOUR_RGB('',0.800000011920929,0.800000011920929,0.800000011920929);
#333=CARTESIAN_POINT('',(1.00000674407852E-010,12.85,0.0));
#334=VECTOR('',#482,1.0);
#335=PRE_DEFINED_MARKER('');
#336=COLOUR_RGB('',0.800000011920929,0.800000011920929,0.800000011920929);
#337=DRAUGHTING_PRE_DEFINED_CURVE_FONT('continuous');
#338=COLOUR_RGB('',0.800000011920929,0.800000011920929,0.800000011920929);
#339=CARTESIAN_POINT('',(1.2,0.0,0.0));
#340=VECTOR('',#483,1.0);
#341=DRAUGHTING_PRE_DEFINED_CURVE_FONT('continuous');
#342=COLOUR_RGB('',0.800000011920929,0.800000011920929,0.800000011920929);
#343=CARTESIAN_POINT('',(1.2,0.730812340452438,-5.2));
#344=VECTOR('',#484,1.0);
#345=DRAUGHTING_PRE_DEFINED_CURVE_FONT('continuous');
#346=COLOUR_RGB('',0.800000011920929,0.800000011920929,0.800000011920929);
#347=CARTESIAN_POINT('',(13.3191876595476,1.2,-5.2));
#348=VECTOR('',#485,1.0);
#349=DRAUGHTING_PRE_DEFINED_CURVE_FONT('continuous');
#350=COLOUR_RGB('',0.800000011920929,0.800000011920929,0.800000011920929);
#351=CARTESIAN_POINT('',(14.0499999999,1.2,0.0));
#352=VECTOR('',#486,1.0);
#353=SURFACE_SIDE_STYLE('',(#487));
#354=EDGE_LOOP('',(#488,#489,#490,#491,#492,#493,#494,#495));
#355=AXIS2_PLACEMENT_3D('',#496,#497,#498);
#356=DRAUGHTING_PRE_DEFINED_CURVE_FONT('continuous');
#357=COLOUR_RGB('',0.800000011920929,0.800000011920929,0.800000011920929);
#358=CARTESIAN_POINT('',(12.85,14.05,0.0));
#359=VECTOR('',#499,1.0);
#360=PRE_DEFINED_MARKER('');
#361=COLOUR_RGB('',0.800000011920929,0.800000011920929,0.800000011920929);
#362=SURFACE_SIDE_STYLE('',(#500));
#363=EDGE_LOOP('',(#501,#502,#503,#504));
#364=AXIS2_PLACEMENT_3D('',#505,#506,#507);
#365=PRE_DEFINED_MARKER('');
#366=COLOUR_RGB('',0.800000011920929,0.800000011920929,0.800000011920929);
#367=PRE_DEFINED_MARKER('');
#368=COLOUR_RGB('',0.800000011920929,0.800000011920929,0.800000011920929);
#369=SURFACE_SIDE_STYLE('',(#508));
#370=EDGE_LOOP('',(#509,#510,#511,#512));
#371=AXIS2_PLACEMENT_3D('',#513,#514,#515);
#372=DRAUGHTING_PRE_DEFINED_CURVE_FONT('continuous');
#373=COLOUR_RGB('',0.800000011920929,0.800000011920929,0.800000011920929);
#374=CARTESIAN_POINT('',(12.85,0.0,0.0));
#375=VECTOR('',#516,1.0);
#376=DRAUGHTING_PRE_DEFINED_CURVE_FONT('continuous');
#377=COLOUR_RGB('',0.800000011920929,0.800000011920929,0.800000011920929);
#378=AXIS2_PLACEMENT_3D('',#517,#518,#519);
#379=DRAUGHTING_PRE_DEFINED_CURVE_FONT('continuous');
#380=COLOUR_RGB('',0.800000011920929,0.800000011920929,0.800000011920929);
#381=CARTESIAN_POINT('',(12.85,14.0499999999,0.0));
#382=VECTOR('',#520,1.0);
#383=DRAUGHTING_PRE_DEFINED_CURVE_FONT('continuous');
#384=COLOUR_RGB('',0.800000011920929,0.800000011920929,0.800000011920929);
#385=CARTESIAN_POINT('',(12.85,13.3191876595476,-5.2));
#386=VECTOR('',#521,1.0);
#387=DRAUGHTING_PRE_DEFINED_CURVE_FONT('continuous');
#388=COLOUR_RGB('',0.800000011920929,0.800000011920929,0.800000011920929);
#389=CARTESIAN_POINT('',(1.2,14.05,0.0));
#390=VECTOR('',#522,1.0);
#391=PRE_DEFINED_MARKER('');
#392=COLOUR_RGB('',0.800000011920929,0.800000011920929,0.800000011920929);
#393=DRAUGHTING_PRE_DEFINED_CURVE_FONT('continuous');
#394=COLOUR_RGB('',0.800000011920929,0.800000011920929,0.800000011920929);
#395=AXIS2_PLACEMENT_3D('',#523,#524,#525);
#396=DRAUGHTING_PRE_DEFINED_CURVE_FONT('continuous');
#397=COLOUR_RGB('',0.800000011920929,0.800000011920929,0.800000011920929);
#398=CARTESIAN_POINT('',(1.2,0.0,0.0));
#399=VECTOR('',#526,1.0);
#400=PRE_DEFINED_MARKER('');
#401=COLOUR_RGB('',0.800000011920929,0.800000011920929,0.800000011920929);
#402=DRAUGHTING_PRE_DEFINED_CURVE_FONT('continuous');
#403=COLOUR_RGB('',0.800000011920929,0.800000011920929,0.800000011920929);
#404=AXIS2_PLACEMENT_3D('',#527,#528,#529);
#405=DRAUGHTING_PRE_DEFINED_CURVE_FONT('continuous');
#406=COLOUR_RGB('',0.800000011920929,0.800000011920929,0.800000011920929);
#407=AXIS2_PLACEMENT_3D('',#530,#531,#532);
#408=PRE_DEFINED_MARKER('');
#409=COLOUR_RGB('',0.800000011920929,0.800000011920929,0.800000011920929);
#410=PRE_DEFINED_MARKER('');
#411=COLOUR_RGB('',0.800000011920929,0.800000011920929,0.800000011920929);
#412=SURFACE_SIDE_STYLE('',(#533));
#413=EDGE_LOOP('',(#534,#535,#536,#537));
#414=AXIS2_PLACEMENT_3D('',#538,#539,#540);
#415=PRE_DEFINED_MARKER('');
#416=COLOUR_RGB('',0.800000011920929,0.800000011920929,0.800000011920929);
#417=PRE_DEFINED_MARKER('');
#418=COLOUR_RGB('',0.800000011920929,0.800000011920929,0.800000011920929);
#419=SURFACE_SIDE_STYLE('',(#541));
#420=PRE_DEFINED_MARKER('');
#421=COLOUR_RGB('',0.800000011920929,0.800000011920929,0.800000011920929);
#422=SURFACE_SIDE_STYLE('',(#542));
#423=EDGE_LOOP('',(#543,#544,#545,#546));
#424=AXIS2_PLACEMENT_3D('',#547,#548,#549);
#425=DRAUGHTING_PRE_DEFINED_CURVE_FONT('continuous');
#426=COLOUR_RGB('',0.800000011920929,0.800000011920929,0.800000011920929);
#427=CARTESIAN_POINT('',(14.05,12.85,0.0));
#428=VECTOR('',#550,1.0);
#429=SURFACE_SIDE_STYLE('',(#551));
#430=EDGE_LOOP('',(#552,#553,#554,#555));
#431=AXIS2_PLACEMENT_3D('',#556,#557,#558);
#432=DRAUGHTING_PRE_DEFINED_CURVE_FONT('continuous');
#433=COLOUR_RGB('',0.800000011920929,0.800000011920929,0.800000011920929);
#434=AXIS2_PLACEMENT_3D('',#559,#560,#561);
#435=SURFACE_SIDE_STYLE('',(#562));
#436=EDGE_LOOP('',(#563,#564,#565,#566));
#437=AXIS2_PLACEMENT_3D('',#567,#568,#569);
#438=PRE_DEFINED_MARKER('');
#439=COLOUR_RGB('',0.800000011920929,0.800000011920929,0.800000011920929);
#440=SURFACE_SIDE_STYLE('',(#570));
#441=EDGE_LOOP('',(#571,#572,#573,#574));
#442=AXIS2_PLACEMENT_3D('',#575,#576,#577);
#443=PRE_DEFINED_MARKER('');
#444=COLOUR_RGB('',0.800000011920929,0.800000011920929,0.800000011920929);
#445=SURFACE_SIDE_STYLE('',(#578));
#446=EDGE_LOOP('',(#579,#580,#581,#582));
#447=AXIS2_PLACEMENT_3D('',#583,#584,#585);
#448=PRE_DEFINED_MARKER('');
#449=COLOUR_RGB('',0.800000011920929,0.800000011920929,0.800000011920929);
#450=DRAUGHTING_PRE_DEFINED_CURVE_FONT('continuous');
#451=COLOUR_RGB('',0.800000011920929,0.800000011920929,0.800000011920929);
#452=AXIS2_PLACEMENT_3D('',#586,#587,#588);
#453=DRAUGHTING_PRE_DEFINED_CURVE_FONT('continuous');
#454=COLOUR_RGB('',0.800000011920929,0.800000011920929,0.800000011920929);
#455=CARTESIAN_POINT('',(0.0,1.2,0.0));
#456=VECTOR('',#589,1.0);
#457=DRAUGHTING_PRE_DEFINED_CURVE_FONT('continuous');
#458=COLOUR_RGB('',0.800000011920929,0.800000011920929,0.800000011920929);
#459=CARTESIAN_POINT('',(0.0,12.85,0.0));
#460=VECTOR('',#590,1.0);
#462=DIRECTION('',(0.0,1.0,0.0));
#463=CARTESIAN_POINT('',(1.2000000001,1.2000000001,0.0));
#464=DIRECTION('',(0.0,0.0,1.0));
#465=DIRECTION('',(-1.0,-8.33322300053396E-011,0.0));
#466=CARTESIAN_POINT('',(12.8499999999,1.2000000001,0.0));
#467=DIRECTION('',(0.0,0.0,1.0));
#468=DIRECTION('',(8.33318599309982E-011,-1.0,0.0));
#469=DIRECTION('',(0.0,-1.0,0.0));
#470=SURFACE_STYLE_FILL_AREA(#591);
#471=ORIENTED_EDGE('',*,*,#117,.F.);
#472=ORIENTED_EDGE('',*,*,#95,.F.);
#473=ORIENTED_EDGE('',*,*,#127,.F.);
#474=ORIENTED_EDGE('',*,*,#83,.F.);
#475=ORIENTED_EDGE('',*,*,#135,.F.);
#476=ORIENTED_EDGE('',*,*,#121,.F.);
#477=ORIENTED_EDGE('',*,*,#157,.F.);
#478=ORIENTED_EDGE('',*,*,#97,.F.);
#479=CARTESIAN_POINT('',(7.025,7.025,-5.2));
#480=DIRECTION('',(0.0,0.0,1.0));
#481=DIRECTION('',(1.0,0.0,0.0));
#482=DIRECTION('',(0.139173100941391,0.0,-0.990268068744195));
#483=DIRECTION('',(0.0,0.139173100960066,-0.99026806874157));
#484=DIRECTION('',(1.0,0.0,0.0));
#485=DIRECTION('',(0.0,1.0,0.0));
#486=DIRECTION('',(-0.139173100941391,0.0,-0.990268068744195));
#487=SURFACE_STYLE_FILL_AREA(#592);
#488=ORIENTED_EDGE('',*,*,#129,.T.);
#489=ORIENTED_EDGE('',*,*,#79,.T.);
#490=ORIENTED_EDGE('',*,*,#75,.T.);
#491=ORIENTED_EDGE('',*,*,#133,.T.);
#492=ORIENTED_EDGE('',*,*,#103,.T.);
#493=ORIENTED_EDGE('',*,*,#171,.T.);
#494=ORIENTED_EDGE('',*,*,#175,.T.);
#495=ORIENTED_EDGE('',*,*,#77,.T.);
#496=CARTESIAN_POINT('',(7.025,7.025,0.0));
#497=DIRECTION('',(0.0,0.0,1.0));
#498=DIRECTION('',(1.0,0.0,0.0));
#499=DIRECTION('',(-1.0,0.0,0.0));
#500=SURFACE_STYLE_FILL_AREA(#593);
#501=ORIENTED_EDGE('',*,*,#135,.T.);
#502=ORIENTED_EDGE('',*,*,#89,.F.);
#503=ORIENTED_EDGE('',*,*,#171,.F.);
#504=ORIENTED_EDGE('',*,*,#123,.T.);
#505=CARTESIAN_POINT('',(1.2000000001,12.8499999999,0.0));
#506=DIRECTION('',(-0.0,-0.0,1.0));
#507=DIRECTION('',(-8.33364858602672E-011,1.0,0.0));
#508=SURFACE_STYLE_FILL_AREA(#594);
#509=ORIENTED_EDGE('',*,*,#97,.T.);
#510=ORIENTED_EDGE('',*,*,#153,.F.);
#511=ORIENTED_EDGE('',*,*,#75,.F.);
#512=ORIENTED_EDGE('',*,*,#99,.T.);
#513=CARTESIAN_POINT('',(14.0499999999,1.2,0.0));
#514=DIRECTION('',(0.990268068744195,-0.0,-0.139173100941391));
#515=DIRECTION('',(-0.0,-1.0,0.0));
#516=DIRECTION('',(-1.1597680241349E-011,0.139173100978741,-0.990268068738946));
#517=CARTESIAN_POINT('',(12.8499999999,1.2000000001,-5.2));
#518=DIRECTION('',(0.0,0.0,1.0));
#519=DIRECTION('',(8.33318599309982E-011,-1.0,0.0));
#520=DIRECTION('',(0.0,-0.139173100941391,-0.990268068744195));
#521=DIRECTION('',(-1.0,0.0,0.0));
#522=DIRECTION('',(1.15982299505542E-011,-0.139173100978741,-0.990268068738946));
#523=CARTESIAN_POINT('',(1.2000000001,1.2000000001,-5.2));
#524=DIRECTION('',(0.0,0.0,1.0));
#525=DIRECTION('',(-1.0,-8.33322300053396E-011,0.0));
#526=DIRECTION('',(1.0,0.0,0.0));
#527=CARTESIAN_POINT('',(12.8499999999,12.8499999999,0.0));
#528=DIRECTION('',(0.0,-0.0,1.0));
#529=DIRECTION('',(1.0,8.33363008230964E-011,0.0));
#530=CARTESIAN_POINT('',(1.2000000001,12.8499999999,-5.2));
#531=DIRECTION('',(0.0,0.0,1.0));
#532=DIRECTION('',(-8.33364858602672E-011,1.0,0.0));
#533=SURFACE_STYLE_FILL_AREA(#595);
#534=ORIENTED_EDGE('',*,*,#121,.T.);
#535=ORIENTED_EDGE('',*,*,#123,.F.);
#536=ORIENTED_EDGE('',*,*,#103,.F.);
#537=ORIENTED_EDGE('',*,*,#119,.T.);
#538=CARTESIAN_POINT('',(12.85,14.0499999999,0.0));
#539=DIRECTION('',(0.0,0.990268068744195,-0.139173100941391));
#540=DIRECTION('',(1.0,-0.0,0.0));
#541=SURFACE_STYLE_FILL_AREA(#596);
#542=SURFACE_STYLE_FILL_AREA(#597);
#543=ORIENTED_EDGE('',*,*,#83,.T.);
#544=ORIENTED_EDGE('',*,*,#173,.F.);
#545=ORIENTED_EDGE('',*,*,#175,.F.);
#546=ORIENTED_EDGE('',*,*,#89,.T.);
#547=CARTESIAN_POINT('',(1.00000674407852E-010,12.85,0.0));
#548=DIRECTION('',(-0.990268068744195,0.0,-0.139173100941391));
#549=DIRECTION('',(0.0,1.0,0.0));
#550=DIRECTION('',(-0.139173100978741,-1.15980185239368E-011,-0.990268068738946));
#551=SURFACE_STYLE_FILL_AREA(#598);
#552=ORIENTED_EDGE('',*,*,#117,.T.);
#553=ORIENTED_EDGE('',*,*,#99,.F.);
#554=ORIENTED_EDGE('',*,*,#79,.F.);
#555=ORIENTED_EDGE('',*,*,#115,.T.);
#556=CARTESIAN_POINT('',(12.8499999999,1.2000000001,0.0));
#557=DIRECTION('',(-0.0,-0.0,1.0));
#558=DIRECTION('',(8.33318599309982E-011,-1.0,0.0));
#559=CARTESIAN_POINT('',(12.8499999999,12.8499999999,-5.2));
#560=DIRECTION('',(0.0,-0.0,1.0));
#561=DIRECTION('',(1.0,8.33363008230964E-011,0.0));
#562=SURFACE_STYLE_FILL_AREA(#599);
#563=ORIENTED_EDGE('',*,*,#157,.T.);
#564=ORIENTED_EDGE('',*,*,#119,.F.);
#565=ORIENTED_EDGE('',*,*,#133,.F.);
#566=ORIENTED_EDGE('',*,*,#153,.T.);
#567=CARTESIAN_POINT('',(12.8499999999,12.8499999999,0.0));
#568=DIRECTION('',(-0.0,-0.0,1.0));
#569=DIRECTION('',(1.0,8.33363008230964E-011,0.0));
#570=SURFACE_STYLE_FILL_AREA(#600);
#571=ORIENTED_EDGE('',*,*,#95,.T.);
#572=ORIENTED_EDGE('',*,*,#115,.F.);
#573=ORIENTED_EDGE('',*,*,#129,.F.);
#574=ORIENTED_EDGE('',*,*,#93,.T.);
#575=CARTESIAN_POINT('',(1.2,0.0,0.0));
#576=DIRECTION('',(-0.0,-0.99026806874157,-0.139173100960066));
#577=DIRECTION('',(-1.0,0.0,0.0));
#578=SURFACE_STYLE_FILL_AREA(#601);
#579=ORIENTED_EDGE('',*,*,#127,.T.);
#580=ORIENTED_EDGE('',*,*,#93,.F.);
#581=ORIENTED_EDGE('',*,*,#77,.F.);
#582=ORIENTED_EDGE('',*,*,#173,.T.);
#583=CARTESIAN_POINT('',(1.2000000001,1.2000000001,0.0));
#584=DIRECTION('',(0.0,-0.0,1.0));
#585=DIRECTION('',(-1.0,-8.33322300053396E-011,0.0));
#586=CARTESIAN_POINT('',(1.2000000001,12.8499999999,0.0));
#587=DIRECTION('',(0.0,0.0,1.0));
#588=DIRECTION('',(-8.33364858602672E-011,1.0,0.0));
#589=DIRECTION('',(0.139173100978741,1.15978070973194E-011,-0.990268068738946));
#590=DIRECTION('',(0.0,-1.0,0.0));
#591=FILL_AREA_STYLE('',(#602));
#592=FILL_AREA_STYLE('',(#603));
#593=FILL_AREA_STYLE('',(#604));
#594=FILL_AREA_STYLE('',(#605));
#595=FILL_AREA_STYLE('',(#606));
#596=FILL_AREA_STYLE('',(#607));
#597=FILL_AREA_STYLE('',(#608));
#598=FILL_AREA_STYLE('',(#609));
#599=FILL_AREA_STYLE('',(#610));
#600=FILL_AREA_STYLE('',(#611));
#601=FILL_AREA_STYLE('',(#612));
#602=FILL_AREA_STYLE_COLOUR('',#613);
#603=FILL_AREA_STYLE_COLOUR('',#614);
#604=FILL_AREA_STYLE_COLOUR('',#615);
#605=FILL_AREA_STYLE_COLOUR('',#616);
#606=FILL_AREA_STYLE_COLOUR('',#617);
#607=FILL_AREA_STYLE_COLOUR('',#618);
#608=FILL_AREA_STYLE_COLOUR('',#619);
#609=FILL_AREA_STYLE_COLOUR('',#620);
#610=FILL_AREA_STYLE_COLOUR('',#621);
#611=FILL_AREA_STYLE_COLOUR('',#622);
#612=FILL_AREA_STYLE_COLOUR('',#623);
#613=COLOUR_RGB('',0.800000011920929,0.800000011920929,0.800000011920929);
#614=COLOUR_RGB('',0.800000011920929,0.800000011920929,0.800000011920929);
#615=COLOUR_RGB('',0.800000011920929,0.800000011920929,0.800000011920929);
#616=COLOUR_RGB('',0.800000011920929,0.800000011920929,0.800000011920929);
#617=COLOUR_RGB('',0.800000011920929,0.800000011920929,0.800000011920929);
#618=COLOUR_RGB('',0.800000011920929,0.800000011920929,0.800000011920929);
#619=COLOUR_RGB('',0.800000011920929,0.800000011920929,0.800000011920929);
#620=COLOUR_RGB('',0.800000011920929,0.800000011920929,0.800000011920929);
#621=COLOUR_RGB('',0.800000011920929,0.800000011920929,0.800000011920929);
#622=COLOUR_RGB('',0.800000011920929,0.800000011920929,0.800000011920929);
#623=COLOUR_RGB('',0.800000011920929,0.800000011920929,0.800000011920929);
#624=AXIS2_PLACEMENT_3D('PCS',#625,#626,#627);
#625=CARTESIAN_POINT('',(0.0,0.0,0.0));
#626=DIRECTION('',(0.0,0.0,1.0));
#627=DIRECTION('',(1.0,0.0,0.0));
#628=AXIS2_PLACEMENT_3D('MCS',#629,#630,#631);
#629=CARTESIAN_POINT('',(7.025,7.025,0.0));
#630=DIRECTION('',(0.0,0.0,1.0));
#631=DIRECTION('',(1.0,0.0,0.0));
#632=CONSTRUCTIVE_GEOMETRY_REPRESENTATION_RELATIONSHIP('coordinate systems',$,#65,#633);
#633=CONSTRUCTIVE_GEOMETRY_REPRESENTATION('coordinate systems',(#624,#628),#6);
ENDSEC;
END-ISO-10303-21;
