ISO-10303-21;
HEADER;
FILE_DESCRIPTION(('no description'),'unknown implementation level');
FILE_NAME('solidgxLAlead6rUYHLSvMBTEdNXZ24I_1.STP','  ',('CIMSOURCE GmbH'),('CADClick - KiM GmbH - www.kimweb.de'),'unknown preprocess','ACIS','unknown authorization');
FILE_SCHEMA(('automotive_design'));
ENDSEC;
DATA;
#1=MECHANICAL_DESIGN_GEOMETRIC_PRESENTATION_REPRESENTATION(' ',(#10,#11,#12,#13,#14,#15,#16,#17,#18,#19,#20,#21,#22,#23,#24,#25,#26,#27,#28,#29,#30,#31,#32,#33,#34,#35,#36,#37,#38,#39,#40,#41,#42,#43,#44,#45,#46,#47,#48,#49,#50,#51,#52,#53,#54,#55,#56,#57,#58,#59,#60),#6);
#2=PRODUCT_DEFINITION_CONTEXT('',#61,'design');
#3=APPLICATION_PROTOCOL_DEFINITION('INTERNATIONAL STANDARD','automotive_design',1994,#61);
#4=PRODUCT_CATEGORY_RELATIONSHIP('NONE','NONE',#62,#63);
#5=SHAPE_DEFINITION_REPRESENTATION(#64,#65);
#6= (GEOMETRIC_REPRESENTATION_CONTEXT(3)GLOBAL_UNCERTAINTY_ASSIGNED_CONTEXT((#68))GLOBAL_UNIT_ASSIGNED_CONTEXT((#70,#71,#72))REPRESENTATION_CONTEXT('NONE','WORKSPACE'));
#10=STYLED_ITEM('',(#74),#75);
#11=STYLED_ITEM('',(#76),#77);
#12=STYLED_ITEM('',(#78),#79);
#13=STYLED_ITEM('',(#80),#81);
#14=STYLED_ITEM('',(#82),#83);
#15=STYLED_ITEM('',(#84),#85);
#16=STYLED_ITEM('',(#86),#87);
#17=STYLED_ITEM('',(#88),#89);
#18=STYLED_ITEM('',(#90),#91);
#19=STYLED_ITEM('',(#92),#93);
#20=STYLED_ITEM('',(#94),#95);
#21=STYLED_ITEM('',(#96),#97);
#22=STYLED_ITEM('',(#98),#99);
#23=STYLED_ITEM('',(#100),#101);
#24=STYLED_ITEM('',(#102),#103);
#25=STYLED_ITEM('',(#104),#105);
#26=STYLED_ITEM('',(#106),#107);
#27=STYLED_ITEM('',(#108),#109);
#28=STYLED_ITEM('',(#110),#111);
#29=STYLED_ITEM('',(#112),#113);
#30=STYLED_ITEM('',(#114),#115);
#31=STYLED_ITEM('',(#116),#117);
#32=STYLED_ITEM('',(#118),#119);
#33=STYLED_ITEM('',(#120),#121);
#34=STYLED_ITEM('',(#122),#123);
#35=STYLED_ITEM('',(#124),#125);
#36=STYLED_ITEM('',(#126),#127);
#37=STYLED_ITEM('',(#128),#129);
#38=STYLED_ITEM('',(#130),#131);
#39=STYLED_ITEM('',(#132),#133);
#40=STYLED_ITEM('',(#134),#135);
#41=STYLED_ITEM('',(#136),#137);
#42=STYLED_ITEM('',(#138),#139);
#43=STYLED_ITEM('',(#140),#141);
#44=STYLED_ITEM('',(#142),#143);
#45=STYLED_ITEM('',(#144),#145);
#46=STYLED_ITEM('',(#146),#147);
#47=STYLED_ITEM('',(#148),#149);
#48=STYLED_ITEM('',(#150),#151);
#49=STYLED_ITEM('',(#152),#153);
#50=STYLED_ITEM('',(#154),#155);
#51=STYLED_ITEM('',(#156),#157);
#52=STYLED_ITEM('',(#158),#159);
#53=STYLED_ITEM('',(#160),#161);
#54=STYLED_ITEM('',(#162),#163);
#55=STYLED_ITEM('',(#164),#165);
#56=STYLED_ITEM('',(#166),#167);
#57=STYLED_ITEM('',(#168),#169);
#58=STYLED_ITEM('',(#170),#171);
#59=STYLED_ITEM('',(#172),#173);
#60=STYLED_ITEM('',(#174),#175);
#61=APPLICATION_CONTEXT(' ');
#62=PRODUCT_CATEGORY('part','NONE');
#63=PRODUCT_RELATED_PRODUCT_CATEGORY('detail',' ',(#176));
#64=PRODUCT_DEFINITION_SHAPE('NONE','NONE',#177);
#65=ADVANCED_BREP_SHAPE_REPRESENTATION('1',(#125,#178),#6);
#68=UNCERTAINTY_MEASURE_WITH_UNIT(LENGTH_MEASURE(1.0E-006),#70,'','');
#70= (CONVERSION_BASED_UNIT('MILLIMETRE',#181)LENGTH_UNIT()NAMED_UNIT(#184));
#71= (NAMED_UNIT(#186)PLANE_ANGLE_UNIT()SI_UNIT($,.RADIAN.));
#72= (NAMED_UNIT(#186)SOLID_ANGLE_UNIT()SI_UNIT($,.STERADIAN.));
#74=PRESENTATION_STYLE_ASSIGNMENT((#192));
#75=ADVANCED_FACE('',(#193),#194,.T.);
#76=PRESENTATION_STYLE_ASSIGNMENT((#195));
#77=EDGE_CURVE('',#121,#167,#196,.T.);
#78=PRESENTATION_STYLE_ASSIGNMENT((#197));
#79=EDGE_CURVE('',#83,#115,#198,.T.);
#80=PRESENTATION_STYLE_ASSIGNMENT((#199));
#81=EDGE_CURVE('',#143,#107,#200,.T.);
#82=PRESENTATION_STYLE_ASSIGNMENT((#201));
#83=VERTEX_POINT('',#202);
#84=PRESENTATION_STYLE_ASSIGNMENT((#203));
#85=VERTEX_POINT('',#204);
#86=PRESENTATION_STYLE_ASSIGNMENT((#205));
#87=EDGE_CURVE('',#109,#93,#206,.T.);
#88=PRESENTATION_STYLE_ASSIGNMENT((#207));
#89=EDGE_CURVE('',#137,#91,#208,.T.);
#90=PRESENTATION_STYLE_ASSIGNMENT((#209));
#91=VERTEX_POINT('',#210);
#92=PRESENTATION_STYLE_ASSIGNMENT((#211));
#93=VERTEX_POINT('',#212);
#94=PRESENTATION_STYLE_ASSIGNMENT((#213));
#95=ADVANCED_FACE('',(#214),#215,.T.);
#96=PRESENTATION_STYLE_ASSIGNMENT((#216));
#97=ADVANCED_FACE('',(#217),#218,.T.);
#98=PRESENTATION_STYLE_ASSIGNMENT((#219));
#99=EDGE_CURVE('',#93,#91,#220,.T.);
#100=PRESENTATION_STYLE_ASSIGNMENT((#221));
#101=EDGE_CURVE('',#149,#139,#222,.T.);
#102=PRESENTATION_STYLE_ASSIGNMENT((#223));
#103=EDGE_CURVE('',#167,#135,#224,.T.);
#104=PRESENTATION_STYLE_ASSIGNMENT((#225));
#105=EDGE_CURVE('',#135,#85,#226,.T.);
#106=PRESENTATION_STYLE_ASSIGNMENT((#227));
#107=VERTEX_POINT('',#228);
#108=PRESENTATION_STYLE_ASSIGNMENT((#229));
#109=VERTEX_POINT('',#230);
#110=PRESENTATION_STYLE_ASSIGNMENT((#231));
#111=EDGE_CURVE('',#91,#83,#232,.T.);
#112=PRESENTATION_STYLE_ASSIGNMENT((#233));
#113=EDGE_CURVE('',#157,#137,#234,.T.);
#114=PRESENTATION_STYLE_ASSIGNMENT((#235));
#115=VERTEX_POINT('',#236);
#116=PRESENTATION_STYLE_ASSIGNMENT((#237));
#117=EDGE_CURVE('',#143,#85,#238,.T.);
#118=PRESENTATION_STYLE_ASSIGNMENT((#239));
#119=ADVANCED_FACE('',(#240),#241,.F.);
#120=PRESENTATION_STYLE_ASSIGNMENT((#242));
#121=VERTEX_POINT('',#243);
#122=PRESENTATION_STYLE_ASSIGNMENT((#244));
#123=EDGE_CURVE('',#171,#143,#245,.T.);
#124=PRESENTATION_STYLE_ASSIGNMENT((#246));
#125=MANIFOLD_SOLID_BREP('1',#247);
#126=PRESENTATION_STYLE_ASSIGNMENT((#248));
#127=ADVANCED_FACE('',(#249),#250,.T.);
#128=PRESENTATION_STYLE_ASSIGNMENT((#251));
#129=ADVANCED_FACE('',(#252),#253,.T.);
#130=PRESENTATION_STYLE_ASSIGNMENT((#254));
#131=EDGE_CURVE('',#85,#157,#255,.T.);
#132=PRESENTATION_STYLE_ASSIGNMENT((#256));
#133=EDGE_CURVE('',#149,#83,#257,.T.);
#134=PRESENTATION_STYLE_ASSIGNMENT((#258));
#135=VERTEX_POINT('',#259);
#136=PRESENTATION_STYLE_ASSIGNMENT((#260));
#137=VERTEX_POINT('',#261);
#138=PRESENTATION_STYLE_ASSIGNMENT((#262));
#139=VERTEX_POINT('',#263);
#140=PRESENTATION_STYLE_ASSIGNMENT((#264));
#141=ADVANCED_FACE('',(#265),#266,.T.);
#142=PRESENTATION_STYLE_ASSIGNMENT((#267));
#143=VERTEX_POINT('',#268);
#144=PRESENTATION_STYLE_ASSIGNMENT((#269));
#145=EDGE_CURVE('',#107,#157,#270,.T.);
#146=PRESENTATION_STYLE_ASSIGNMENT((#271));
#147=EDGE_CURVE('',#171,#135,#272,.T.);
#148=PRESENTATION_STYLE_ASSIGNMENT((#273));
#149=VERTEX_POINT('',#274);
#150=PRESENTATION_STYLE_ASSIGNMENT((#275));
#151=ADVANCED_FACE('',(#276),#277,.T.);
#152=PRESENTATION_STYLE_ASSIGNMENT((#278));
#153=EDGE_CURVE('',#93,#149,#279,.T.);
#154=PRESENTATION_STYLE_ASSIGNMENT((#280));
#155=EDGE_CURVE('',#139,#115,#281,.T.);
#156=PRESENTATION_STYLE_ASSIGNMENT((#282));
#157=VERTEX_POINT('',#283);
#158=PRESENTATION_STYLE_ASSIGNMENT((#284));
#159=EDGE_CURVE('',#109,#137,#285,.T.);
#160=PRESENTATION_STYLE_ASSIGNMENT((#286));
#161=ADVANCED_FACE('',(#287),#288,.T.);
#162=PRESENTATION_STYLE_ASSIGNMENT((#289));
#163=EDGE_CURVE('',#139,#121,#290,.T.);
#164=PRESENTATION_STYLE_ASSIGNMENT((#291));
#165=ADVANCED_FACE('',(#292),#293,.T.);
#166=PRESENTATION_STYLE_ASSIGNMENT((#294));
#167=VERTEX_POINT('',#295);
#168=PRESENTATION_STYLE_ASSIGNMENT((#296));
#169=EDGE_CURVE('',#115,#167,#297,.T.);
#170=PRESENTATION_STYLE_ASSIGNMENT((#298));
#171=VERTEX_POINT('',#299);
#172=PRESENTATION_STYLE_ASSIGNMENT((#300));
#173=EDGE_CURVE('',#121,#171,#301,.T.);
#174=PRESENTATION_STYLE_ASSIGNMENT((#302));
#175=EDGE_CURVE('',#107,#109,#303,.T.);
#176=PRODUCT('1','1','PART-1-DESC',(#304));
#177=PRODUCT_DEFINITION('NONE','NONE',#305,#2);
#178=AXIS2_PLACEMENT_3D('',#306,#307,#308);
#181=LENGTH_MEASURE_WITH_UNIT(LENGTH_MEASURE(1.0),#309);
#184=DIMENSIONAL_EXPONENTS(1.0,0.0,0.0,0.0,0.0,0.0,0.0);
#186=DIMENSIONAL_EXPONENTS(0.0,0.0,0.0,0.0,0.0,0.0,0.0);
#192=SURFACE_STYLE_USAGE(.BOTH.,#310);
#193=FACE_OUTER_BOUND('',#311,.T.);
#194=CONICAL_SURFACE('',#312,1.2,0.139626340159547);
#195=CURVE_STYLE('',#313,POSITIVE_LENGTH_MEASURE(1.0E-006),#314);
#196=LINE('',#315,#316);
#197=CURVE_STYLE('',#317,POSITIVE_LENGTH_MEASURE(1.0E-006),#318);
#198=CIRCLE('',#319,0.370809075255891);
#199=CURVE_STYLE('',#320,POSITIVE_LENGTH_MEASURE(1.0E-006),#321);
#200=CIRCLE('',#322,1.2);
#201=POINT_STYLE(' ',#323,POSITIVE_LENGTH_MEASURE(1.0E-006),#324);
#202=CARTESIAN_POINT('',(1.2000000000691,16.4508090751559,-5.9));
#203=POINT_STYLE(' ',#325,POSITIVE_LENGTH_MEASURE(1.0E-006),#326);
#204=CARTESIAN_POINT('',(16.0799999999309,0.829190924844112,-5.9));
#205=CURVE_STYLE('',#327,POSITIVE_LENGTH_MEASURE(1.0E-006),#328);
#206=CIRCLE('',#329,1.2);
#207=CURVE_STYLE('',#330,POSITIVE_LENGTH_MEASURE(1.0E-006),#331);
#208=CIRCLE('',#332,0.370809075255891);
#209=POINT_STYLE(' ',#333,POSITIVE_LENGTH_MEASURE(1.0E-006),#334);
#210=CARTESIAN_POINT('',(16.08,16.4508090752559,-5.9));
#211=POINT_STYLE(' ',#335,POSITIVE_LENGTH_MEASURE(1.0E-006),#336);
#212=CARTESIAN_POINT('',(16.08,17.2799999999,0.0));
#213=SURFACE_STYLE_USAGE(.BOTH.,#337);
#214=FACE_OUTER_BOUND('',#338,.T.);
#215=CONICAL_SURFACE('',#339,1.2,0.139626340159547);
#216=SURFACE_STYLE_USAGE(.BOTH.,#340);
#217=FACE_OUTER_BOUND('',#341,.T.);
#218=PLANE('',#342);
#219=CURVE_STYLE('',#343,POSITIVE_LENGTH_MEASURE(1.0E-006),#344);
#220=LINE('',#345,#346);
#221=CURVE_STYLE('',#347,POSITIVE_LENGTH_MEASURE(1.0E-006),#348);
#222=CIRCLE('',#349,1.2);
#223=CURVE_STYLE('',#350,POSITIVE_LENGTH_MEASURE(1.0E-006),#351);
#224=CIRCLE('',#352,0.370809075255888);
#225=CURVE_STYLE('',#353,POSITIVE_LENGTH_MEASURE(1.0E-006),#354);
#226=LINE('',#355,#356);
#227=POINT_STYLE(' ',#357,POSITIVE_LENGTH_MEASURE(1.0E-006),#358);
#228=CARTESIAN_POINT('',(17.2799999999,1.2,0.0));
#229=POINT_STYLE(' ',#359,POSITIVE_LENGTH_MEASURE(1.0E-006),#360);
#230=CARTESIAN_POINT('',(17.28,16.08,0.0));
#231=CURVE_STYLE('',#361,POSITIVE_LENGTH_MEASURE(1.0E-006),#362);
#232=LINE('',#363,#364);
#233=CURVE_STYLE('',#365,POSITIVE_LENGTH_MEASURE(1.0E-006),#366);
#234=LINE('',#367,#368);
#235=POINT_STYLE(' ',#369,POSITIVE_LENGTH_MEASURE(1.0E-006),#370);
#236=CARTESIAN_POINT('',(0.829190924744112,16.08,-5.9));
#237=CURVE_STYLE('',#371,POSITIVE_LENGTH_MEASURE(1.0E-006),#372);
#238=LINE('',#373,#374);
#239=SURFACE_STYLE_USAGE(.BOTH.,#375);
#240=FACE_OUTER_BOUND('',#376,.T.);
#241=PLANE('',#377);
#242=POINT_STYLE(' ',#378,POSITIVE_LENGTH_MEASURE(1.0E-006),#379);
#243=CARTESIAN_POINT('',(0.0,1.2,0.0));
#244=CURVE_STYLE('',#380,POSITIVE_LENGTH_MEASURE(1.0E-006),#381);
#245=LINE('',#382,#383);
#246=SURFACE_STYLE_USAGE(.BOTH.,#384);
#247=CLOSED_SHELL('',(#127,#165,#75,#129,#161,#141,#95,#97,#119,#151));
#248=SURFACE_STYLE_USAGE(.BOTH.,#385);
#249=FACE_OUTER_BOUND('',#386,.T.);
#250=CONICAL_SURFACE('',#387,1.2,0.139626340159547);
#251=SURFACE_STYLE_USAGE(.BOTH.,#388);
#252=FACE_OUTER_BOUND('',#389,.T.);
#253=PLANE('',#390);
#254=CURVE_STYLE('',#391,POSITIVE_LENGTH_MEASURE(1.0E-006),#392);
#255=CIRCLE('',#393,0.370809075255888);
#256=CURVE_STYLE('',#394,POSITIVE_LENGTH_MEASURE(1.0E-006),#395);
#257=LINE('',#396,#397);
#258=POINT_STYLE(' ',#398,POSITIVE_LENGTH_MEASURE(1.0E-006),#399);
#259=CARTESIAN_POINT('',(1.2,0.829190924744112,-5.9));
#260=POINT_STYLE(' ',#400,POSITIVE_LENGTH_MEASURE(1.0E-006),#401);
#261=CARTESIAN_POINT('',(16.4508090751559,16.0799999999309,-5.9));
#262=POINT_STYLE(' ',#402,POSITIVE_LENGTH_MEASURE(1.0E-006),#403);
#263=CARTESIAN_POINT('',(9.99997862294322E-011,16.08,0.0));
#264=SURFACE_STYLE_USAGE(.BOTH.,#404);
#265=FACE_OUTER_BOUND('',#405,.T.);
#266=PLANE('',#406);
#267=POINT_STYLE(' ',#407,POSITIVE_LENGTH_MEASURE(1.0E-006),#408);
#268=CARTESIAN_POINT('',(16.08,0.0,0.0));
#269=CURVE_STYLE('',#409,POSITIVE_LENGTH_MEASURE(1.0E-006),#410);
#270=LINE('',#411,#412);
#271=CURVE_STYLE('',#413,POSITIVE_LENGTH_MEASURE(1.0E-006),#414);
#272=LINE('',#415,#416);
#273=POINT_STYLE(' ',#417,POSITIVE_LENGTH_MEASURE(1.0E-006),#418);
#274=CARTESIAN_POINT('',(1.2,17.28,0.0));
#275=SURFACE_STYLE_USAGE(.BOTH.,#419);
#276=FACE_OUTER_BOUND('',#420,.T.);
#277=PLANE('',#421);
#278=CURVE_STYLE('',#422,POSITIVE_LENGTH_MEASURE(1.0E-006),#423);
#279=LINE('',#424,#425);
#280=CURVE_STYLE('',#426,POSITIVE_LENGTH_MEASURE(1.0E-006),#427);
#281=LINE('',#428,#429);
#282=POINT_STYLE(' ',#430,POSITIVE_LENGTH_MEASURE(1.0E-006),#431);
#283=CARTESIAN_POINT('',(16.4508090752559,1.2,-5.9));
#284=CURVE_STYLE('',#432,POSITIVE_LENGTH_MEASURE(1.0E-006),#433);
#285=LINE('',#434,#435);
#286=SURFACE_STYLE_USAGE(.BOTH.,#436);
#287=FACE_OUTER_BOUND('',#437,.T.);
#288=CONICAL_SURFACE('',#438,1.2,0.139626340159547);
#289=CURVE_STYLE('',#439,POSITIVE_LENGTH_MEASURE(1.0E-006),#440);
#290=LINE('',#441,#442);
#291=SURFACE_STYLE_USAGE(.BOTH.,#443);
#292=FACE_OUTER_BOUND('',#444,.T.);
#293=PLANE('',#445);
#294=POINT_STYLE(' ',#446,POSITIVE_LENGTH_MEASURE(1.0E-006),#447);
#295=CARTESIAN_POINT('',(0.829190924844112,1.2000000000691,-5.9));
#296=CURVE_STYLE('',#448,POSITIVE_LENGTH_MEASURE(1.0E-006),#449);
#297=LINE('',#450,#451);
#298=POINT_STYLE(' ',#452,POSITIVE_LENGTH_MEASURE(1.0E-006),#453);
#299=CARTESIAN_POINT('',(1.2,0.0,0.0));
#300=CURVE_STYLE('',#454,POSITIVE_LENGTH_MEASURE(1.0E-006),#455);
#301=CIRCLE('',#456,1.2);
#302=CURVE_STYLE('',#457,POSITIVE_LENGTH_MEASURE(1.0E-006),#458);
#303=LINE('',#459,#460);
#304=PRODUCT_CONTEXT('',#61,'mechanical');
#305=PRODUCT_DEFINITION_FORMATION_WITH_SPECIFIED_SOURCE(' ','NONE',#176,.NOT_KNOWN.);
#306=CARTESIAN_POINT('',(0.0,0.0,0.0));
#307=DIRECTION('',(0.0,0.0,1.0));
#308=DIRECTION('',(1.0,0.0,0.0));
#309= (NAMED_UNIT(#184)LENGTH_UNIT()SI_UNIT(.MILLI.,.METRE.));
#310=SURFACE_SIDE_STYLE('',(#462));
#311=EDGE_LOOP('',(#463,#464,#465,#466));
#312=AXIS2_PLACEMENT_3D('',#467,#468,#469);
#313=DRAUGHTING_PRE_DEFINED_CURVE_FONT('continuous');
#314=COLOUR_RGB('',0.800000011920929,0.800000011920929,0.800000011920929);
#315=CARTESIAN_POINT('',(0.0,1.2,0.0));
#316=VECTOR('',#470,1.0);
#317=DRAUGHTING_PRE_DEFINED_CURVE_FONT('continuous');
#318=COLOUR_RGB('',0.800000011920929,0.800000011920929,0.800000011920929);
#319=AXIS2_PLACEMENT_3D('',#471,#472,#473);
#320=DRAUGHTING_PRE_DEFINED_CURVE_FONT('continuous');
#321=COLOUR_RGB('',0.800000011920929,0.800000011920929,0.800000011920929);
#322=AXIS2_PLACEMENT_3D('',#474,#475,#476);
#323=PRE_DEFINED_MARKER('');
#324=COLOUR_RGB('',0.800000011920929,0.800000011920929,0.800000011920929);
#325=PRE_DEFINED_MARKER('');
#326=COLOUR_RGB('',0.800000011920929,0.800000011920929,0.800000011920929);
#327=DRAUGHTING_PRE_DEFINED_CURVE_FONT('continuous');
#328=COLOUR_RGB('',0.800000011920929,0.800000011920929,0.800000011920929);
#329=AXIS2_PLACEMENT_3D('',#477,#478,#479);
#330=DRAUGHTING_PRE_DEFINED_CURVE_FONT('continuous');
#331=COLOUR_RGB('',0.800000011920929,0.800000011920929,0.800000011920929);
#332=AXIS2_PLACEMENT_3D('',#480,#481,#482);
#333=PRE_DEFINED_MARKER('');
#334=COLOUR_RGB('',0.800000011920929,0.800000011920929,0.800000011920929);
#335=PRE_DEFINED_MARKER('');
#336=COLOUR_RGB('',0.800000011920929,0.800000011920929,0.800000011920929);
#337=SURFACE_SIDE_STYLE('',(#483));
#338=EDGE_LOOP('',(#484,#485,#486,#487));
#339=AXIS2_PLACEMENT_3D('',#488,#489,#490);
#340=SURFACE_SIDE_STYLE('',(#491));
#341=EDGE_LOOP('',(#492,#493,#494,#495));
#342=AXIS2_PLACEMENT_3D('',#496,#497,#498);
#343=DRAUGHTING_PRE_DEFINED_CURVE_FONT('continuous');
#344=COLOUR_RGB('',0.800000011920929,0.800000011920929,0.800000011920929);
#345=CARTESIAN_POINT('',(16.08,17.2799999999,0.0));
#346=VECTOR('',#499,1.0);
#347=DRAUGHTING_PRE_DEFINED_CURVE_FONT('continuous');
#348=COLOUR_RGB('',0.800000011920929,0.800000011920929,0.800000011920929);
#349=AXIS2_PLACEMENT_3D('',#500,#501,#502);
#350=DRAUGHTING_PRE_DEFINED_CURVE_FONT('continuous');
#351=COLOUR_RGB('',0.800000011920929,0.800000011920929,0.800000011920929);
#352=AXIS2_PLACEMENT_3D('',#503,#504,#505);
#353=DRAUGHTING_PRE_DEFINED_CURVE_FONT('continuous');
#354=COLOUR_RGB('',0.800000011920929,0.800000011920929,0.800000011920929);
#355=CARTESIAN_POINT('',(1.2,0.829190924744112,-5.9));
#356=VECTOR('',#506,1.0);
#357=PRE_DEFINED_MARKER('');
#358=COLOUR_RGB('',0.800000011920929,0.800000011920929,0.800000011920929);
#359=PRE_DEFINED_MARKER('');
#360=COLOUR_RGB('',0.800000011920929,0.800000011920929,0.800000011920929);
#361=DRAUGHTING_PRE_DEFINED_CURVE_FONT('continuous');
#362=COLOUR_RGB('',0.800000011920929,0.800000011920929,0.800000011920929);
#363=CARTESIAN_POINT('',(16.08,16.4508090752559,-5.9));
#364=VECTOR('',#507,1.0);
#365=DRAUGHTING_PRE_DEFINED_CURVE_FONT('continuous');
#366=COLOUR_RGB('',0.800000011920929,0.800000011920929,0.800000011920929);
#367=CARTESIAN_POINT('',(16.4508090752559,1.2,-5.9));
#368=VECTOR('',#508,1.0);
#369=PRE_DEFINED_MARKER('');
#370=COLOUR_RGB('',0.800000011920929,0.800000011920929,0.800000011920929);
#371=DRAUGHTING_PRE_DEFINED_CURVE_FONT('continuous');
#372=COLOUR_RGB('',0.800000011920929,0.800000011920929,0.800000011920929);
#373=CARTESIAN_POINT('',(16.08,0.0,0.0));
#374=VECTOR('',#509,1.0);
#375=SURFACE_SIDE_STYLE('',(#510));
#376=EDGE_LOOP('',(#511,#512,#513,#514,#515,#516,#517,#518));
#377=AXIS2_PLACEMENT_3D('',#519,#520,#521);
#378=PRE_DEFINED_MARKER('');
#379=COLOUR_RGB('',0.800000011920929,0.800000011920929,0.800000011920929);
#380=DRAUGHTING_PRE_DEFINED_CURVE_FONT('continuous');
#381=COLOUR_RGB('',0.800000011920929,0.800000011920929,0.800000011920929);
#382=CARTESIAN_POINT('',(1.2,0.0,0.0));
#383=VECTOR('',#522,1.0);
#384=SURFACE_SIDE_STYLE('',(#523));
#385=SURFACE_SIDE_STYLE('',(#524));
#386=EDGE_LOOP('',(#525,#526,#527,#528));
#387=AXIS2_PLACEMENT_3D('',#529,#530,#531);
#388=SURFACE_SIDE_STYLE('',(#532));
#389=EDGE_LOOP('',(#533,#534,#535,#536));
#390=AXIS2_PLACEMENT_3D('',#537,#538,#539);
#391=DRAUGHTING_PRE_DEFINED_CURVE_FONT('continuous');
#392=COLOUR_RGB('',0.800000011920929,0.800000011920929,0.800000011920929);
#393=AXIS2_PLACEMENT_3D('',#540,#541,#542);
#394=DRAUGHTING_PRE_DEFINED_CURVE_FONT('continuous');
#395=COLOUR_RGB('',0.800000011920929,0.800000011920929,0.800000011920929);
#396=CARTESIAN_POINT('',(1.2,17.28,0.0));
#397=VECTOR('',#543,1.0);
#398=PRE_DEFINED_MARKER('');
#399=COLOUR_RGB('',0.800000011920929,0.800000011920929,0.800000011920929);
#400=PRE_DEFINED_MARKER('');
#401=COLOUR_RGB('',0.800000011920929,0.800000011920929,0.800000011920929);
#402=PRE_DEFINED_MARKER('');
#403=COLOUR_RGB('',0.800000011920929,0.800000011920929,0.800000011920929);
#404=SURFACE_SIDE_STYLE('',(#544));
#405=EDGE_LOOP('',(#545,#546,#547,#548));
#406=AXIS2_PLACEMENT_3D('',#549,#550,#551);
#407=PRE_DEFINED_MARKER('');
#408=COLOUR_RGB('',0.800000011920929,0.800000011920929,0.800000011920929);
#409=DRAUGHTING_PRE_DEFINED_CURVE_FONT('continuous');
#410=COLOUR_RGB('',0.800000011920929,0.800000011920929,0.800000011920929);
#411=CARTESIAN_POINT('',(17.2799999999,1.2,0.0));
#412=VECTOR('',#552,1.0);
#413=DRAUGHTING_PRE_DEFINED_CURVE_FONT('continuous');
#414=COLOUR_RGB('',0.800000011920929,0.800000011920929,0.800000011920929);
#415=CARTESIAN_POINT('',(1.2,0.0,0.0));
#416=VECTOR('',#553,1.0);
#417=PRE_DEFINED_MARKER('');
#418=COLOUR_RGB('',0.800000011920929,0.800000011920929,0.800000011920929);
#419=SURFACE_SIDE_STYLE('',(#554));
#420=EDGE_LOOP('',(#555,#556,#557,#558,#559,#560,#561,#562));
#421=AXIS2_PLACEMENT_3D('',#563,#564,#565);
#422=DRAUGHTING_PRE_DEFINED_CURVE_FONT('continuous');
#423=COLOUR_RGB('',0.800000011920929,0.800000011920929,0.800000011920929);
#424=CARTESIAN_POINT('',(16.08,17.28,0.0));
#425=VECTOR('',#566,1.0);
#426=DRAUGHTING_PRE_DEFINED_CURVE_FONT('continuous');
#427=COLOUR_RGB('',0.800000011920929,0.800000011920929,0.800000011920929);
#428=CARTESIAN_POINT('',(9.99997862294322E-011,16.08,0.0));
#429=VECTOR('',#567,1.0);
#430=PRE_DEFINED_MARKER('');
#431=COLOUR_RGB('',0.800000011920929,0.800000011920929,0.800000011920929);
#432=DRAUGHTING_PRE_DEFINED_CURVE_FONT('continuous');
#433=COLOUR_RGB('',0.800000011920929,0.800000011920929,0.800000011920929);
#434=CARTESIAN_POINT('',(17.28,16.08,0.0));
#435=VECTOR('',#568,1.0);
#436=SURFACE_SIDE_STYLE('',(#569));
#437=EDGE_LOOP('',(#570,#571,#572,#573));
#438=AXIS2_PLACEMENT_3D('',#574,#575,#576);
#439=DRAUGHTING_PRE_DEFINED_CURVE_FONT('continuous');
#440=COLOUR_RGB('',0.800000011920929,0.800000011920929,0.800000011920929);
#441=CARTESIAN_POINT('',(0.0,16.08,0.0));
#442=VECTOR('',#577,1.0);
#443=SURFACE_SIDE_STYLE('',(#578));
#444=EDGE_LOOP('',(#579,#580,#581,#582));
#445=AXIS2_PLACEMENT_3D('',#583,#584,#585);
#446=PRE_DEFINED_MARKER('');
#447=COLOUR_RGB('',0.800000011920929,0.800000011920929,0.800000011920929);
#448=DRAUGHTING_PRE_DEFINED_CURVE_FONT('continuous');
#449=COLOUR_RGB('',0.800000011920929,0.800000011920929,0.800000011920929);
#450=CARTESIAN_POINT('',(0.829190924744112,16.08,-5.9));
#451=VECTOR('',#586,1.0);
#452=PRE_DEFINED_MARKER('');
#453=COLOUR_RGB('',0.800000011920929,0.800000011920929,0.800000011920929);
#454=DRAUGHTING_PRE_DEFINED_CURVE_FONT('continuous');
#455=COLOUR_RGB('',0.800000011920929,0.800000011920929,0.800000011920929);
#456=AXIS2_PLACEMENT_3D('',#587,#588,#589);
#457=DRAUGHTING_PRE_DEFINED_CURVE_FONT('continuous');
#458=COLOUR_RGB('',0.800000011920929,0.800000011920929,0.800000011920929);
#459=CARTESIAN_POINT('',(17.28,1.2,0.0));
#460=VECTOR('',#590,1.0);
#462=SURFACE_STYLE_FILL_AREA(#591);
#463=ORIENTED_EDGE('',*,*,#89,.T.);
#464=ORIENTED_EDGE('',*,*,#99,.F.);
#465=ORIENTED_EDGE('',*,*,#87,.F.);
#466=ORIENTED_EDGE('',*,*,#159,.T.);
#467=CARTESIAN_POINT('',(16.0799999999,16.0799999999,0.0));
#468=DIRECTION('',(-0.0,-0.0,1.0));
#469=DIRECTION('',(1.0,8.33348205257302E-011,0.0));
#470=DIRECTION('',(0.139173100976525,1.15978207146307E-011,-0.990268068739257));
#471=CARTESIAN_POINT('',(1.2000000001,16.0799999999,-5.9));
#472=DIRECTION('',(0.0,0.0,1.0));
#473=DIRECTION('',(-8.33357457115841E-011,1.0,0.0));
#474=CARTESIAN_POINT('',(16.0799999999,1.2000000001,0.0));
#475=DIRECTION('',(0.0,0.0,1.0));
#476=DIRECTION('',(8.33348205257304E-011,-1.0,0.0));
#477=CARTESIAN_POINT('',(16.0799999999,16.0799999999,0.0));
#478=DIRECTION('',(0.0,-0.0,1.0));
#479=DIRECTION('',(1.0,8.33348205257302E-011,0.0));
#480=CARTESIAN_POINT('',(16.0799999999,16.0799999999,-5.9));
#481=DIRECTION('',(0.0,-0.0,1.0));
#482=DIRECTION('',(1.0,8.33348205257302E-011,0.0));
#483=SURFACE_STYLE_FILL_AREA(#592);
#484=ORIENTED_EDGE('',*,*,#103,.T.);
#485=ORIENTED_EDGE('',*,*,#147,.F.);
#486=ORIENTED_EDGE('',*,*,#173,.F.);
#487=ORIENTED_EDGE('',*,*,#77,.T.);
#488=CARTESIAN_POINT('',(1.2000000001,1.2000000001,0.0));
#489=DIRECTION('',(0.0,-0.0,1.0));
#490=DIRECTION('',(-1.0,-8.33322300053396E-011,0.0));
#491=SURFACE_STYLE_FILL_AREA(#593);
#492=ORIENTED_EDGE('',*,*,#105,.T.);
#493=ORIENTED_EDGE('',*,*,#117,.F.);
#494=ORIENTED_EDGE('',*,*,#123,.F.);
#495=ORIENTED_EDGE('',*,*,#147,.T.);
#496=CARTESIAN_POINT('',(1.2,0.0,0.0));
#497=DIRECTION('',(-0.0,-0.99026806874157,-0.139173100960066));
#498=DIRECTION('',(-1.0,0.0,0.0));
#499=DIRECTION('',(0.0,-0.139173100943607,-0.990268068743884));
#500=CARTESIAN_POINT('',(1.2000000001,16.0799999999,0.0));
#501=DIRECTION('',(0.0,0.0,1.0));
#502=DIRECTION('',(-8.33357457115841E-011,1.0,0.0));
#503=CARTESIAN_POINT('',(1.2000000001,1.2000000001,-5.9));
#504=DIRECTION('',(0.0,0.0,1.0));
#505=DIRECTION('',(-1.0,-8.33322300053397E-011,0.0));
#506=DIRECTION('',(1.0,0.0,0.0));
#507=DIRECTION('',(-1.0,0.0,0.0));
#508=DIRECTION('',(0.0,1.0,0.0));
#509=DIRECTION('',(-1.15979325198927E-011,0.139173100976525,-0.990268068739257));
#510=SURFACE_STYLE_FILL_AREA(#594);
#511=ORIENTED_EDGE('',*,*,#131,.F.);
#512=ORIENTED_EDGE('',*,*,#105,.F.);
#513=ORIENTED_EDGE('',*,*,#103,.F.);
#514=ORIENTED_EDGE('',*,*,#169,.F.);
#515=ORIENTED_EDGE('',*,*,#79,.F.);
#516=ORIENTED_EDGE('',*,*,#111,.F.);
#517=ORIENTED_EDGE('',*,*,#89,.F.);
#518=ORIENTED_EDGE('',*,*,#113,.F.);
#519=CARTESIAN_POINT('',(8.64,8.64,-5.9));
#520=DIRECTION('',(0.0,0.0,1.0));
#521=DIRECTION('',(1.0,0.0,0.0));
#522=DIRECTION('',(1.0,0.0,0.0));
#523=SURFACE_STYLE_FILL_AREA(#595);
#524=SURFACE_STYLE_FILL_AREA(#596);
#525=ORIENTED_EDGE('',*,*,#131,.T.);
#526=ORIENTED_EDGE('',*,*,#145,.F.);
#527=ORIENTED_EDGE('',*,*,#81,.F.);
#528=ORIENTED_EDGE('',*,*,#117,.T.);
#529=CARTESIAN_POINT('',(16.0799999999,1.2000000001,0.0));
#530=DIRECTION('',(-0.0,-0.0,1.0));
#531=DIRECTION('',(8.33348205257304E-011,-1.0,0.0));
#532=SURFACE_STYLE_FILL_AREA(#597);
#533=ORIENTED_EDGE('',*,*,#111,.T.);
#534=ORIENTED_EDGE('',*,*,#133,.F.);
#535=ORIENTED_EDGE('',*,*,#153,.F.);
#536=ORIENTED_EDGE('',*,*,#99,.T.);
#537=CARTESIAN_POINT('',(16.08,17.2799999999,0.0));
#538=DIRECTION('',(0.0,0.990268068743884,-0.139173100943607));
#539=DIRECTION('',(1.0,-0.0,0.0));
#540=CARTESIAN_POINT('',(16.0799999999,1.2000000001,-5.9));
#541=DIRECTION('',(0.0,0.0,1.0));
#542=DIRECTION('',(8.33348205257304E-011,-1.0,0.0));
#543=DIRECTION('',(1.15981188619962E-011,-0.139173100976525,-0.990268068739257));
#544=SURFACE_STYLE_FILL_AREA(#598);
#545=ORIENTED_EDGE('',*,*,#169,.T.);
#546=ORIENTED_EDGE('',*,*,#77,.F.);
#547=ORIENTED_EDGE('',*,*,#163,.F.);
#548=ORIENTED_EDGE('',*,*,#155,.T.);
#549=CARTESIAN_POINT('',(9.99997862294322E-011,16.08,0.0));
#550=DIRECTION('',(-0.990268068743884,0.0,-0.139173100943607));
#551=DIRECTION('',(0.0,1.0,0.0));
#552=DIRECTION('',(-0.139173100943606,0.0,-0.990268068743884));
#553=DIRECTION('',(0.0,0.139173100960066,-0.99026806874157));
#554=SURFACE_STYLE_FILL_AREA(#599);
#555=ORIENTED_EDGE('',*,*,#123,.T.);
#556=ORIENTED_EDGE('',*,*,#81,.T.);
#557=ORIENTED_EDGE('',*,*,#175,.T.);
#558=ORIENTED_EDGE('',*,*,#87,.T.);
#559=ORIENTED_EDGE('',*,*,#153,.T.);
#560=ORIENTED_EDGE('',*,*,#101,.T.);
#561=ORIENTED_EDGE('',*,*,#163,.T.);
#562=ORIENTED_EDGE('',*,*,#173,.T.);
#563=CARTESIAN_POINT('',(8.64,8.64,0.0));
#564=DIRECTION('',(0.0,0.0,1.0));
#565=DIRECTION('',(1.0,0.0,0.0));
#566=DIRECTION('',(-1.0,0.0,0.0));
#567=DIRECTION('',(0.139173100943607,0.0,-0.990268068743884));
#568=DIRECTION('',(-0.139173100976525,-1.15979325198927E-011,-0.990268068739257));
#569=SURFACE_STYLE_FILL_AREA(#600);
#570=ORIENTED_EDGE('',*,*,#79,.T.);
#571=ORIENTED_EDGE('',*,*,#155,.F.);
#572=ORIENTED_EDGE('',*,*,#101,.F.);
#573=ORIENTED_EDGE('',*,*,#133,.T.);
#574=CARTESIAN_POINT('',(1.2000000001,16.0799999999,0.0));
#575=DIRECTION('',(-0.0,-0.0,1.0));
#576=DIRECTION('',(-8.33357457115841E-011,1.0,0.0));
#577=DIRECTION('',(0.0,-1.0,0.0));
#578=SURFACE_STYLE_FILL_AREA(#601);
#579=ORIENTED_EDGE('',*,*,#113,.T.);
#580=ORIENTED_EDGE('',*,*,#159,.F.);
#581=ORIENTED_EDGE('',*,*,#175,.F.);
#582=ORIENTED_EDGE('',*,*,#145,.T.);
#583=CARTESIAN_POINT('',(17.2799999999,1.2,0.0));
#584=DIRECTION('',(0.990268068743884,-0.0,-0.139173100943606));
#585=DIRECTION('',(-0.0,-1.0,0.0));
#586=DIRECTION('',(0.0,-1.0,0.0));
#587=CARTESIAN_POINT('',(1.2000000001,1.2000000001,0.0));
#588=DIRECTION('',(0.0,0.0,1.0));
#589=DIRECTION('',(-1.0,-8.33322300053396E-011,0.0));
#590=DIRECTION('',(0.0,1.0,0.0));
#591=FILL_AREA_STYLE('',(#602));
#592=FILL_AREA_STYLE('',(#603));
#593=FILL_AREA_STYLE('',(#604));
#594=FILL_AREA_STYLE('',(#605));
#595=FILL_AREA_STYLE('',(#606));
#596=FILL_AREA_STYLE('',(#607));
#597=FILL_AREA_STYLE('',(#608));
#598=FILL_AREA_STYLE('',(#609));
#599=FILL_AREA_STYLE('',(#610));
#600=FILL_AREA_STYLE('',(#611));
#601=FILL_AREA_STYLE('',(#612));
#602=FILL_AREA_STYLE_COLOUR('',#613);
#603=FILL_AREA_STYLE_COLOUR('',#614);
#604=FILL_AREA_STYLE_COLOUR('',#615);
#605=FILL_AREA_STYLE_COLOUR('',#616);
#606=FILL_AREA_STYLE_COLOUR('',#617);
#607=FILL_AREA_STYLE_COLOUR('',#618);
#608=FILL_AREA_STYLE_COLOUR('',#619);
#609=FILL_AREA_STYLE_COLOUR('',#620);
#610=FILL_AREA_STYLE_COLOUR('',#621);
#611=FILL_AREA_STYLE_COLOUR('',#622);
#612=FILL_AREA_STYLE_COLOUR('',#623);
#613=COLOUR_RGB('',0.800000011920929,0.800000011920929,0.800000011920929);
#614=COLOUR_RGB('',0.800000011920929,0.800000011920929,0.800000011920929);
#615=COLOUR_RGB('',0.800000011920929,0.800000011920929,0.800000011920929);
#616=COLOUR_RGB('',0.800000011920929,0.800000011920929,0.800000011920929);
#617=COLOUR_RGB('',0.800000011920929,0.800000011920929,0.800000011920929);
#618=COLOUR_RGB('',0.800000011920929,0.800000011920929,0.800000011920929);
#619=COLOUR_RGB('',0.800000011920929,0.800000011920929,0.800000011920929);
#620=COLOUR_RGB('',0.800000011920929,0.800000011920929,0.800000011920929);
#621=COLOUR_RGB('',0.800000011920929,0.800000011920929,0.800000011920929);
#622=COLOUR_RGB('',0.800000011920929,0.800000011920929,0.800000011920929);
#623=COLOUR_RGB('',0.800000011920929,0.800000011920929,0.800000011920929);
#624=AXIS2_PLACEMENT_3D('PCS',#625,#626,#627);
#625=CARTESIAN_POINT('',(0.0,0.0,0.0));
#626=DIRECTION('',(0.0,0.0,1.0));
#627=DIRECTION('',(1.0,0.0,0.0));
#628=AXIS2_PLACEMENT_3D('MCS',#629,#630,#631);
#629=CARTESIAN_POINT('',(8.64,8.64,0.0));
#630=DIRECTION('',(0.0,0.0,1.0));
#631=DIRECTION('',(1.0,0.0,0.0));
#632=CONSTRUCTIVE_GEOMETRY_REPRESENTATION_RELATIONSHIP('coordinate systems',$,#65,#633);
#633=CONSTRUCTIVE_GEOMETRY_REPRESENTATION('coordinate systems',(#624,#628),#6);
ENDSEC;
END-ISO-10303-21;
