ISO-10303-21;
HEADER;
FILE_DESCRIPTION(('no description'),'unknown implementation level');
FILE_NAME('solidEQR7hU5gcTFgsyHkCEZrG4punPA_1.STP','  ',('CIMSOURCE GmbH'),('CADClick - KiM GmbH - www.kimweb.de'),'unknown preprocess','ACIS','unknown authorization');
FILE_SCHEMA(('automotive_design'));
ENDSEC;
DATA;
#1=MECHANICAL_DESIGN_GEOMETRIC_PRESENTATION_REPRESENTATION(' ',(#10,#11,#12,#13,#14,#15,#16,#17,#18,#19,#20,#21,#22,#23,#24,#25,#26,#27,#28,#29,#30,#31,#32,#33,#34,#35,#36,#37,#38,#39,#40,#41,#42,#43,#44,#45,#46,#47,#48,#49,#50,#51,#52,#53,#54,#55,#56,#57,#58,#59,#60),#6);
#2=PRODUCT_DEFINITION_CONTEXT('',#61,'design');
#3=APPLICATION_PROTOCOL_DEFINITION('INTERNATIONAL STANDARD','automotive_design',1994,#61);
#4=PRODUCT_CATEGORY_RELATIONSHIP('NONE','NONE',#62,#63);
#5=SHAPE_DEFINITION_REPRESENTATION(#64,#65);
#6= (GEOMETRIC_REPRESENTATION_CONTEXT(3)GLOBAL_UNCERTAINTY_ASSIGNED_CONTEXT((#68))GLOBAL_UNIT_ASSIGNED_CONTEXT((#70,#71,#72))REPRESENTATION_CONTEXT('NONE','WORKSPACE'));
#10=STYLED_ITEM('',(#74),#75);
#11=STYLED_ITEM('',(#76),#77);
#12=STYLED_ITEM('',(#78),#79);
#13=STYLED_ITEM('',(#80),#81);
#14=STYLED_ITEM('',(#82),#83);
#15=STYLED_ITEM('',(#84),#85);
#16=STYLED_ITEM('',(#86),#87);
#17=STYLED_ITEM('',(#88),#89);
#18=STYLED_ITEM('',(#90),#91);
#19=STYLED_ITEM('',(#92),#93);
#20=STYLED_ITEM('',(#94),#95);
#21=STYLED_ITEM('',(#96),#97);
#22=STYLED_ITEM('',(#98),#99);
#23=STYLED_ITEM('',(#100),#101);
#24=STYLED_ITEM('',(#102),#103);
#25=STYLED_ITEM('',(#104),#105);
#26=STYLED_ITEM('',(#106),#107);
#27=STYLED_ITEM('',(#108),#109);
#28=STYLED_ITEM('',(#110),#111);
#29=STYLED_ITEM('',(#112),#113);
#30=STYLED_ITEM('',(#114),#115);
#31=STYLED_ITEM('',(#116),#117);
#32=STYLED_ITEM('',(#118),#119);
#33=STYLED_ITEM('',(#120),#121);
#34=STYLED_ITEM('',(#122),#123);
#35=STYLED_ITEM('',(#124),#125);
#36=STYLED_ITEM('',(#126),#127);
#37=STYLED_ITEM('',(#128),#129);
#38=STYLED_ITEM('',(#130),#131);
#39=STYLED_ITEM('',(#132),#133);
#40=STYLED_ITEM('',(#134),#135);
#41=STYLED_ITEM('',(#136),#137);
#42=STYLED_ITEM('',(#138),#139);
#43=STYLED_ITEM('',(#140),#141);
#44=STYLED_ITEM('',(#142),#143);
#45=STYLED_ITEM('',(#144),#145);
#46=STYLED_ITEM('',(#146),#147);
#47=STYLED_ITEM('',(#148),#149);
#48=STYLED_ITEM('',(#150),#151);
#49=STYLED_ITEM('',(#152),#153);
#50=STYLED_ITEM('',(#154),#155);
#51=STYLED_ITEM('',(#156),#157);
#52=STYLED_ITEM('',(#158),#159);
#53=STYLED_ITEM('',(#160),#161);
#54=STYLED_ITEM('',(#162),#163);
#55=STYLED_ITEM('',(#164),#165);
#56=STYLED_ITEM('',(#166),#167);
#57=STYLED_ITEM('',(#168),#169);
#58=STYLED_ITEM('',(#170),#171);
#59=STYLED_ITEM('',(#172),#173);
#60=STYLED_ITEM('',(#174),#175);
#61=APPLICATION_CONTEXT(' ');
#62=PRODUCT_CATEGORY('part','NONE');
#63=PRODUCT_RELATED_PRODUCT_CATEGORY('detail',' ',(#176));
#64=PRODUCT_DEFINITION_SHAPE('NONE','NONE',#177);
#65=ADVANCED_BREP_SHAPE_REPRESENTATION('1',(#83,#178),#6);
#68=UNCERTAINTY_MEASURE_WITH_UNIT(LENGTH_MEASURE(1.0E-006),#70,'','');
#70= (CONVERSION_BASED_UNIT('MILLIMETRE',#181)LENGTH_UNIT()NAMED_UNIT(#184));
#71= (NAMED_UNIT(#186)PLANE_ANGLE_UNIT()SI_UNIT($,.RADIAN.));
#72= (NAMED_UNIT(#186)SOLID_ANGLE_UNIT()SI_UNIT($,.STERADIAN.));
#74=PRESENTATION_STYLE_ASSIGNMENT((#192));
#75=ADVANCED_FACE('',(#193),#194,.T.);
#76=PRESENTATION_STYLE_ASSIGNMENT((#195));
#77=EDGE_CURVE('',#115,#149,#196,.T.);
#78=PRESENTATION_STYLE_ASSIGNMENT((#197));
#79=EDGE_CURVE('',#115,#143,#198,.T.);
#80=PRESENTATION_STYLE_ASSIGNMENT((#199));
#81=ADVANCED_FACE('',(#200),#201,.T.);
#82=PRESENTATION_STYLE_ASSIGNMENT((#202));
#83=MANIFOLD_SOLID_BREP('1',#203);
#84=PRESENTATION_STYLE_ASSIGNMENT((#204));
#85=EDGE_CURVE('',#121,#131,#205,.T.);
#86=PRESENTATION_STYLE_ASSIGNMENT((#206));
#87=EDGE_CURVE('',#131,#141,#207,.T.);
#88=PRESENTATION_STYLE_ASSIGNMENT((#208));
#89=ADVANCED_FACE('',(#209),#210,.T.);
#90=PRESENTATION_STYLE_ASSIGNMENT((#211));
#91=ADVANCED_FACE('',(#212),#213,.T.);
#92=PRESENTATION_STYLE_ASSIGNMENT((#214));
#93=EDGE_CURVE('',#173,#131,#215,.T.);
#94=PRESENTATION_STYLE_ASSIGNMENT((#216));
#95=EDGE_CURVE('',#129,#137,#217,.T.);
#96=PRESENTATION_STYLE_ASSIGNMENT((#218));
#97=EDGE_CURVE('',#133,#175,#219,.T.);
#98=PRESENTATION_STYLE_ASSIGNMENT((#220));
#99=ADVANCED_FACE('',(#221),#222,.F.);
#100=PRESENTATION_STYLE_ASSIGNMENT((#223));
#101=EDGE_CURVE('',#127,#137,#224,.T.);
#102=PRESENTATION_STYLE_ASSIGNMENT((#225));
#103=EDGE_CURVE('',#151,#129,#226,.T.);
#104=PRESENTATION_STYLE_ASSIGNMENT((#227));
#105=EDGE_CURVE('',#143,#173,#228,.T.);
#106=PRESENTATION_STYLE_ASSIGNMENT((#229));
#107=EDGE_CURVE('',#149,#173,#230,.T.);
#108=PRESENTATION_STYLE_ASSIGNMENT((#231));
#109=EDGE_CURVE('',#149,#121,#232,.T.);
#110=PRESENTATION_STYLE_ASSIGNMENT((#233));
#111=EDGE_CURVE('',#175,#155,#234,.T.);
#112=PRESENTATION_STYLE_ASSIGNMENT((#235));
#113=EDGE_CURVE('',#155,#117,#236,.T.);
#114=PRESENTATION_STYLE_ASSIGNMENT((#237));
#115=VERTEX_POINT('',#238);
#116=PRESENTATION_STYLE_ASSIGNMENT((#239));
#117=VERTEX_POINT('',#240);
#118=PRESENTATION_STYLE_ASSIGNMENT((#241));
#119=EDGE_CURVE('',#129,#115,#242,.T.);
#120=PRESENTATION_STYLE_ASSIGNMENT((#243));
#121=VERTEX_POINT('',#244);
#122=PRESENTATION_STYLE_ASSIGNMENT((#245));
#123=ADVANCED_FACE('',(#246),#247,.T.);
#124=PRESENTATION_STYLE_ASSIGNMENT((#248));
#125=EDGE_CURVE('',#151,#127,#249,.T.);
#126=PRESENTATION_STYLE_ASSIGNMENT((#250));
#127=VERTEX_POINT('',#251);
#128=PRESENTATION_STYLE_ASSIGNMENT((#252));
#129=VERTEX_POINT('',#253);
#130=PRESENTATION_STYLE_ASSIGNMENT((#254));
#131=VERTEX_POINT('',#255);
#132=PRESENTATION_STYLE_ASSIGNMENT((#256));
#133=VERTEX_POINT('',#257);
#134=PRESENTATION_STYLE_ASSIGNMENT((#258));
#135=EDGE_CURVE('',#175,#157,#259,.T.);
#136=PRESENTATION_STYLE_ASSIGNMENT((#260));
#137=VERTEX_POINT('',#261);
#138=PRESENTATION_STYLE_ASSIGNMENT((#262));
#139=EDGE_CURVE('',#157,#151,#263,.T.);
#140=PRESENTATION_STYLE_ASSIGNMENT((#264));
#141=VERTEX_POINT('',#265);
#142=PRESENTATION_STYLE_ASSIGNMENT((#266));
#143=VERTEX_POINT('',#267);
#144=PRESENTATION_STYLE_ASSIGNMENT((#268));
#145=ADVANCED_FACE('',(#269),#270,.T.);
#146=PRESENTATION_STYLE_ASSIGNMENT((#271));
#147=ADVANCED_FACE('',(#272),#273,.T.);
#148=PRESENTATION_STYLE_ASSIGNMENT((#274));
#149=VERTEX_POINT('',#275);
#150=PRESENTATION_STYLE_ASSIGNMENT((#276));
#151=VERTEX_POINT('',#277);
#152=PRESENTATION_STYLE_ASSIGNMENT((#278));
#153=ADVANCED_FACE('',(#279),#280,.T.);
#154=PRESENTATION_STYLE_ASSIGNMENT((#281));
#155=VERTEX_POINT('',#282);
#156=PRESENTATION_STYLE_ASSIGNMENT((#283));
#157=VERTEX_POINT('',#284);
#158=PRESENTATION_STYLE_ASSIGNMENT((#285));
#159=EDGE_CURVE('',#133,#141,#286,.T.);
#160=PRESENTATION_STYLE_ASSIGNMENT((#287));
#161=EDGE_CURVE('',#117,#127,#288,.T.);
#162=PRESENTATION_STYLE_ASSIGNMENT((#289));
#163=EDGE_CURVE('',#157,#117,#290,.T.);
#164=PRESENTATION_STYLE_ASSIGNMENT((#291));
#165=EDGE_CURVE('',#141,#155,#292,.T.);
#166=PRESENTATION_STYLE_ASSIGNMENT((#293));
#167=EDGE_CURVE('',#121,#133,#294,.T.);
#168=PRESENTATION_STYLE_ASSIGNMENT((#295));
#169=ADVANCED_FACE('',(#296),#297,.T.);
#170=PRESENTATION_STYLE_ASSIGNMENT((#298));
#171=EDGE_CURVE('',#137,#143,#299,.T.);
#172=PRESENTATION_STYLE_ASSIGNMENT((#300));
#173=VERTEX_POINT('',#301);
#174=PRESENTATION_STYLE_ASSIGNMENT((#302));
#175=VERTEX_POINT('',#303);
#176=PRODUCT('1','1','PART-1-DESC',(#304));
#177=PRODUCT_DEFINITION('NONE','NONE',#305,#2);
#178=AXIS2_PLACEMENT_3D('',#306,#307,#308);
#181=LENGTH_MEASURE_WITH_UNIT(LENGTH_MEASURE(1.0),#309);
#184=DIMENSIONAL_EXPONENTS(1.0,0.0,0.0,0.0,0.0,0.0,0.0);
#186=DIMENSIONAL_EXPONENTS(0.0,0.0,0.0,0.0,0.0,0.0,0.0);
#192=SURFACE_STYLE_USAGE(.BOTH.,#310);
#193=FACE_OUTER_BOUND('',#311,.T.);
#194=PLANE('',#312);
#195=CURVE_STYLE('',#313,POSITIVE_LENGTH_MEASURE(1.0E-006),#314);
#196=CIRCLE('',#315,0.800000000000006);
#197=CURVE_STYLE('',#316,POSITIVE_LENGTH_MEASURE(1.0E-006),#317);
#198=LINE('',#318,#319);
#199=SURFACE_STYLE_USAGE(.BOTH.,#320);
#200=FACE_OUTER_BOUND('',#321,.T.);
#201=PLANE('',#322);
#202=SURFACE_STYLE_USAGE(.BOTH.,#323);
#203=CLOSED_SHELL('',(#153,#147,#145,#75,#89,#169,#123,#91,#99,#81));
#204=CURVE_STYLE('',#324,POSITIVE_LENGTH_MEASURE(1.0E-006),#325);
#205=LINE('',#326,#327);
#206=CURVE_STYLE('',#328,POSITIVE_LENGTH_MEASURE(1.0E-006),#329);
#207=CIRCLE('',#330,0.153512160369002);
#208=SURFACE_STYLE_USAGE(.BOTH.,#331);
#209=FACE_OUTER_BOUND('',#332,.T.);
#210=CONICAL_SURFACE('',#333,0.800000000000004,0.139626340159547);
#211=SURFACE_STYLE_USAGE(.BOTH.,#334);
#212=FACE_OUTER_BOUND('',#335,.T.);
#213=PLANE('',#336);
#214=CURVE_STYLE('',#337,POSITIVE_LENGTH_MEASURE(1.0E-006),#338);
#215=LINE('',#339,#340);
#216=CURVE_STYLE('',#341,POSITIVE_LENGTH_MEASURE(1.0E-006),#342);
#217=LINE('',#343,#344);
#218=CURVE_STYLE('',#345,POSITIVE_LENGTH_MEASURE(1.0E-006),#346);
#219=LINE('',#347,#348);
#220=SURFACE_STYLE_USAGE(.BOTH.,#349);
#221=FACE_OUTER_BOUND('',#350,.T.);
#222=PLANE('',#351);
#223=CURVE_STYLE('',#352,POSITIVE_LENGTH_MEASURE(1.0E-006),#353);
#224=CIRCLE('',#354,0.153512160368998);
#225=CURVE_STYLE('',#355,POSITIVE_LENGTH_MEASURE(1.0E-006),#356);
#226=CIRCLE('',#357,0.8);
#227=CURVE_STYLE('',#358,POSITIVE_LENGTH_MEASURE(1.0E-006),#359);
#228=CIRCLE('',#360,0.153512160369004);
#229=CURVE_STYLE('',#361,POSITIVE_LENGTH_MEASURE(1.0E-006),#362);
#230=LINE('',#363,#364);
#231=CURVE_STYLE('',#365,POSITIVE_LENGTH_MEASURE(1.0E-006),#366);
#232=LINE('',#367,#368);
#233=CURVE_STYLE('',#369,POSITIVE_LENGTH_MEASURE(1.0E-006),#370);
#234=LINE('',#371,#372);
#235=CURVE_STYLE('',#373,POSITIVE_LENGTH_MEASURE(1.0E-006),#374);
#236=CIRCLE('',#375,0.153512160368997);
#237=POINT_STYLE(' ',#376,POSITIVE_LENGTH_MEASURE(1.0E-006),#377);
#238=CARTESIAN_POINT('',(10.89,10.09,0.0));
#239=POINT_STYLE(' ',#378,POSITIVE_LENGTH_MEASURE(1.0E-006),#379);
#240=CARTESIAN_POINT('',(0.8,0.646487839631003,-4.6));
#241=CURVE_STYLE('',#380,POSITIVE_LENGTH_MEASURE(1.0E-006),#381);
#242=LINE('',#382,#383);
#243=POINT_STYLE(' ',#384,POSITIVE_LENGTH_MEASURE(1.0E-006),#385);
#244=CARTESIAN_POINT('',(0.800000000000001,10.89,0.0));
#245=SURFACE_STYLE_USAGE(.BOTH.,#386);
#246=FACE_OUTER_BOUND('',#387,.T.);
#247=CONICAL_SURFACE('',#388,0.8,0.139626340159547);
#248=CURVE_STYLE('',#389,POSITIVE_LENGTH_MEASURE(1.0E-006),#390);
#249=LINE('',#391,#392);
#250=POINT_STYLE(' ',#393,POSITIVE_LENGTH_MEASURE(1.0E-006),#394);
#251=CARTESIAN_POINT('',(10.0899999999192,0.646487839731003,-4.6));
#252=POINT_STYLE(' ',#395,POSITIVE_LENGTH_MEASURE(1.0E-006),#396);
#253=CARTESIAN_POINT('',(10.8899999999,0.8,0.0));
#254=POINT_STYLE(' ',#397,POSITIVE_LENGTH_MEASURE(1.0E-006),#398);
#255=CARTESIAN_POINT('',(0.800000000080815,10.243512160269,-4.6));
#256=POINT_STYLE(' ',#399,POSITIVE_LENGTH_MEASURE(1.0E-006),#400);
#257=CARTESIAN_POINT('',(1.00000341340944E-010,10.09,0.0));
#258=CURVE_STYLE('',#401,POSITIVE_LENGTH_MEASURE(1.0E-006),#402);
#259=CIRCLE('',#403,0.8);
#260=POINT_STYLE(' ',#404,POSITIVE_LENGTH_MEASURE(1.0E-006),#405);
#261=CARTESIAN_POINT('',(10.243512160369,0.8,-4.6));
#262=CURVE_STYLE('',#406,POSITIVE_LENGTH_MEASURE(1.0E-006),#407);
#263=LINE('',#408,#409);
#264=POINT_STYLE(' ',#410,POSITIVE_LENGTH_MEASURE(1.0E-006),#411);
#265=CARTESIAN_POINT('',(0.646487839631003,10.09,-4.6));
#266=POINT_STYLE(' ',#412,POSITIVE_LENGTH_MEASURE(1.0E-006),#413);
#267=CARTESIAN_POINT('',(10.243512160269,10.0899999999192,-4.6));
#268=SURFACE_STYLE_USAGE(.BOTH.,#414);
#269=FACE_OUTER_BOUND('',#415,.T.);
#270=CONICAL_SURFACE('',#416,0.800000000000006,0.139626340159547);
#271=SURFACE_STYLE_USAGE(.BOTH.,#417);
#272=FACE_OUTER_BOUND('',#418,.T.);
#273=PLANE('',#419);
#274=POINT_STYLE(' ',#420,POSITIVE_LENGTH_MEASURE(1.0E-006),#421);
#275=CARTESIAN_POINT('',(10.09,10.8899999999,0.0));
#276=POINT_STYLE(' ',#422,POSITIVE_LENGTH_MEASURE(1.0E-006),#423);
#277=CARTESIAN_POINT('',(10.09,0.0,0.0));
#278=SURFACE_STYLE_USAGE(.BOTH.,#424);
#279=FACE_OUTER_BOUND('',#425,.T.);
#280=CONICAL_SURFACE('',#426,0.8,0.139626340159547);
#281=POINT_STYLE(' ',#427,POSITIVE_LENGTH_MEASURE(1.0E-006),#428);
#282=CARTESIAN_POINT('',(0.646487839731003,0.800000000080811,-4.6));
#283=POINT_STYLE(' ',#429,POSITIVE_LENGTH_MEASURE(1.0E-006),#430);
#284=CARTESIAN_POINT('',(0.8,0.0,0.0));
#285=CURVE_STYLE('',#431,POSITIVE_LENGTH_MEASURE(1.0E-006),#432);
#286=LINE('',#433,#434);
#287=CURVE_STYLE('',#435,POSITIVE_LENGTH_MEASURE(1.0E-006),#436);
#288=LINE('',#437,#438);
#289=CURVE_STYLE('',#439,POSITIVE_LENGTH_MEASURE(1.0E-006),#440);
#290=LINE('',#441,#442);
#291=CURVE_STYLE('',#443,POSITIVE_LENGTH_MEASURE(1.0E-006),#444);
#292=LINE('',#445,#446);
#293=CURVE_STYLE('',#447,POSITIVE_LENGTH_MEASURE(1.0E-006),#448);
#294=CIRCLE('',#449,0.800000000000004);
#295=SURFACE_STYLE_USAGE(.BOTH.,#450);
#296=FACE_OUTER_BOUND('',#451,.T.);
#297=PLANE('',#452);
#298=CURVE_STYLE('',#453,POSITIVE_LENGTH_MEASURE(1.0E-006),#454);
#299=LINE('',#455,#456);
#300=POINT_STYLE(' ',#457,POSITIVE_LENGTH_MEASURE(1.0E-006),#458);
#301=CARTESIAN_POINT('',(10.09,10.243512160369,-4.6));
#302=POINT_STYLE(' ',#459,POSITIVE_LENGTH_MEASURE(1.0E-006),#460);
#303=CARTESIAN_POINT('',(0.0,0.800000000000001,0.0));
#304=PRODUCT_CONTEXT('',#61,'mechanical');
#305=PRODUCT_DEFINITION_FORMATION_WITH_SPECIFIED_SOURCE(' ','NONE',#176,.NOT_KNOWN.);
#306=CARTESIAN_POINT('',(0.0,0.0,0.0));
#307=DIRECTION('',(0.0,0.0,1.0));
#308=DIRECTION('',(1.0,0.0,0.0));
#309= (NAMED_UNIT(#184)LENGTH_UNIT()SI_UNIT(.MILLI.,.METRE.));
#310=SURFACE_SIDE_STYLE('',(#462));
#311=EDGE_LOOP('',(#463,#464,#465,#466));
#312=AXIS2_PLACEMENT_3D('',#467,#468,#469);
#313=DRAUGHTING_PRE_DEFINED_CURVE_FONT('continuous');
#314=COLOUR_RGB('',0.800000011920929,0.800000011920929,0.800000011920929);
#315=AXIS2_PLACEMENT_3D('',#470,#471,#472);
#316=DRAUGHTING_PRE_DEFINED_CURVE_FONT('continuous');
#317=COLOUR_RGB('',0.800000011920929,0.800000011920929,0.800000011920929);
#318=CARTESIAN_POINT('',(10.89,10.09,0.0));
#319=VECTOR('',#473,1.0);
#320=SURFACE_SIDE_STYLE('',(#474));
#321=EDGE_LOOP('',(#475,#476,#477,#478,#479,#480,#481,#482));
#322=AXIS2_PLACEMENT_3D('',#483,#484,#485);
#323=SURFACE_SIDE_STYLE('',(#486));
#324=DRAUGHTING_PRE_DEFINED_CURVE_FONT('continuous');
#325=COLOUR_RGB('',0.800000011920929,0.800000011920929,0.800000011920929);
#326=CARTESIAN_POINT('',(0.800000000000001,10.89,0.0));
#327=VECTOR('',#487,1.0);
#328=DRAUGHTING_PRE_DEFINED_CURVE_FONT('continuous');
#329=COLOUR_RGB('',0.800000011920929,0.800000011920929,0.800000011920929);
#330=AXIS2_PLACEMENT_3D('',#488,#489,#490);
#331=SURFACE_SIDE_STYLE('',(#491));
#332=EDGE_LOOP('',(#492,#493,#494,#495));
#333=AXIS2_PLACEMENT_3D('',#496,#497,#498);
#334=SURFACE_SIDE_STYLE('',(#499));
#335=EDGE_LOOP('',(#500,#501,#502,#503));
#336=AXIS2_PLACEMENT_3D('',#504,#505,#506);
#337=DRAUGHTING_PRE_DEFINED_CURVE_FONT('continuous');
#338=COLOUR_RGB('',0.800000011920929,0.800000011920929,0.800000011920929);
#339=CARTESIAN_POINT('',(10.09,10.243512160369,-4.6));
#340=VECTOR('',#507,1.0);
#341=DRAUGHTING_PRE_DEFINED_CURVE_FONT('continuous');
#342=COLOUR_RGB('',0.800000011920929,0.800000011920929,0.800000011920929);
#343=CARTESIAN_POINT('',(10.8899999999,0.8,0.0));
#344=VECTOR('',#508,1.0);
#345=DRAUGHTING_PRE_DEFINED_CURVE_FONT('continuous');
#346=COLOUR_RGB('',0.800000011920929,0.800000011920929,0.800000011920929);
#347=CARTESIAN_POINT('',(0.0,10.09,0.0));
#348=VECTOR('',#509,1.0);
#349=SURFACE_SIDE_STYLE('',(#510));
#350=EDGE_LOOP('',(#511,#512,#513,#514,#515,#516,#517,#518));
#351=AXIS2_PLACEMENT_3D('',#519,#520,#521);
#352=DRAUGHTING_PRE_DEFINED_CURVE_FONT('continuous');
#353=COLOUR_RGB('',0.800000011920929,0.800000011920929,0.800000011920929);
#354=AXIS2_PLACEMENT_3D('',#522,#523,#524);
#355=DRAUGHTING_PRE_DEFINED_CURVE_FONT('continuous');
#356=COLOUR_RGB('',0.800000011920929,0.800000011920929,0.800000011920929);
#357=AXIS2_PLACEMENT_3D('',#525,#526,#527);
#358=DRAUGHTING_PRE_DEFINED_CURVE_FONT('continuous');
#359=COLOUR_RGB('',0.800000011920929,0.800000011920929,0.800000011920929);
#360=AXIS2_PLACEMENT_3D('',#528,#529,#530);
#361=DRAUGHTING_PRE_DEFINED_CURVE_FONT('continuous');
#362=COLOUR_RGB('',0.800000011920929,0.800000011920929,0.800000011920929);
#363=CARTESIAN_POINT('',(10.09,10.8899999999,0.0));
#364=VECTOR('',#531,1.0);
#365=DRAUGHTING_PRE_DEFINED_CURVE_FONT('continuous');
#366=COLOUR_RGB('',0.800000011920929,0.800000011920929,0.800000011920929);
#367=CARTESIAN_POINT('',(10.09,10.89,0.0));
#368=VECTOR('',#532,1.0);
#369=DRAUGHTING_PRE_DEFINED_CURVE_FONT('continuous');
#370=COLOUR_RGB('',0.800000011920929,0.800000011920929,0.800000011920929);
#371=CARTESIAN_POINT('',(0.0,0.800000000000001,0.0));
#372=VECTOR('',#533,1.0);
#373=DRAUGHTING_PRE_DEFINED_CURVE_FONT('continuous');
#374=COLOUR_RGB('',0.800000011920929,0.800000011920929,0.800000011920929);
#375=AXIS2_PLACEMENT_3D('',#534,#535,#536);
#376=PRE_DEFINED_MARKER('');
#377=COLOUR_RGB('',0.800000011920929,0.800000011920929,0.800000011920929);
#378=PRE_DEFINED_MARKER('');
#379=COLOUR_RGB('',0.800000011920929,0.800000011920929,0.800000011920929);
#380=DRAUGHTING_PRE_DEFINED_CURVE_FONT('continuous');
#381=COLOUR_RGB('',0.800000011920929,0.800000011920929,0.800000011920929);
#382=CARTESIAN_POINT('',(10.89,0.8,0.0));
#383=VECTOR('',#537,1.0);
#384=PRE_DEFINED_MARKER('');
#385=COLOUR_RGB('',0.800000011920929,0.800000011920929,0.800000011920929);
#386=SURFACE_SIDE_STYLE('',(#538));
#387=EDGE_LOOP('',(#539,#540,#541,#542));
#388=AXIS2_PLACEMENT_3D('',#543,#544,#545);
#389=DRAUGHTING_PRE_DEFINED_CURVE_FONT('continuous');
#390=COLOUR_RGB('',0.800000011920929,0.800000011920929,0.800000011920929);
#391=CARTESIAN_POINT('',(10.09,0.0,0.0));
#392=VECTOR('',#546,1.0);
#393=PRE_DEFINED_MARKER('');
#394=COLOUR_RGB('',0.800000011920929,0.800000011920929,0.800000011920929);
#395=PRE_DEFINED_MARKER('');
#396=COLOUR_RGB('',0.800000011920929,0.800000011920929,0.800000011920929);
#397=PRE_DEFINED_MARKER('');
#398=COLOUR_RGB('',0.800000011920929,0.800000011920929,0.800000011920929);
#399=PRE_DEFINED_MARKER('');
#400=COLOUR_RGB('',0.800000011920929,0.800000011920929,0.800000011920929);
#401=DRAUGHTING_PRE_DEFINED_CURVE_FONT('continuous');
#402=COLOUR_RGB('',0.800000011920929,0.800000011920929,0.800000011920929);
#403=AXIS2_PLACEMENT_3D('',#547,#548,#549);
#404=PRE_DEFINED_MARKER('');
#405=COLOUR_RGB('',0.800000011920929,0.800000011920929,0.800000011920929);
#406=DRAUGHTING_PRE_DEFINED_CURVE_FONT('continuous');
#407=COLOUR_RGB('',0.800000011920929,0.800000011920929,0.800000011920929);
#408=CARTESIAN_POINT('',(0.8,0.0,0.0));
#409=VECTOR('',#550,1.0);
#410=PRE_DEFINED_MARKER('');
#411=COLOUR_RGB('',0.800000011920929,0.800000011920929,0.800000011920929);
#412=PRE_DEFINED_MARKER('');
#413=COLOUR_RGB('',0.800000011920929,0.800000011920929,0.800000011920929);
#414=SURFACE_SIDE_STYLE('',(#551));
#415=EDGE_LOOP('',(#552,#553,#554,#555));
#416=AXIS2_PLACEMENT_3D('',#556,#557,#558);
#417=SURFACE_SIDE_STYLE('',(#559));
#418=EDGE_LOOP('',(#560,#561,#562,#563));
#419=AXIS2_PLACEMENT_3D('',#564,#565,#566);
#420=PRE_DEFINED_MARKER('');
#421=COLOUR_RGB('',0.800000011920929,0.800000011920929,0.800000011920929);
#422=PRE_DEFINED_MARKER('');
#423=COLOUR_RGB('',0.800000011920929,0.800000011920929,0.800000011920929);
#424=SURFACE_SIDE_STYLE('',(#567));
#425=EDGE_LOOP('',(#568,#569,#570,#571));
#426=AXIS2_PLACEMENT_3D('',#572,#573,#574);
#427=PRE_DEFINED_MARKER('');
#428=COLOUR_RGB('',0.800000011920929,0.800000011920929,0.800000011920929);
#429=PRE_DEFINED_MARKER('');
#430=COLOUR_RGB('',0.800000011920929,0.800000011920929,0.800000011920929);
#431=DRAUGHTING_PRE_DEFINED_CURVE_FONT('continuous');
#432=COLOUR_RGB('',0.800000011920929,0.800000011920929,0.800000011920929);
#433=CARTESIAN_POINT('',(1.00000341340944E-010,10.09,0.0));
#434=VECTOR('',#575,1.0);
#435=DRAUGHTING_PRE_DEFINED_CURVE_FONT('continuous');
#436=COLOUR_RGB('',0.800000011920929,0.800000011920929,0.800000011920929);
#437=CARTESIAN_POINT('',(0.8,0.646487839631003,-4.6));
#438=VECTOR('',#576,1.0);
#439=DRAUGHTING_PRE_DEFINED_CURVE_FONT('continuous');
#440=COLOUR_RGB('',0.800000011920929,0.800000011920929,0.800000011920929);
#441=CARTESIAN_POINT('',(0.8,0.0,0.0));
#442=VECTOR('',#577,1.0);
#443=DRAUGHTING_PRE_DEFINED_CURVE_FONT('continuous');
#444=COLOUR_RGB('',0.800000011920929,0.800000011920929,0.800000011920929);
#445=CARTESIAN_POINT('',(0.646487839631003,10.09,-4.6));
#446=VECTOR('',#578,1.0);
#447=DRAUGHTING_PRE_DEFINED_CURVE_FONT('continuous');
#448=COLOUR_RGB('',0.800000011920929,0.800000011920929,0.800000011920929);
#449=AXIS2_PLACEMENT_3D('',#579,#580,#581);
#450=SURFACE_SIDE_STYLE('',(#582));
#451=EDGE_LOOP('',(#583,#584,#585,#586));
#452=AXIS2_PLACEMENT_3D('',#587,#588,#589);
#453=DRAUGHTING_PRE_DEFINED_CURVE_FONT('continuous');
#454=COLOUR_RGB('',0.800000011920929,0.800000011920929,0.800000011920929);
#455=CARTESIAN_POINT('',(10.243512160369,0.8,-4.6));
#456=VECTOR('',#590,1.0);
#457=PRE_DEFINED_MARKER('');
#458=COLOUR_RGB('',0.800000011920929,0.800000011920929,0.800000011920929);
#459=PRE_DEFINED_MARKER('');
#460=COLOUR_RGB('',0.800000011920929,0.800000011920929,0.800000011920929);
#462=SURFACE_STYLE_FILL_AREA(#591);
#463=ORIENTED_EDGE('',*,*,#93,.T.);
#464=ORIENTED_EDGE('',*,*,#85,.F.);
#465=ORIENTED_EDGE('',*,*,#109,.F.);
#466=ORIENTED_EDGE('',*,*,#107,.T.);
#467=CARTESIAN_POINT('',(10.09,10.8899999999,0.0));
#468=DIRECTION('',(0.0,0.990268068744537,-0.139173100938956));
#469=DIRECTION('',(1.0,-0.0,0.0));
#470=CARTESIAN_POINT('',(10.0899999999,10.0899999999,0.0));
#471=DIRECTION('',(0.0,-0.0,1.0));
#472=DIRECTION('',(1.0,1.25004451234644E-010,0.0));
#473=DIRECTION('',(-0.139173100981176,-1.73971969271932E-011,-0.990268068738603));
#474=SURFACE_STYLE_FILL_AREA(#592);
#475=ORIENTED_EDGE('',*,*,#139,.T.);
#476=ORIENTED_EDGE('',*,*,#103,.T.);
#477=ORIENTED_EDGE('',*,*,#119,.T.);
#478=ORIENTED_EDGE('',*,*,#77,.T.);
#479=ORIENTED_EDGE('',*,*,#109,.T.);
#480=ORIENTED_EDGE('',*,*,#167,.T.);
#481=ORIENTED_EDGE('',*,*,#97,.T.);
#482=ORIENTED_EDGE('',*,*,#135,.T.);
#483=CARTESIAN_POINT('',(5.445,5.445,0.0));
#484=DIRECTION('',(0.0,0.0,1.0));
#485=DIRECTION('',(1.0,0.0,0.0));
#486=SURFACE_STYLE_FILL_AREA(#593);
#487=DIRECTION('',(1.73973164291943E-011,-0.139173100981176,-0.990268068738603));
#488=CARTESIAN_POINT('',(0.800000000100005,10.0899999999,-4.6));
#489=DIRECTION('',(0.0,0.0,1.0));
#490=DIRECTION('',(-1.25005977791303E-010,1.0,0.0));
#491=SURFACE_STYLE_FILL_AREA(#594);
#492=ORIENTED_EDGE('',*,*,#87,.T.);
#493=ORIENTED_EDGE('',*,*,#159,.F.);
#494=ORIENTED_EDGE('',*,*,#167,.F.);
#495=ORIENTED_EDGE('',*,*,#85,.T.);
#496=CARTESIAN_POINT('',(0.800000000100005,10.0899999999,0.0));
#497=DIRECTION('',(-0.0,-0.0,1.0));
#498=DIRECTION('',(-1.25005977791303E-010,1.0,0.0));
#499=SURFACE_STYLE_FILL_AREA(#595);
#500=ORIENTED_EDGE('',*,*,#161,.T.);
#501=ORIENTED_EDGE('',*,*,#125,.F.);
#502=ORIENTED_EDGE('',*,*,#139,.F.);
#503=ORIENTED_EDGE('',*,*,#163,.T.);
#504=CARTESIAN_POINT('',(0.8,0.0,0.0));
#505=DIRECTION('',(-0.0,-0.99026806874157,-0.139173100960066));
#506=DIRECTION('',(-1.0,0.0,0.0));
#507=DIRECTION('',(-1.0,0.0,0.0));
#508=DIRECTION('',(-0.139173100938955,0.0,-0.990268068744537));
#509=DIRECTION('',(0.0,-1.0,0.0));
#510=SURFACE_STYLE_FILL_AREA(#596);
#511=ORIENTED_EDGE('',*,*,#101,.F.);
#512=ORIENTED_EDGE('',*,*,#161,.F.);
#513=ORIENTED_EDGE('',*,*,#113,.F.);
#514=ORIENTED_EDGE('',*,*,#165,.F.);
#515=ORIENTED_EDGE('',*,*,#87,.F.);
#516=ORIENTED_EDGE('',*,*,#93,.F.);
#517=ORIENTED_EDGE('',*,*,#105,.F.);
#518=ORIENTED_EDGE('',*,*,#171,.F.);
#519=CARTESIAN_POINT('',(5.445,5.445,-4.6));
#520=DIRECTION('',(0.0,0.0,1.0));
#521=DIRECTION('',(1.0,0.0,0.0));
#522=CARTESIAN_POINT('',(10.0899999999,0.800000000100001,-4.6));
#523=DIRECTION('',(0.0,0.0,1.0));
#524=DIRECTION('',(1.25000010342546E-010,-1.0,0.0));
#525=CARTESIAN_POINT('',(10.0899999999,0.800000000100001,0.0));
#526=DIRECTION('',(0.0,0.0,1.0));
#527=DIRECTION('',(1.25000010342546E-010,-1.0,0.0));
#528=CARTESIAN_POINT('',(10.0899999999,10.0899999999,-4.6));
#529=DIRECTION('',(0.0,-0.0,1.0));
#530=DIRECTION('',(1.0,1.25004451234644E-010,0.0));
#531=DIRECTION('',(0.0,-0.139173100938956,-0.990268068744537));
#532=DIRECTION('',(-1.0,0.0,0.0));
#533=DIRECTION('',(0.139173100981176,1.73964560147861E-011,-0.990268068738603));
#534=CARTESIAN_POINT('',(0.8000000001,0.8000000001,-4.6));
#535=DIRECTION('',(0.0,0.0,1.0));
#536=DIRECTION('',(-1.0,-1.24999455231034E-010,0.0));
#537=DIRECTION('',(0.0,1.0,0.0));
#538=SURFACE_STYLE_FILL_AREA(#597);
#539=ORIENTED_EDGE('',*,*,#113,.T.);
#540=ORIENTED_EDGE('',*,*,#163,.F.);
#541=ORIENTED_EDGE('',*,*,#135,.F.);
#542=ORIENTED_EDGE('',*,*,#111,.T.);
#543=CARTESIAN_POINT('',(0.8000000001,0.8000000001,0.0));
#544=DIRECTION('',(0.0,-0.0,1.0));
#545=DIRECTION('',(-1.0,-1.24999455231034E-010,0.0));
#546=DIRECTION('',(-1.73968145207895E-011,0.139173100981176,-0.990268068738603));
#547=CARTESIAN_POINT('',(0.8000000001,0.8000000001,0.0));
#548=DIRECTION('',(0.0,0.0,1.0));
#549=DIRECTION('',(-1.0,-1.24999455231034E-010,0.0));
#550=DIRECTION('',(1.0,0.0,0.0));
#551=SURFACE_STYLE_FILL_AREA(#598);
#552=ORIENTED_EDGE('',*,*,#105,.T.);
#553=ORIENTED_EDGE('',*,*,#107,.F.);
#554=ORIENTED_EDGE('',*,*,#77,.F.);
#555=ORIENTED_EDGE('',*,*,#79,.T.);
#556=CARTESIAN_POINT('',(10.0899999999,10.0899999999,0.0));
#557=DIRECTION('',(-0.0,-0.0,1.0));
#558=DIRECTION('',(1.0,1.25004451234644E-010,0.0));
#559=SURFACE_STYLE_FILL_AREA(#599);
#560=ORIENTED_EDGE('',*,*,#171,.T.);
#561=ORIENTED_EDGE('',*,*,#79,.F.);
#562=ORIENTED_EDGE('',*,*,#119,.F.);
#563=ORIENTED_EDGE('',*,*,#95,.T.);
#564=CARTESIAN_POINT('',(10.8899999999,0.8,0.0));
#565=DIRECTION('',(0.990268068744537,-0.0,-0.139173100938955));
#566=DIRECTION('',(-0.0,-1.0,0.0));
#567=SURFACE_STYLE_FILL_AREA(#600);
#568=ORIENTED_EDGE('',*,*,#101,.T.);
#569=ORIENTED_EDGE('',*,*,#95,.F.);
#570=ORIENTED_EDGE('',*,*,#103,.F.);
#571=ORIENTED_EDGE('',*,*,#125,.T.);
#572=CARTESIAN_POINT('',(10.0899999999,0.800000000100001,0.0));
#573=DIRECTION('',(-0.0,-0.0,1.0));
#574=DIRECTION('',(1.25000010342546E-010,-1.0,0.0));
#575=DIRECTION('',(0.139173100938955,0.0,-0.990268068744537));
#576=DIRECTION('',(1.0,0.0,0.0));
#577=DIRECTION('',(0.0,0.139173100960066,-0.99026806874157));
#578=DIRECTION('',(0.0,-1.0,0.0));
#579=CARTESIAN_POINT('',(0.800000000100005,10.0899999999,0.0));
#580=DIRECTION('',(0.0,0.0,1.0));
#581=DIRECTION('',(-1.25005977791303E-010,1.0,0.0));
#582=SURFACE_STYLE_FILL_AREA(#601);
#583=ORIENTED_EDGE('',*,*,#165,.T.);
#584=ORIENTED_EDGE('',*,*,#111,.F.);
#585=ORIENTED_EDGE('',*,*,#97,.F.);
#586=ORIENTED_EDGE('',*,*,#159,.T.);
#587=CARTESIAN_POINT('',(1.00000341340944E-010,10.09,0.0));
#588=DIRECTION('',(-0.990268068744537,0.0,-0.139173100938955));
#589=DIRECTION('',(0.0,1.0,0.0));
#590=DIRECTION('',(0.0,1.0,0.0));
#591=FILL_AREA_STYLE('',(#602));
#592=FILL_AREA_STYLE('',(#603));
#593=FILL_AREA_STYLE('',(#604));
#594=FILL_AREA_STYLE('',(#605));
#595=FILL_AREA_STYLE('',(#606));
#596=FILL_AREA_STYLE('',(#607));
#597=FILL_AREA_STYLE('',(#608));
#598=FILL_AREA_STYLE('',(#609));
#599=FILL_AREA_STYLE('',(#610));
#600=FILL_AREA_STYLE('',(#611));
#601=FILL_AREA_STYLE('',(#612));
#602=FILL_AREA_STYLE_COLOUR('',#613);
#603=FILL_AREA_STYLE_COLOUR('',#614);
#604=FILL_AREA_STYLE_COLOUR('',#615);
#605=FILL_AREA_STYLE_COLOUR('',#616);
#606=FILL_AREA_STYLE_COLOUR('',#617);
#607=FILL_AREA_STYLE_COLOUR('',#618);
#608=FILL_AREA_STYLE_COLOUR('',#619);
#609=FILL_AREA_STYLE_COLOUR('',#620);
#610=FILL_AREA_STYLE_COLOUR('',#621);
#611=FILL_AREA_STYLE_COLOUR('',#622);
#612=FILL_AREA_STYLE_COLOUR('',#623);
#613=COLOUR_RGB('',0.800000011920929,0.800000011920929,0.800000011920929);
#614=COLOUR_RGB('',0.800000011920929,0.800000011920929,0.800000011920929);
#615=COLOUR_RGB('',0.800000011920929,0.800000011920929,0.800000011920929);
#616=COLOUR_RGB('',0.800000011920929,0.800000011920929,0.800000011920929);
#617=COLOUR_RGB('',0.800000011920929,0.800000011920929,0.800000011920929);
#618=COLOUR_RGB('',0.800000011920929,0.800000011920929,0.800000011920929);
#619=COLOUR_RGB('',0.800000011920929,0.800000011920929,0.800000011920929);
#620=COLOUR_RGB('',0.800000011920929,0.800000011920929,0.800000011920929);
#621=COLOUR_RGB('',0.800000011920929,0.800000011920929,0.800000011920929);
#622=COLOUR_RGB('',0.800000011920929,0.800000011920929,0.800000011920929);
#623=COLOUR_RGB('',0.800000011920929,0.800000011920929,0.800000011920929);
#624=AXIS2_PLACEMENT_3D('PCS',#625,#626,#627);
#625=CARTESIAN_POINT('',(0.0,0.0,0.0));
#626=DIRECTION('',(0.0,0.0,1.0));
#627=DIRECTION('',(1.0,0.0,0.0));
#628=AXIS2_PLACEMENT_3D('MCS',#629,#630,#631);
#629=CARTESIAN_POINT('',(5.445,5.445,0.0));
#630=DIRECTION('',(0.0,0.0,1.0));
#631=DIRECTION('',(1.0,0.0,0.0));
#632=CONSTRUCTIVE_GEOMETRY_REPRESENTATION_RELATIONSHIP('coordinate systems',$,#65,#633);
#633=CONSTRUCTIVE_GEOMETRY_REPRESENTATION('coordinate systems',(#624,#628),#6);
ENDSEC;
END-ISO-10303-21;
