ISO-10303-21;
HEADER;
FILE_DESCRIPTION(('no description'),'unknown implementation level');
FILE_NAME('solid8CwVy50CW4RyvWxdD2ivj9zDbVc_1.STP','  ',('CIMSOURCE GmbH'),('CADClick - KiM GmbH - www.kimweb.de'),'unknown preprocess','ACIS','unknown authorization');
FILE_SCHEMA(('automotive_design'));
ENDSEC;
DATA;
#1=MECHANICAL_DESIGN_GEOMETRIC_PRESENTATION_REPRESENTATION(' ',(#10,#11,#12,#13,#14,#15,#16,#17,#18,#19,#20,#21,#22,#23,#24,#25,#26,#27,#28,#29,#30,#31,#32,#33,#34,#35,#36,#37,#38,#39,#40,#41,#42,#43,#44,#45,#46,#47,#48,#49,#50,#51,#52,#53,#54,#55,#56,#57,#58,#59,#60),#6);
#2=PRODUCT_DEFINITION_CONTEXT('',#61,'design');
#3=APPLICATION_PROTOCOL_DEFINITION('INTERNATIONAL STANDARD','automotive_design',1994,#61);
#4=PRODUCT_CATEGORY_RELATIONSHIP('NONE','NONE',#62,#63);
#5=SHAPE_DEFINITION_REPRESENTATION(#64,#65);
#6= (GEOMETRIC_REPRESENTATION_CONTEXT(3)GLOBAL_UNCERTAINTY_ASSIGNED_CONTEXT((#68))GLOBAL_UNIT_ASSIGNED_CONTEXT((#70,#71,#72))REPRESENTATION_CONTEXT('NONE','WORKSPACE'));
#10=STYLED_ITEM('',(#74),#75);
#11=STYLED_ITEM('',(#76),#77);
#12=STYLED_ITEM('',(#78),#79);
#13=STYLED_ITEM('',(#80),#81);
#14=STYLED_ITEM('',(#82),#83);
#15=STYLED_ITEM('',(#84),#85);
#16=STYLED_ITEM('',(#86),#87);
#17=STYLED_ITEM('',(#88),#89);
#18=STYLED_ITEM('',(#90),#91);
#19=STYLED_ITEM('',(#92),#93);
#20=STYLED_ITEM('',(#94),#95);
#21=STYLED_ITEM('',(#96),#97);
#22=STYLED_ITEM('',(#98),#99);
#23=STYLED_ITEM('',(#100),#101);
#24=STYLED_ITEM('',(#102),#103);
#25=STYLED_ITEM('',(#104),#105);
#26=STYLED_ITEM('',(#106),#107);
#27=STYLED_ITEM('',(#108),#109);
#28=STYLED_ITEM('',(#110),#111);
#29=STYLED_ITEM('',(#112),#113);
#30=STYLED_ITEM('',(#114),#115);
#31=STYLED_ITEM('',(#116),#117);
#32=STYLED_ITEM('',(#118),#119);
#33=STYLED_ITEM('',(#120),#121);
#34=STYLED_ITEM('',(#122),#123);
#35=STYLED_ITEM('',(#124),#125);
#36=STYLED_ITEM('',(#126),#127);
#37=STYLED_ITEM('',(#128),#129);
#38=STYLED_ITEM('',(#130),#131);
#39=STYLED_ITEM('',(#132),#133);
#40=STYLED_ITEM('',(#134),#135);
#41=STYLED_ITEM('',(#136),#137);
#42=STYLED_ITEM('',(#138),#139);
#43=STYLED_ITEM('',(#140),#141);
#44=STYLED_ITEM('',(#142),#143);
#45=STYLED_ITEM('',(#144),#145);
#46=STYLED_ITEM('',(#146),#147);
#47=STYLED_ITEM('',(#148),#149);
#48=STYLED_ITEM('',(#150),#151);
#49=STYLED_ITEM('',(#152),#153);
#50=STYLED_ITEM('',(#154),#155);
#51=STYLED_ITEM('',(#156),#157);
#52=STYLED_ITEM('',(#158),#159);
#53=STYLED_ITEM('',(#160),#161);
#54=STYLED_ITEM('',(#162),#163);
#55=STYLED_ITEM('',(#164),#165);
#56=STYLED_ITEM('',(#166),#167);
#57=STYLED_ITEM('',(#168),#169);
#58=STYLED_ITEM('',(#170),#171);
#59=STYLED_ITEM('',(#172),#173);
#60=STYLED_ITEM('',(#174),#175);
#61=APPLICATION_CONTEXT(' ');
#62=PRODUCT_CATEGORY('part','NONE');
#63=PRODUCT_RELATED_PRODUCT_CATEGORY('detail',' ',(#176));
#64=PRODUCT_DEFINITION_SHAPE('NONE','NONE',#177);
#65=ADVANCED_BREP_SHAPE_REPRESENTATION('1',(#123,#178),#6);
#68=UNCERTAINTY_MEASURE_WITH_UNIT(LENGTH_MEASURE(1.0E-006),#70,'','');
#70= (CONVERSION_BASED_UNIT('MILLIMETRE',#181)LENGTH_UNIT()NAMED_UNIT(#184));
#71= (NAMED_UNIT(#186)PLANE_ANGLE_UNIT()SI_UNIT($,.RADIAN.));
#72= (NAMED_UNIT(#186)SOLID_ANGLE_UNIT()SI_UNIT($,.STERADIAN.));
#74=PRESENTATION_STYLE_ASSIGNMENT((#192));
#75=EDGE_CURVE('',#147,#117,#193,.T.);
#76=PRESENTATION_STYLE_ASSIGNMENT((#194));
#77=EDGE_CURVE('',#121,#85,#195,.T.);
#78=PRESENTATION_STYLE_ASSIGNMENT((#196));
#79=VERTEX_POINT('',#197);
#80=PRESENTATION_STYLE_ASSIGNMENT((#198));
#81=ADVANCED_FACE('',(#199),#200,.T.);
#82=PRESENTATION_STYLE_ASSIGNMENT((#201));
#83=EDGE_CURVE('',#79,#93,#202,.T.);
#84=PRESENTATION_STYLE_ASSIGNMENT((#203));
#85=VERTEX_POINT('',#204);
#86=PRESENTATION_STYLE_ASSIGNMENT((#205));
#87=ADVANCED_FACE('',(#206),#207,.T.);
#88=PRESENTATION_STYLE_ASSIGNMENT((#208));
#89=EDGE_CURVE('',#93,#173,#209,.T.);
#90=PRESENTATION_STYLE_ASSIGNMENT((#210));
#91=EDGE_CURVE('',#147,#121,#211,.T.);
#92=PRESENTATION_STYLE_ASSIGNMENT((#212));
#93=VERTEX_POINT('',#213);
#94=PRESENTATION_STYLE_ASSIGNMENT((#214));
#95=ADVANCED_FACE('',(#215),#216,.T.);
#96=PRESENTATION_STYLE_ASSIGNMENT((#217));
#97=EDGE_CURVE('',#165,#169,#218,.T.);
#98=PRESENTATION_STYLE_ASSIGNMENT((#219));
#99=VERTEX_POINT('',#220);
#100=PRESENTATION_STYLE_ASSIGNMENT((#221));
#101=ADVANCED_FACE('',(#222),#223,.T.);
#102=PRESENTATION_STYLE_ASSIGNMENT((#224));
#103=EDGE_CURVE('',#117,#85,#225,.T.);
#104=PRESENTATION_STYLE_ASSIGNMENT((#226));
#105=EDGE_CURVE('',#113,#133,#227,.T.);
#106=PRESENTATION_STYLE_ASSIGNMENT((#228));
#107=EDGE_CURVE('',#145,#155,#229,.T.);
#108=PRESENTATION_STYLE_ASSIGNMENT((#230));
#109=EDGE_CURVE('',#169,#99,#231,.T.);
#110=PRESENTATION_STYLE_ASSIGNMENT((#232));
#111=VERTEX_POINT('',#233);
#112=PRESENTATION_STYLE_ASSIGNMENT((#234));
#113=VERTEX_POINT('',#235);
#114=PRESENTATION_STYLE_ASSIGNMENT((#236));
#115=EDGE_CURVE('',#79,#143,#237,.T.);
#116=PRESENTATION_STYLE_ASSIGNMENT((#238));
#117=VERTEX_POINT('',#239);
#118=PRESENTATION_STYLE_ASSIGNMENT((#240));
#119=ADVANCED_FACE('',(#241),#242,.T.);
#120=PRESENTATION_STYLE_ASSIGNMENT((#243));
#121=VERTEX_POINT('',#244);
#122=PRESENTATION_STYLE_ASSIGNMENT((#245));
#123=MANIFOLD_SOLID_BREP('1',#246);
#124=PRESENTATION_STYLE_ASSIGNMENT((#247));
#125=EDGE_CURVE('',#111,#99,#248,.T.);
#126=PRESENTATION_STYLE_ASSIGNMENT((#249));
#127=EDGE_CURVE('',#111,#147,#250,.T.);
#128=PRESENTATION_STYLE_ASSIGNMENT((#251));
#129=EDGE_CURVE('',#173,#169,#252,.T.);
#130=PRESENTATION_STYLE_ASSIGNMENT((#253));
#131=EDGE_CURVE('',#121,#145,#254,.T.);
#132=PRESENTATION_STYLE_ASSIGNMENT((#255));
#133=VERTEX_POINT('',#256);
#134=PRESENTATION_STYLE_ASSIGNMENT((#257));
#135=EDGE_CURVE('',#155,#79,#258,.T.);
#136=PRESENTATION_STYLE_ASSIGNMENT((#259));
#137=ADVANCED_FACE('',(#260),#261,.T.);
#138=PRESENTATION_STYLE_ASSIGNMENT((#262));
#139=EDGE_CURVE('',#85,#113,#263,.T.);
#140=PRESENTATION_STYLE_ASSIGNMENT((#264));
#141=EDGE_CURVE('',#155,#133,#265,.T.);
#142=PRESENTATION_STYLE_ASSIGNMENT((#266));
#143=VERTEX_POINT('',#267);
#144=PRESENTATION_STYLE_ASSIGNMENT((#268));
#145=VERTEX_POINT('',#269);
#146=PRESENTATION_STYLE_ASSIGNMENT((#270));
#147=VERTEX_POINT('',#271);
#148=PRESENTATION_STYLE_ASSIGNMENT((#272));
#149=ADVANCED_FACE('',(#273),#274,.T.);
#150=PRESENTATION_STYLE_ASSIGNMENT((#275));
#151=EDGE_CURVE('',#173,#111,#276,.T.);
#152=PRESENTATION_STYLE_ASSIGNMENT((#277));
#153=EDGE_CURVE('',#93,#165,#278,.T.);
#154=PRESENTATION_STYLE_ASSIGNMENT((#279));
#155=VERTEX_POINT('',#280);
#156=PRESENTATION_STYLE_ASSIGNMENT((#281));
#157=EDGE_CURVE('',#133,#143,#282,.T.);
#158=PRESENTATION_STYLE_ASSIGNMENT((#283));
#159=EDGE_CURVE('',#145,#113,#284,.T.);
#160=PRESENTATION_STYLE_ASSIGNMENT((#285));
#161=EDGE_CURVE('',#99,#117,#286,.T.);
#162=PRESENTATION_STYLE_ASSIGNMENT((#287));
#163=ADVANCED_FACE('',(#288),#289,.F.);
#164=PRESENTATION_STYLE_ASSIGNMENT((#290));
#165=VERTEX_POINT('',#291);
#166=PRESENTATION_STYLE_ASSIGNMENT((#292));
#167=EDGE_CURVE('',#143,#165,#293,.T.);
#168=PRESENTATION_STYLE_ASSIGNMENT((#294));
#169=VERTEX_POINT('',#295);
#170=PRESENTATION_STYLE_ASSIGNMENT((#296));
#171=ADVANCED_FACE('',(#297),#298,.T.);
#172=PRESENTATION_STYLE_ASSIGNMENT((#299));
#173=VERTEX_POINT('',#300);
#174=PRESENTATION_STYLE_ASSIGNMENT((#301));
#175=ADVANCED_FACE('',(#302),#303,.T.);
#176=PRODUCT('1','1','PART-1-DESC',(#304));
#177=PRODUCT_DEFINITION('NONE','NONE',#305,#2);
#178=AXIS2_PLACEMENT_3D('',#306,#307,#308);
#181=LENGTH_MEASURE_WITH_UNIT(LENGTH_MEASURE(1.0),#309);
#184=DIMENSIONAL_EXPONENTS(1.0,0.0,0.0,0.0,0.0,0.0,0.0);
#186=DIMENSIONAL_EXPONENTS(0.0,0.0,0.0,0.0,0.0,0.0,0.0);
#192=CURVE_STYLE('',#310,POSITIVE_LENGTH_MEASURE(1.0E-006),#311);
#193=LINE('',#312,#313);
#194=CURVE_STYLE('',#314,POSITIVE_LENGTH_MEASURE(1.0E-006),#315);
#195=LINE('',#316,#317);
#196=POINT_STYLE(' ',#318,POSITIVE_LENGTH_MEASURE(1.0E-006),#319);
#197=CARTESIAN_POINT('',(0.4,0.0,0.0));
#198=SURFACE_STYLE_USAGE(.BOTH.,#320);
#199=FACE_OUTER_BOUND('',#321,.T.);
#200=CONICAL_SURFACE('',#322,0.4,0.139626340159547);
#201=CURVE_STYLE('',#323,POSITIVE_LENGTH_MEASURE(1.0E-006),#324);
#202=LINE('',#325,#326);
#203=POINT_STYLE(' ',#327,POSITIVE_LENGTH_MEASURE(1.0E-006),#328);
#204=CARTESIAN_POINT('',(0.400000000077298,4.69081016355474,-2.2));
#205=SURFACE_STYLE_USAGE(.BOTH.,#329);
#206=FACE_OUTER_BOUND('',#330,.T.);
#207=CONICAL_SURFACE('',#331,0.400000000000001,0.139626340159547);
#208=CURVE_STYLE('',#332,POSITIVE_LENGTH_MEASURE(1.0E-006),#333);
#209=CIRCLE('',#334,0.4);
#210=CURVE_STYLE('',#335,POSITIVE_LENGTH_MEASURE(1.0E-006),#336);
#211=LINE('',#337,#338);
#212=POINT_STYLE(' ',#339,POSITIVE_LENGTH_MEASURE(1.0E-006),#340);
#213=CARTESIAN_POINT('',(4.6,0.0,0.0));
#214=SURFACE_STYLE_USAGE(.BOTH.,#341);
#215=FACE_OUTER_BOUND('',#342,.T.);
#216=PLANE('',#343);
#217=CURVE_STYLE('',#344,POSITIVE_LENGTH_MEASURE(1.0E-006),#345);
#218=CIRCLE('',#346,0.0908101636547378);
#219=POINT_STYLE(' ',#347,POSITIVE_LENGTH_MEASURE(1.0E-006),#348);
#220=CARTESIAN_POINT('',(4.69081016355474,4.5999999999227,-2.2));
#221=SURFACE_STYLE_USAGE(.BOTH.,#349);
#222=FACE_OUTER_BOUND('',#350,.T.);
#223=PLANE('',#351);
#224=CURVE_STYLE('',#352,POSITIVE_LENGTH_MEASURE(1.0E-006),#353);
#225=LINE('',#354,#355);
#226=CURVE_STYLE('',#356,POSITIVE_LENGTH_MEASURE(1.0E-006),#357);
#227=LINE('',#358,#359);
#228=CURVE_STYLE('',#360,POSITIVE_LENGTH_MEASURE(1.0E-006),#361);
#229=LINE('',#362,#363);
#230=CURVE_STYLE('',#364,POSITIVE_LENGTH_MEASURE(1.0E-006),#365);
#231=LINE('',#366,#367);
#232=POINT_STYLE(' ',#368,POSITIVE_LENGTH_MEASURE(1.0E-006),#369);
#233=CARTESIAN_POINT('',(5.0,4.6,0.0));
#234=POINT_STYLE(' ',#370,POSITIVE_LENGTH_MEASURE(1.0E-006),#371);
#235=CARTESIAN_POINT('',(0.309189836345262,4.6,-2.2));
#236=CURVE_STYLE('',#372,POSITIVE_LENGTH_MEASURE(1.0E-006),#373);
#237=LINE('',#374,#375);
#238=POINT_STYLE(' ',#376,POSITIVE_LENGTH_MEASURE(1.0E-006),#377);
#239=CARTESIAN_POINT('',(4.6,4.69081016365474,-2.2));
#240=SURFACE_STYLE_USAGE(.BOTH.,#378);
#241=FACE_OUTER_BOUND('',#379,.T.);
#242=PLANE('',#380);
#243=POINT_STYLE(' ',#381,POSITIVE_LENGTH_MEASURE(1.0E-006),#382);
#244=CARTESIAN_POINT('',(0.4,5.0,0.0));
#245=SURFACE_STYLE_USAGE(.BOTH.,#383);
#246=CLOSED_SHELL('',(#81,#137,#87,#119,#171,#101,#149,#95,#163,#175));
#247=CURVE_STYLE('',#384,POSITIVE_LENGTH_MEASURE(1.0E-006),#385);
#248=LINE('',#386,#387);
#249=CURVE_STYLE('',#388,POSITIVE_LENGTH_MEASURE(1.0E-006),#389);
#250=CIRCLE('',#390,0.400000000000001);
#251=CURVE_STYLE('',#391,POSITIVE_LENGTH_MEASURE(1.0E-006),#392);
#252=LINE('',#393,#394);
#253=CURVE_STYLE('',#395,POSITIVE_LENGTH_MEASURE(1.0E-006),#396);
#254=CIRCLE('',#397,0.400000000000001);
#255=POINT_STYLE(' ',#398,POSITIVE_LENGTH_MEASURE(1.0E-006),#399);
#256=CARTESIAN_POINT('',(0.309189836445262,0.400000000077297,-2.2));
#257=CURVE_STYLE('',#400,POSITIVE_LENGTH_MEASURE(1.0E-006),#401);
#258=CIRCLE('',#402,0.4);
#259=SURFACE_STYLE_USAGE(.BOTH.,#403);
#260=FACE_OUTER_BOUND('',#404,.T.);
#261=PLANE('',#405);
#262=CURVE_STYLE('',#406,POSITIVE_LENGTH_MEASURE(1.0E-006),#407);
#263=CIRCLE('',#408,0.0908101636547391);
#264=CURVE_STYLE('',#409,POSITIVE_LENGTH_MEASURE(1.0E-006),#410);
#265=LINE('',#411,#412);
#266=POINT_STYLE(' ',#413,POSITIVE_LENGTH_MEASURE(1.0E-006),#414);
#267=CARTESIAN_POINT('',(0.4,0.309189836345262,-2.2));
#268=POINT_STYLE(' ',#415,POSITIVE_LENGTH_MEASURE(1.0E-006),#416);
#269=CARTESIAN_POINT('',(9.99991200956174E-011,4.6,0.0));
#270=POINT_STYLE(' ',#417,POSITIVE_LENGTH_MEASURE(1.0E-006),#418);
#271=CARTESIAN_POINT('',(4.6,4.9999999999,0.0));
#272=SURFACE_STYLE_USAGE(.BOTH.,#419);
#273=FACE_OUTER_BOUND('',#420,.T.);
#274=CONICAL_SURFACE('',#421,0.4,0.139626340159547);
#275=CURVE_STYLE('',#422,POSITIVE_LENGTH_MEASURE(1.0E-006),#423);
#276=LINE('',#424,#425);
#277=CURVE_STYLE('',#426,POSITIVE_LENGTH_MEASURE(1.0E-006),#427);
#278=LINE('',#428,#429);
#279=POINT_STYLE(' ',#430,POSITIVE_LENGTH_MEASURE(1.0E-006),#431);
#280=CARTESIAN_POINT('',(0.0,0.4,0.0));
#281=CURVE_STYLE('',#432,POSITIVE_LENGTH_MEASURE(1.0E-006),#433);
#282=CIRCLE('',#434,0.0908101636547381);
#283=CURVE_STYLE('',#435,POSITIVE_LENGTH_MEASURE(1.0E-006),#436);
#284=LINE('',#437,#438);
#285=CURVE_STYLE('',#439,POSITIVE_LENGTH_MEASURE(1.0E-006),#440);
#286=CIRCLE('',#441,0.0908101636547391);
#287=SURFACE_STYLE_USAGE(.BOTH.,#442);
#288=FACE_OUTER_BOUND('',#443,.T.);
#289=PLANE('',#444);
#290=POINT_STYLE(' ',#445,POSITIVE_LENGTH_MEASURE(1.0E-006),#446);
#291=CARTESIAN_POINT('',(4.5999999999227,0.309189836445262,-2.2));
#292=CURVE_STYLE('',#447,POSITIVE_LENGTH_MEASURE(1.0E-006),#448);
#293=LINE('',#449,#450);
#294=POINT_STYLE(' ',#451,POSITIVE_LENGTH_MEASURE(1.0E-006),#452);
#295=CARTESIAN_POINT('',(4.69081016365474,0.4,-2.2));
#296=SURFACE_STYLE_USAGE(.BOTH.,#453);
#297=FACE_OUTER_BOUND('',#454,.T.);
#298=CONICAL_SURFACE('',#455,0.400000000000001,0.139626340159547);
#299=POINT_STYLE(' ',#456,POSITIVE_LENGTH_MEASURE(1.0E-006),#457);
#300=CARTESIAN_POINT('',(4.9999999999,0.4,0.0));
#301=SURFACE_STYLE_USAGE(.BOTH.,#458);
#302=FACE_OUTER_BOUND('',#459,.T.);
#303=PLANE('',#460);
#304=PRODUCT_CONTEXT('',#61,'mechanical');
#305=PRODUCT_DEFINITION_FORMATION_WITH_SPECIFIED_SOURCE(' ','NONE',#176,.NOT_KNOWN.);
#306=CARTESIAN_POINT('',(0.0,0.0,0.0));
#307=DIRECTION('',(0.0,0.0,1.0));
#308=DIRECTION('',(1.0,0.0,0.0));
#309= (NAMED_UNIT(#184)LENGTH_UNIT()SI_UNIT(.MILLI.,.METRE.));
#310=DRAUGHTING_PRE_DEFINED_CURVE_FONT('continuous');
#311=COLOUR_RGB('',0.800000011920929,0.800000011920929,0.800000011920929);
#312=CARTESIAN_POINT('',(4.6,4.9999999999,0.0));
#313=VECTOR('',#462,1.0);
#314=DRAUGHTING_PRE_DEFINED_CURVE_FONT('continuous');
#315=COLOUR_RGB('',0.800000011920929,0.800000011920929,0.800000011920929);
#316=CARTESIAN_POINT('',(0.4,5.0,0.0));
#317=VECTOR('',#463,1.0);
#318=PRE_DEFINED_MARKER('');
#319=COLOUR_RGB('',0.800000011920929,0.800000011920929,0.800000011920929);
#320=SURFACE_SIDE_STYLE('',(#464));
#321=EDGE_LOOP('',(#465,#466,#467,#468));
#322=AXIS2_PLACEMENT_3D('',#469,#470,#471);
#323=DRAUGHTING_PRE_DEFINED_CURVE_FONT('continuous');
#324=COLOUR_RGB('',0.800000011920929,0.800000011920929,0.800000011920929);
#325=CARTESIAN_POINT('',(0.4,0.0,0.0));
#326=VECTOR('',#472,1.0);
#327=PRE_DEFINED_MARKER('');
#328=COLOUR_RGB('',0.800000011920929,0.800000011920929,0.800000011920929);
#329=SURFACE_SIDE_STYLE('',(#473));
#330=EDGE_LOOP('',(#474,#475,#476,#477));
#331=AXIS2_PLACEMENT_3D('',#478,#479,#480);
#332=DRAUGHTING_PRE_DEFINED_CURVE_FONT('continuous');
#333=COLOUR_RGB('',0.800000011920929,0.800000011920929,0.800000011920929);
#334=AXIS2_PLACEMENT_3D('',#481,#482,#483);
#335=DRAUGHTING_PRE_DEFINED_CURVE_FONT('continuous');
#336=COLOUR_RGB('',0.800000011920929,0.800000011920929,0.800000011920929);
#337=CARTESIAN_POINT('',(4.6,5.0,0.0));
#338=VECTOR('',#484,1.0);
#339=PRE_DEFINED_MARKER('');
#340=COLOUR_RGB('',0.800000011920929,0.800000011920929,0.800000011920929);
#341=SURFACE_SIDE_STYLE('',(#485));
#342=EDGE_LOOP('',(#486,#487,#488,#489));
#343=AXIS2_PLACEMENT_3D('',#490,#491,#492);
#344=DRAUGHTING_PRE_DEFINED_CURVE_FONT('continuous');
#345=COLOUR_RGB('',0.800000011920929,0.800000011920929,0.800000011920929);
#346=AXIS2_PLACEMENT_3D('',#493,#494,#495);
#347=PRE_DEFINED_MARKER('');
#348=COLOUR_RGB('',0.800000011920929,0.800000011920929,0.800000011920929);
#349=SURFACE_SIDE_STYLE('',(#496));
#350=EDGE_LOOP('',(#497,#498,#499,#500));
#351=AXIS2_PLACEMENT_3D('',#501,#502,#503);
#352=DRAUGHTING_PRE_DEFINED_CURVE_FONT('continuous');
#353=COLOUR_RGB('',0.800000011920929,0.800000011920929,0.800000011920929);
#354=CARTESIAN_POINT('',(4.6,4.69081016365474,-2.2));
#355=VECTOR('',#504,1.0);
#356=DRAUGHTING_PRE_DEFINED_CURVE_FONT('continuous');
#357=COLOUR_RGB('',0.800000011920929,0.800000011920929,0.800000011920929);
#358=CARTESIAN_POINT('',(0.309189836345262,4.6,-2.2));
#359=VECTOR('',#505,1.0);
#360=DRAUGHTING_PRE_DEFINED_CURVE_FONT('continuous');
#361=COLOUR_RGB('',0.800000011920929,0.800000011920929,0.800000011920929);
#362=CARTESIAN_POINT('',(0.0,4.6,0.0));
#363=VECTOR('',#506,1.0);
#364=DRAUGHTING_PRE_DEFINED_CURVE_FONT('continuous');
#365=COLOUR_RGB('',0.800000011920929,0.800000011920929,0.800000011920929);
#366=CARTESIAN_POINT('',(4.69081016365474,0.4,-2.2));
#367=VECTOR('',#507,1.0);
#368=PRE_DEFINED_MARKER('');
#369=COLOUR_RGB('',0.800000011920929,0.800000011920929,0.800000011920929);
#370=PRE_DEFINED_MARKER('');
#371=COLOUR_RGB('',0.800000011920929,0.800000011920929,0.800000011920929);
#372=DRAUGHTING_PRE_DEFINED_CURVE_FONT('continuous');
#373=COLOUR_RGB('',0.800000011920929,0.800000011920929,0.800000011920929);
#374=CARTESIAN_POINT('',(0.4,0.0,0.0));
#375=VECTOR('',#508,1.0);
#376=PRE_DEFINED_MARKER('');
#377=COLOUR_RGB('',0.800000011920929,0.800000011920929,0.800000011920929);
#378=SURFACE_SIDE_STYLE('',(#509));
#379=EDGE_LOOP('',(#510,#511,#512,#513));
#380=AXIS2_PLACEMENT_3D('',#514,#515,#516);
#381=PRE_DEFINED_MARKER('');
#382=COLOUR_RGB('',0.800000011920929,0.800000011920929,0.800000011920929);
#383=SURFACE_SIDE_STYLE('',(#517));
#384=DRAUGHTING_PRE_DEFINED_CURVE_FONT('continuous');
#385=COLOUR_RGB('',0.800000011920929,0.800000011920929,0.800000011920929);
#386=CARTESIAN_POINT('',(5.0,4.6,0.0));
#387=VECTOR('',#518,1.0);
#388=DRAUGHTING_PRE_DEFINED_CURVE_FONT('continuous');
#389=COLOUR_RGB('',0.800000011920929,0.800000011920929,0.800000011920929);
#390=AXIS2_PLACEMENT_3D('',#519,#520,#521);
#391=DRAUGHTING_PRE_DEFINED_CURVE_FONT('continuous');
#392=COLOUR_RGB('',0.800000011920929,0.800000011920929,0.800000011920929);
#393=CARTESIAN_POINT('',(4.9999999999,0.4,0.0));
#394=VECTOR('',#522,1.0);
#395=DRAUGHTING_PRE_DEFINED_CURVE_FONT('continuous');
#396=COLOUR_RGB('',0.800000011920929,0.800000011920929,0.800000011920929);
#397=AXIS2_PLACEMENT_3D('',#523,#524,#525);
#398=PRE_DEFINED_MARKER('');
#399=COLOUR_RGB('',0.800000011920929,0.800000011920929,0.800000011920929);
#400=DRAUGHTING_PRE_DEFINED_CURVE_FONT('continuous');
#401=COLOUR_RGB('',0.800000011920929,0.800000011920929,0.800000011920929);
#402=AXIS2_PLACEMENT_3D('',#526,#527,#528);
#403=SURFACE_SIDE_STYLE('',(#529));
#404=EDGE_LOOP('',(#530,#531,#532,#533));
#405=AXIS2_PLACEMENT_3D('',#534,#535,#536);
#406=DRAUGHTING_PRE_DEFINED_CURVE_FONT('continuous');
#407=COLOUR_RGB('',0.800000011920929,0.800000011920929,0.800000011920929);
#408=AXIS2_PLACEMENT_3D('',#537,#538,#539);
#409=DRAUGHTING_PRE_DEFINED_CURVE_FONT('continuous');
#410=COLOUR_RGB('',0.800000011920929,0.800000011920929,0.800000011920929);
#411=CARTESIAN_POINT('',(0.0,0.4,0.0));
#412=VECTOR('',#540,1.0);
#413=PRE_DEFINED_MARKER('');
#414=COLOUR_RGB('',0.800000011920929,0.800000011920929,0.800000011920929);
#415=PRE_DEFINED_MARKER('');
#416=COLOUR_RGB('',0.800000011920929,0.800000011920929,0.800000011920929);
#417=PRE_DEFINED_MARKER('');
#418=COLOUR_RGB('',0.800000011920929,0.800000011920929,0.800000011920929);
#419=SURFACE_SIDE_STYLE('',(#541));
#420=EDGE_LOOP('',(#542,#543,#544,#545));
#421=AXIS2_PLACEMENT_3D('',#546,#547,#548);
#422=DRAUGHTING_PRE_DEFINED_CURVE_FONT('continuous');
#423=COLOUR_RGB('',0.800000011920929,0.800000011920929,0.800000011920929);
#424=CARTESIAN_POINT('',(5.0,0.4,0.0));
#425=VECTOR('',#549,1.0);
#426=DRAUGHTING_PRE_DEFINED_CURVE_FONT('continuous');
#427=COLOUR_RGB('',0.800000011920929,0.800000011920929,0.800000011920929);
#428=CARTESIAN_POINT('',(4.6,0.0,0.0));
#429=VECTOR('',#550,1.0);
#430=PRE_DEFINED_MARKER('');
#431=COLOUR_RGB('',0.800000011920929,0.800000011920929,0.800000011920929);
#432=DRAUGHTING_PRE_DEFINED_CURVE_FONT('continuous');
#433=COLOUR_RGB('',0.800000011920929,0.800000011920929,0.800000011920929);
#434=AXIS2_PLACEMENT_3D('',#551,#552,#553);
#435=DRAUGHTING_PRE_DEFINED_CURVE_FONT('continuous');
#436=COLOUR_RGB('',0.800000011920929,0.800000011920929,0.800000011920929);
#437=CARTESIAN_POINT('',(9.99991200956174E-011,4.6,0.0));
#438=VECTOR('',#554,1.0);
#439=DRAUGHTING_PRE_DEFINED_CURVE_FONT('continuous');
#440=COLOUR_RGB('',0.800000011920929,0.800000011920929,0.800000011920929);
#441=AXIS2_PLACEMENT_3D('',#555,#556,#557);
#442=SURFACE_SIDE_STYLE('',(#558));
#443=EDGE_LOOP('',(#559,#560,#561,#562,#563,#564,#565,#566));
#444=AXIS2_PLACEMENT_3D('',#567,#568,#569);
#445=PRE_DEFINED_MARKER('');
#446=COLOUR_RGB('',0.800000011920929,0.800000011920929,0.800000011920929);
#447=DRAUGHTING_PRE_DEFINED_CURVE_FONT('continuous');
#448=COLOUR_RGB('',0.800000011920929,0.800000011920929,0.800000011920929);
#449=CARTESIAN_POINT('',(0.4,0.309189836345262,-2.2));
#450=VECTOR('',#570,1.0);
#451=PRE_DEFINED_MARKER('');
#452=COLOUR_RGB('',0.800000011920929,0.800000011920929,0.800000011920929);
#453=SURFACE_SIDE_STYLE('',(#571));
#454=EDGE_LOOP('',(#572,#573,#574,#575));
#455=AXIS2_PLACEMENT_3D('',#576,#577,#578);
#456=PRE_DEFINED_MARKER('');
#457=COLOUR_RGB('',0.800000011920929,0.800000011920929,0.800000011920929);
#458=SURFACE_SIDE_STYLE('',(#579));
#459=EDGE_LOOP('',(#580,#581,#582,#583,#584,#585,#586,#587));
#460=AXIS2_PLACEMENT_3D('',#588,#589,#590);
#462=DIRECTION('',(0.0,-0.139173100915926,-0.990268068747774));
#463=DIRECTION('',(3.47932694490801E-011,-0.139173101004206,-0.990268068735367));
#464=SURFACE_STYLE_FILL_AREA(#591);
#465=ORIENTED_EDGE('',*,*,#97,.T.);
#466=ORIENTED_EDGE('',*,*,#129,.F.);
#467=ORIENTED_EDGE('',*,*,#89,.F.);
#468=ORIENTED_EDGE('',*,*,#153,.T.);
#469=CARTESIAN_POINT('',(4.5999999999,0.4000000001,0.0));
#470=DIRECTION('',(-0.0,-0.0,1.0));
#471=DIRECTION('',(2.50000020685093E-010,-1.0,0.0));
#472=DIRECTION('',(1.0,0.0,0.0));
#473=SURFACE_STYLE_FILL_AREA(#592);
#474=ORIENTED_EDGE('',*,*,#161,.T.);
#475=ORIENTED_EDGE('',*,*,#75,.F.);
#476=ORIENTED_EDGE('',*,*,#127,.F.);
#477=ORIENTED_EDGE('',*,*,#125,.T.);
#478=CARTESIAN_POINT('',(4.5999999999,4.5999999999,0.0));
#479=DIRECTION('',(-0.0,-0.0,1.0));
#480=DIRECTION('',(1.0,2.50002241131141E-010,0.0));
#481=CARTESIAN_POINT('',(4.5999999999,0.4000000001,0.0));
#482=DIRECTION('',(0.0,0.0,1.0));
#483=DIRECTION('',(2.50000020685093E-010,-1.0,0.0));
#484=DIRECTION('',(-1.0,0.0,0.0));
#485=SURFACE_STYLE_FILL_AREA(#593);
#486=ORIENTED_EDGE('',*,*,#167,.T.);
#487=ORIENTED_EDGE('',*,*,#153,.F.);
#488=ORIENTED_EDGE('',*,*,#83,.F.);
#489=ORIENTED_EDGE('',*,*,#115,.T.);
#490=CARTESIAN_POINT('',(0.4,0.0,0.0));
#491=DIRECTION('',(-0.0,-0.99026806874157,-0.139173100960066));
#492=DIRECTION('',(-1.0,0.0,0.0));
#493=CARTESIAN_POINT('',(4.5999999999,0.4000000001,-2.2));
#494=DIRECTION('',(0.0,0.0,1.0));
#495=DIRECTION('',(2.50000020685093E-010,-1.0,0.0));
#496=SURFACE_STYLE_FILL_AREA(#594);
#497=ORIENTED_EDGE('',*,*,#105,.T.);
#498=ORIENTED_EDGE('',*,*,#141,.F.);
#499=ORIENTED_EDGE('',*,*,#107,.F.);
#500=ORIENTED_EDGE('',*,*,#159,.T.);
#501=CARTESIAN_POINT('',(9.99991200956174E-011,4.6,0.0));
#502=DIRECTION('',(-0.990268068747774,0.0,-0.139173100915926));
#503=DIRECTION('',(0.0,1.0,0.0));
#504=DIRECTION('',(-1.0,0.0,0.0));
#505=DIRECTION('',(0.0,-1.0,0.0));
#506=DIRECTION('',(0.0,-1.0,0.0));
#507=DIRECTION('',(0.0,1.0,0.0));
#508=DIRECTION('',(0.0,0.139173100960066,-0.99026806874157));
#509=SURFACE_STYLE_FILL_AREA(#595);
#510=ORIENTED_EDGE('',*,*,#103,.T.);
#511=ORIENTED_EDGE('',*,*,#77,.F.);
#512=ORIENTED_EDGE('',*,*,#91,.F.);
#513=ORIENTED_EDGE('',*,*,#75,.T.);
#514=CARTESIAN_POINT('',(4.6,4.9999999999,0.0));
#515=DIRECTION('',(0.0,0.990268068747774,-0.139173100915926));
#516=DIRECTION('',(1.0,-0.0,0.0));
#517=SURFACE_STYLE_FILL_AREA(#596);
#518=DIRECTION('',(-0.139173101004206,-3.47935942772468E-011,-0.990268068735367));
#519=CARTESIAN_POINT('',(4.5999999999,4.5999999999,0.0));
#520=DIRECTION('',(0.0,-0.0,1.0));
#521=DIRECTION('',(1.0,2.50002241131141E-010,0.0));
#522=DIRECTION('',(-0.139173100915926,0.0,-0.990268068747774));
#523=CARTESIAN_POINT('',(0.4000000001,4.5999999999,0.0));
#524=DIRECTION('',(0.0,0.0,1.0));
#525=DIRECTION('',(-2.50001269685995E-010,1.0,0.0));
#526=CARTESIAN_POINT('',(0.4000000001,0.4000000001,0.0));
#527=DIRECTION('',(0.0,0.0,1.0));
#528=DIRECTION('',(-1.0,-2.49998494128434E-010,0.0));
#529=SURFACE_STYLE_FILL_AREA(#597);
#530=ORIENTED_EDGE('',*,*,#109,.T.);
#531=ORIENTED_EDGE('',*,*,#125,.F.);
#532=ORIENTED_EDGE('',*,*,#151,.F.);
#533=ORIENTED_EDGE('',*,*,#129,.T.);
#534=CARTESIAN_POINT('',(4.9999999999,0.4,0.0));
#535=DIRECTION('',(0.990268068747774,-0.0,-0.139173100915926));
#536=DIRECTION('',(-0.0,-1.0,0.0));
#537=CARTESIAN_POINT('',(0.4000000001,4.5999999999,-2.2));
#538=DIRECTION('',(0.0,0.0,1.0));
#539=DIRECTION('',(-2.50001269685995E-010,1.0,0.0));
#540=DIRECTION('',(0.139173101004206,3.47931195283878E-011,-0.990268068735367));
#541=SURFACE_STYLE_FILL_AREA(#598);
#542=ORIENTED_EDGE('',*,*,#157,.T.);
#543=ORIENTED_EDGE('',*,*,#115,.F.);
#544=ORIENTED_EDGE('',*,*,#135,.F.);
#545=ORIENTED_EDGE('',*,*,#141,.T.);
#546=CARTESIAN_POINT('',(0.4000000001,0.4000000001,0.0));
#547=DIRECTION('',(0.0,-0.0,1.0));
#548=DIRECTION('',(-1.0,-2.49998494128434E-010,0.0));
#549=DIRECTION('',(0.0,1.0,0.0));
#550=DIRECTION('',(-3.4792794700221E-011,0.139173101004206,-0.990268068735367));
#551=CARTESIAN_POINT('',(0.4000000001,0.4000000001,-2.2));
#552=DIRECTION('',(0.0,0.0,1.0));
#553=DIRECTION('',(-1.0,-2.49998494128434E-010,0.0));
#554=DIRECTION('',(0.139173100915926,0.0,-0.990268068747774));
#555=CARTESIAN_POINT('',(4.5999999999,4.5999999999,-2.2));
#556=DIRECTION('',(0.0,-0.0,1.0));
#557=DIRECTION('',(1.0,2.50002241131141E-010,0.0));
#558=SURFACE_STYLE_FILL_AREA(#599);
#559=ORIENTED_EDGE('',*,*,#97,.F.);
#560=ORIENTED_EDGE('',*,*,#167,.F.);
#561=ORIENTED_EDGE('',*,*,#157,.F.);
#562=ORIENTED_EDGE('',*,*,#105,.F.);
#563=ORIENTED_EDGE('',*,*,#139,.F.);
#564=ORIENTED_EDGE('',*,*,#103,.F.);
#565=ORIENTED_EDGE('',*,*,#161,.F.);
#566=ORIENTED_EDGE('',*,*,#109,.F.);
#567=CARTESIAN_POINT('',(2.5,2.5,-2.2));
#568=DIRECTION('',(0.0,0.0,1.0));
#569=DIRECTION('',(1.0,0.0,0.0));
#570=DIRECTION('',(1.0,0.0,0.0));
#571=SURFACE_STYLE_FILL_AREA(#600);
#572=ORIENTED_EDGE('',*,*,#139,.T.);
#573=ORIENTED_EDGE('',*,*,#159,.F.);
#574=ORIENTED_EDGE('',*,*,#131,.F.);
#575=ORIENTED_EDGE('',*,*,#77,.T.);
#576=CARTESIAN_POINT('',(0.4000000001,4.5999999999,0.0));
#577=DIRECTION('',(-0.0,-0.0,1.0));
#578=DIRECTION('',(-2.50001269685995E-010,1.0,0.0));
#579=SURFACE_STYLE_FILL_AREA(#601);
#580=ORIENTED_EDGE('',*,*,#83,.T.);
#581=ORIENTED_EDGE('',*,*,#89,.T.);
#582=ORIENTED_EDGE('',*,*,#151,.T.);
#583=ORIENTED_EDGE('',*,*,#127,.T.);
#584=ORIENTED_EDGE('',*,*,#91,.T.);
#585=ORIENTED_EDGE('',*,*,#131,.T.);
#586=ORIENTED_EDGE('',*,*,#107,.T.);
#587=ORIENTED_EDGE('',*,*,#135,.T.);
#588=CARTESIAN_POINT('',(2.5,2.5,0.0));
#589=DIRECTION('',(0.0,0.0,1.0));
#590=DIRECTION('',(1.0,0.0,0.0));
#591=FILL_AREA_STYLE('',(#602));
#592=FILL_AREA_STYLE('',(#603));
#593=FILL_AREA_STYLE('',(#604));
#594=FILL_AREA_STYLE('',(#605));
#595=FILL_AREA_STYLE('',(#606));
#596=FILL_AREA_STYLE('',(#607));
#597=FILL_AREA_STYLE('',(#608));
#598=FILL_AREA_STYLE('',(#609));
#599=FILL_AREA_STYLE('',(#610));
#600=FILL_AREA_STYLE('',(#611));
#601=FILL_AREA_STYLE('',(#612));
#602=FILL_AREA_STYLE_COLOUR('',#613);
#603=FILL_AREA_STYLE_COLOUR('',#614);
#604=FILL_AREA_STYLE_COLOUR('',#615);
#605=FILL_AREA_STYLE_COLOUR('',#616);
#606=FILL_AREA_STYLE_COLOUR('',#617);
#607=FILL_AREA_STYLE_COLOUR('',#618);
#608=FILL_AREA_STYLE_COLOUR('',#619);
#609=FILL_AREA_STYLE_COLOUR('',#620);
#610=FILL_AREA_STYLE_COLOUR('',#621);
#611=FILL_AREA_STYLE_COLOUR('',#622);
#612=FILL_AREA_STYLE_COLOUR('',#623);
#613=COLOUR_RGB('',0.800000011920929,0.800000011920929,0.800000011920929);
#614=COLOUR_RGB('',0.800000011920929,0.800000011920929,0.800000011920929);
#615=COLOUR_RGB('',0.800000011920929,0.800000011920929,0.800000011920929);
#616=COLOUR_RGB('',0.800000011920929,0.800000011920929,0.800000011920929);
#617=COLOUR_RGB('',0.800000011920929,0.800000011920929,0.800000011920929);
#618=COLOUR_RGB('',0.800000011920929,0.800000011920929,0.800000011920929);
#619=COLOUR_RGB('',0.800000011920929,0.800000011920929,0.800000011920929);
#620=COLOUR_RGB('',0.800000011920929,0.800000011920929,0.800000011920929);
#621=COLOUR_RGB('',0.800000011920929,0.800000011920929,0.800000011920929);
#622=COLOUR_RGB('',0.800000011920929,0.800000011920929,0.800000011920929);
#623=COLOUR_RGB('',0.800000011920929,0.800000011920929,0.800000011920929);
#624=AXIS2_PLACEMENT_3D('PCS',#625,#626,#627);
#625=CARTESIAN_POINT('',(0.0,0.0,0.0));
#626=DIRECTION('',(0.0,0.0,1.0));
#627=DIRECTION('',(1.0,0.0,0.0));
#628=AXIS2_PLACEMENT_3D('MCS',#629,#630,#631);
#629=CARTESIAN_POINT('',(2.5,2.5,0.0));
#630=DIRECTION('',(0.0,0.0,1.0));
#631=DIRECTION('',(1.0,0.0,0.0));
#632=CONSTRUCTIVE_GEOMETRY_REPRESENTATION_RELATIONSHIP('coordinate systems',$,#65,#633);
#633=CONSTRUCTIVE_GEOMETRY_REPRESENTATION('coordinate systems',(#624,#628),#6);
ENDSEC;
END-ISO-10303-21;
