ISO-10303-21;
HEADER;
FILE_DESCRIPTION(('no description'),'unknown implementation level');
FILE_NAME('solidk14GeNMWNrCiCH_qTct7XgxM3_I_1.STP','  ',('CIMSOURCE GmbH'),('CADClick - KiM GmbH - www.kimweb.de'),'unknown preprocess','ACIS','unknown authorization');
FILE_SCHEMA(('automotive_design'));
ENDSEC;
DATA;
#1=MECHANICAL_DESIGN_GEOMETRIC_PRESENTATION_REPRESENTATION(' ',(#10,#11,#12,#13,#14,#15,#16,#17,#18,#19,#20,#21,#22,#23,#24,#25,#26,#27,#28,#29,#30,#31,#32,#33,#34,#35,#36,#37,#38,#39,#40,#41,#42,#43,#44,#45,#46,#47,#48,#49,#50,#51,#52,#53,#54,#55,#56,#57,#58,#59,#60),#6);
#2=PRODUCT_DEFINITION_CONTEXT('',#61,'design');
#3=APPLICATION_PROTOCOL_DEFINITION('INTERNATIONAL STANDARD','automotive_design',1994,#61);
#4=PRODUCT_CATEGORY_RELATIONSHIP('NONE','NONE',#62,#63);
#5=SHAPE_DEFINITION_REPRESENTATION(#64,#65);
#6= (GEOMETRIC_REPRESENTATION_CONTEXT(3)GLOBAL_UNCERTAINTY_ASSIGNED_CONTEXT((#68))GLOBAL_UNIT_ASSIGNED_CONTEXT((#70,#71,#72))REPRESENTATION_CONTEXT('NONE','WORKSPACE'));
#10=STYLED_ITEM('',(#74),#75);
#11=STYLED_ITEM('',(#76),#77);
#12=STYLED_ITEM('',(#78),#79);
#13=STYLED_ITEM('',(#80),#81);
#14=STYLED_ITEM('',(#82),#83);
#15=STYLED_ITEM('',(#84),#85);
#16=STYLED_ITEM('',(#86),#87);
#17=STYLED_ITEM('',(#88),#89);
#18=STYLED_ITEM('',(#90),#91);
#19=STYLED_ITEM('',(#92),#93);
#20=STYLED_ITEM('',(#94),#95);
#21=STYLED_ITEM('',(#96),#97);
#22=STYLED_ITEM('',(#98),#99);
#23=STYLED_ITEM('',(#100),#101);
#24=STYLED_ITEM('',(#102),#103);
#25=STYLED_ITEM('',(#104),#105);
#26=STYLED_ITEM('',(#106),#107);
#27=STYLED_ITEM('',(#108),#109);
#28=STYLED_ITEM('',(#110),#111);
#29=STYLED_ITEM('',(#112),#113);
#30=STYLED_ITEM('',(#114),#115);
#31=STYLED_ITEM('',(#116),#117);
#32=STYLED_ITEM('',(#118),#119);
#33=STYLED_ITEM('',(#120),#121);
#34=STYLED_ITEM('',(#122),#123);
#35=STYLED_ITEM('',(#124),#125);
#36=STYLED_ITEM('',(#126),#127);
#37=STYLED_ITEM('',(#128),#129);
#38=STYLED_ITEM('',(#130),#131);
#39=STYLED_ITEM('',(#132),#133);
#40=STYLED_ITEM('',(#134),#135);
#41=STYLED_ITEM('',(#136),#137);
#42=STYLED_ITEM('',(#138),#139);
#43=STYLED_ITEM('',(#140),#141);
#44=STYLED_ITEM('',(#142),#143);
#45=STYLED_ITEM('',(#144),#145);
#46=STYLED_ITEM('',(#146),#147);
#47=STYLED_ITEM('',(#148),#149);
#48=STYLED_ITEM('',(#150),#151);
#49=STYLED_ITEM('',(#152),#153);
#50=STYLED_ITEM('',(#154),#155);
#51=STYLED_ITEM('',(#156),#157);
#52=STYLED_ITEM('',(#158),#159);
#53=STYLED_ITEM('',(#160),#161);
#54=STYLED_ITEM('',(#162),#163);
#55=STYLED_ITEM('',(#164),#165);
#56=STYLED_ITEM('',(#166),#167);
#57=STYLED_ITEM('',(#168),#169);
#58=STYLED_ITEM('',(#170),#171);
#59=STYLED_ITEM('',(#172),#173);
#60=STYLED_ITEM('',(#174),#175);
#61=APPLICATION_CONTEXT(' ');
#62=PRODUCT_CATEGORY('part','NONE');
#63=PRODUCT_RELATED_PRODUCT_CATEGORY('detail',' ',(#176));
#64=PRODUCT_DEFINITION_SHAPE('NONE','NONE',#177);
#65=ADVANCED_BREP_SHAPE_REPRESENTATION('1',(#143,#178),#6);
#68=UNCERTAINTY_MEASURE_WITH_UNIT(LENGTH_MEASURE(1.0E-006),#70,'','');
#70= (CONVERSION_BASED_UNIT('MILLIMETRE',#181)LENGTH_UNIT()NAMED_UNIT(#184));
#71= (NAMED_UNIT(#186)PLANE_ANGLE_UNIT()SI_UNIT($,.RADIAN.));
#72= (NAMED_UNIT(#186)SOLID_ANGLE_UNIT()SI_UNIT($,.STERADIAN.));
#74=PRESENTATION_STYLE_ASSIGNMENT((#192));
#75=ADVANCED_FACE('',(#193),#194,.T.);
#76=PRESENTATION_STYLE_ASSIGNMENT((#195));
#77=VERTEX_POINT('',#196);
#78=PRESENTATION_STYLE_ASSIGNMENT((#197));
#79=VERTEX_POINT('',#198);
#80=PRESENTATION_STYLE_ASSIGNMENT((#199));
#81=VERTEX_POINT('',#200);
#82=PRESENTATION_STYLE_ASSIGNMENT((#201));
#83=VERTEX_POINT('',#202);
#84=PRESENTATION_STYLE_ASSIGNMENT((#203));
#85=EDGE_CURVE('',#83,#123,#204,.T.);
#86=PRESENTATION_STYLE_ASSIGNMENT((#205));
#87=VERTEX_POINT('',#206);
#88=PRESENTATION_STYLE_ASSIGNMENT((#207));
#89=VERTEX_POINT('',#208);
#90=PRESENTATION_STYLE_ASSIGNMENT((#209));
#91=EDGE_CURVE('',#161,#123,#210,.T.);
#92=PRESENTATION_STYLE_ASSIGNMENT((#211));
#93=VERTEX_POINT('',#212);
#94=PRESENTATION_STYLE_ASSIGNMENT((#213));
#95=VERTEX_POINT('',#214);
#96=PRESENTATION_STYLE_ASSIGNMENT((#215));
#97=EDGE_CURVE('',#95,#107,#216,.T.);
#98=PRESENTATION_STYLE_ASSIGNMENT((#217));
#99=EDGE_CURVE('',#77,#87,#218,.T.);
#100=PRESENTATION_STYLE_ASSIGNMENT((#219));
#101=EDGE_CURVE('',#95,#139,#220,.T.);
#102=PRESENTATION_STYLE_ASSIGNMENT((#221));
#103=EDGE_CURVE('',#137,#79,#222,.T.);
#104=PRESENTATION_STYLE_ASSIGNMENT((#223));
#105=ADVANCED_FACE('',(#224),#225,.T.);
#106=PRESENTATION_STYLE_ASSIGNMENT((#226));
#107=VERTEX_POINT('',#227);
#108=PRESENTATION_STYLE_ASSIGNMENT((#228));
#109=EDGE_CURVE('',#79,#171,#229,.T.);
#110=PRESENTATION_STYLE_ASSIGNMENT((#230));
#111=ADVANCED_FACE('',(#231),#232,.T.);
#112=PRESENTATION_STYLE_ASSIGNMENT((#233));
#113=EDGE_CURVE('',#77,#137,#234,.T.);
#114=PRESENTATION_STYLE_ASSIGNMENT((#235));
#115=EDGE_CURVE('',#93,#89,#236,.T.);
#116=PRESENTATION_STYLE_ASSIGNMENT((#237));
#117=EDGE_CURVE('',#87,#93,#238,.T.);
#118=PRESENTATION_STYLE_ASSIGNMENT((#239));
#119=ADVANCED_FACE('',(#240),#241,.T.);
#120=PRESENTATION_STYLE_ASSIGNMENT((#242));
#121=EDGE_CURVE('',#89,#161,#243,.T.);
#122=PRESENTATION_STYLE_ASSIGNMENT((#244));
#123=VERTEX_POINT('',#245);
#124=PRESENTATION_STYLE_ASSIGNMENT((#246));
#125=EDGE_CURVE('',#123,#107,#247,.T.);
#126=PRESENTATION_STYLE_ASSIGNMENT((#248));
#127=ADVANCED_FACE('',(#249),#250,.F.);
#128=PRESENTATION_STYLE_ASSIGNMENT((#251));
#129=EDGE_CURVE('',#107,#165,#252,.T.);
#130=PRESENTATION_STYLE_ASSIGNMENT((#253));
#131=ADVANCED_FACE('',(#254),#255,.T.);
#132=PRESENTATION_STYLE_ASSIGNMENT((#256));
#133=VERTEX_POINT('',#257);
#134=PRESENTATION_STYLE_ASSIGNMENT((#258));
#135=ADVANCED_FACE('',(#259),#260,.T.);
#136=PRESENTATION_STYLE_ASSIGNMENT((#261));
#137=VERTEX_POINT('',#262);
#138=PRESENTATION_STYLE_ASSIGNMENT((#263));
#139=VERTEX_POINT('',#264);
#140=PRESENTATION_STYLE_ASSIGNMENT((#265));
#141=EDGE_CURVE('',#139,#165,#266,.T.);
#142=PRESENTATION_STYLE_ASSIGNMENT((#267));
#143=MANIFOLD_SOLID_BREP('1',#268);
#144=PRESENTATION_STYLE_ASSIGNMENT((#269));
#145=ADVANCED_FACE('',(#270),#271,.T.);
#146=PRESENTATION_STYLE_ASSIGNMENT((#272));
#147=ADVANCED_FACE('',(#273),#274,.T.);
#148=PRESENTATION_STYLE_ASSIGNMENT((#275));
#149=EDGE_CURVE('',#81,#137,#276,.T.);
#150=PRESENTATION_STYLE_ASSIGNMENT((#277));
#151=EDGE_CURVE('',#87,#79,#278,.T.);
#152=PRESENTATION_STYLE_ASSIGNMENT((#279));
#153=EDGE_CURVE('',#93,#171,#280,.T.);
#154=PRESENTATION_STYLE_ASSIGNMENT((#281));
#155=EDGE_CURVE('',#89,#83,#282,.T.);
#156=PRESENTATION_STYLE_ASSIGNMENT((#283));
#157=EDGE_CURVE('',#83,#95,#284,.T.);
#158=PRESENTATION_STYLE_ASSIGNMENT((#285));
#159=ADVANCED_FACE('',(#286),#287,.T.);
#160=PRESENTATION_STYLE_ASSIGNMENT((#288));
#161=VERTEX_POINT('',#289);
#162=PRESENTATION_STYLE_ASSIGNMENT((#290));
#163=EDGE_CURVE('',#171,#161,#291,.T.);
#164=PRESENTATION_STYLE_ASSIGNMENT((#292));
#165=VERTEX_POINT('',#293);
#166=PRESENTATION_STYLE_ASSIGNMENT((#294));
#167=EDGE_CURVE('',#133,#81,#295,.T.);
#168=PRESENTATION_STYLE_ASSIGNMENT((#296));
#169=EDGE_CURVE('',#139,#133,#297,.T.);
#170=PRESENTATION_STYLE_ASSIGNMENT((#298));
#171=VERTEX_POINT('',#299);
#172=PRESENTATION_STYLE_ASSIGNMENT((#300));
#173=EDGE_CURVE('',#133,#77,#301,.T.);
#174=PRESENTATION_STYLE_ASSIGNMENT((#302));
#175=EDGE_CURVE('',#165,#81,#303,.T.);
#176=PRODUCT('1','1','PART-1-DESC',(#304));
#177=PRODUCT_DEFINITION('NONE','NONE',#305,#2);
#178=AXIS2_PLACEMENT_3D('',#306,#307,#308);
#181=LENGTH_MEASURE_WITH_UNIT(LENGTH_MEASURE(1.0),#309);
#184=DIMENSIONAL_EXPONENTS(1.0,0.0,0.0,0.0,0.0,0.0,0.0);
#186=DIMENSIONAL_EXPONENTS(0.0,0.0,0.0,0.0,0.0,0.0,0.0);
#192=SURFACE_STYLE_USAGE(.BOTH.,#310);
#193=FACE_OUTER_BOUND('',#311,.T.);
#194=CONICAL_SURFACE('',#312,0.4,0.139626340159547);
#195=POINT_STYLE(' ',#313,POSITIVE_LENGTH_MEASURE(1.0E-006),#314);
#196=CARTESIAN_POINT('',(5.8299999999,0.4,0.0));
#197=POINT_STYLE(' ',#315,POSITIVE_LENGTH_MEASURE(1.0E-006),#316);
#198=CARTESIAN_POINT('',(5.49270199661426,5.42999999991567,-2.4));
#199=POINT_STYLE(' ',#317,POSITIVE_LENGTH_MEASURE(1.0E-006),#318);
#200=CARTESIAN_POINT('',(5.42999999991568,0.33729800338574,-2.4));
#201=POINT_STYLE(' ',#319,POSITIVE_LENGTH_MEASURE(1.0E-006),#320);
#202=CARTESIAN_POINT('',(9.99991200956174E-011,5.43,0.0));
#203=CURVE_STYLE('',#321,POSITIVE_LENGTH_MEASURE(1.0E-006),#322);
#204=LINE('',#323,#324);
#205=POINT_STYLE(' ',#325,POSITIVE_LENGTH_MEASURE(1.0E-006),#326);
#206=CARTESIAN_POINT('',(5.83,5.43,0.0));
#207=POINT_STYLE(' ',#327,POSITIVE_LENGTH_MEASURE(1.0E-006),#328);
#208=CARTESIAN_POINT('',(0.4,5.83,0.0));
#209=CURVE_STYLE('',#329,POSITIVE_LENGTH_MEASURE(1.0E-006),#330);
#210=CIRCLE('',#331,0.0627019967142607);
#211=POINT_STYLE(' ',#332,POSITIVE_LENGTH_MEASURE(1.0E-006),#333);
#212=CARTESIAN_POINT('',(5.43,5.8299999999,0.0));
#213=POINT_STYLE(' ',#334,POSITIVE_LENGTH_MEASURE(1.0E-006),#335);
#214=CARTESIAN_POINT('',(0.0,0.4,0.0));
#215=CURVE_STYLE('',#336,POSITIVE_LENGTH_MEASURE(1.0E-006),#337);
#216=LINE('',#338,#339);
#217=CURVE_STYLE('',#340,POSITIVE_LENGTH_MEASURE(1.0E-006),#341);
#218=LINE('',#342,#343);
#219=CURVE_STYLE('',#344,POSITIVE_LENGTH_MEASURE(1.0E-006),#345);
#220=CIRCLE('',#346,0.4);
#221=CURVE_STYLE('',#347,POSITIVE_LENGTH_MEASURE(1.0E-006),#348);
#222=LINE('',#349,#350);
#223=SURFACE_STYLE_USAGE(.BOTH.,#351);
#224=FACE_OUTER_BOUND('',#352,.T.);
#225=PLANE('',#353);
#226=POINT_STYLE(' ',#354,POSITIVE_LENGTH_MEASURE(1.0E-006),#355);
#227=CARTESIAN_POINT('',(0.33729800338574,0.400000000084325,-2.4));
#228=CURVE_STYLE('',#356,POSITIVE_LENGTH_MEASURE(1.0E-006),#357);
#229=CIRCLE('',#358,0.0627019967142607);
#230=SURFACE_STYLE_USAGE(.BOTH.,#359);
#231=FACE_OUTER_BOUND('',#360,.T.);
#232=PLANE('',#361);
#233=CURVE_STYLE('',#362,POSITIVE_LENGTH_MEASURE(1.0E-006),#363);
#234=LINE('',#364,#365);
#235=CURVE_STYLE('',#366,POSITIVE_LENGTH_MEASURE(1.0E-006),#367);
#236=LINE('',#368,#369);
#237=CURVE_STYLE('',#370,POSITIVE_LENGTH_MEASURE(1.0E-006),#371);
#238=CIRCLE('',#372,0.400000000000001);
#239=SURFACE_STYLE_USAGE(.BOTH.,#373);
#240=FACE_OUTER_BOUND('',#374,.T.);
#241=CONICAL_SURFACE('',#375,0.400000000000001,0.139626340159547);
#242=CURVE_STYLE('',#376,POSITIVE_LENGTH_MEASURE(1.0E-006),#377);
#243=LINE('',#378,#379);
#244=POINT_STYLE(' ',#380,POSITIVE_LENGTH_MEASURE(1.0E-006),#381);
#245=CARTESIAN_POINT('',(0.337298003285741,5.43,-2.4));
#246=CURVE_STYLE('',#382,POSITIVE_LENGTH_MEASURE(1.0E-006),#383);
#247=LINE('',#384,#385);
#248=SURFACE_STYLE_USAGE(.BOTH.,#386);
#249=FACE_OUTER_BOUND('',#387,.T.);
#250=PLANE('',#388);
#251=CURVE_STYLE('',#389,POSITIVE_LENGTH_MEASURE(1.0E-006),#390);
#252=CIRCLE('',#391,0.0627019967142597);
#253=SURFACE_STYLE_USAGE(.BOTH.,#392);
#254=FACE_OUTER_BOUND('',#393,.T.);
#255=PLANE('',#394);
#256=POINT_STYLE(' ',#395,POSITIVE_LENGTH_MEASURE(1.0E-006),#396);
#257=CARTESIAN_POINT('',(5.43,0.0,0.0));
#258=SURFACE_STYLE_USAGE(.BOTH.,#397);
#259=FACE_OUTER_BOUND('',#398,.T.);
#260=CONICAL_SURFACE('',#399,0.4,0.139626340159547);
#261=POINT_STYLE(' ',#400,POSITIVE_LENGTH_MEASURE(1.0E-006),#401);
#262=CARTESIAN_POINT('',(5.49270199671426,0.4,-2.4));
#263=POINT_STYLE(' ',#402,POSITIVE_LENGTH_MEASURE(1.0E-006),#403);
#264=CARTESIAN_POINT('',(0.4,0.0,0.0));
#265=CURVE_STYLE('',#404,POSITIVE_LENGTH_MEASURE(1.0E-006),#405);
#266=LINE('',#406,#407);
#267=SURFACE_STYLE_USAGE(.BOTH.,#408);
#268=CLOSED_SHELL('',(#75,#145,#119,#111,#147,#131,#135,#159,#127,#105));
#269=SURFACE_STYLE_USAGE(.BOTH.,#409);
#270=FACE_OUTER_BOUND('',#410,.T.);
#271=PLANE('',#411);
#272=SURFACE_STYLE_USAGE(.BOTH.,#412);
#273=FACE_OUTER_BOUND('',#413,.T.);
#274=CONICAL_SURFACE('',#414,0.400000000000001,0.139626340159547);
#275=CURVE_STYLE('',#415,POSITIVE_LENGTH_MEASURE(1.0E-006),#416);
#276=CIRCLE('',#417,0.0627019967142595);
#277=CURVE_STYLE('',#418,POSITIVE_LENGTH_MEASURE(1.0E-006),#419);
#278=LINE('',#420,#421);
#279=CURVE_STYLE('',#422,POSITIVE_LENGTH_MEASURE(1.0E-006),#423);
#280=LINE('',#424,#425);
#281=CURVE_STYLE('',#426,POSITIVE_LENGTH_MEASURE(1.0E-006),#427);
#282=CIRCLE('',#428,0.400000000000001);
#283=CURVE_STYLE('',#429,POSITIVE_LENGTH_MEASURE(1.0E-006),#430);
#284=LINE('',#431,#432);
#285=SURFACE_STYLE_USAGE(.BOTH.,#433);
#286=FACE_OUTER_BOUND('',#434,.T.);
#287=PLANE('',#435);
#288=POINT_STYLE(' ',#436,POSITIVE_LENGTH_MEASURE(1.0E-006),#437);
#289=CARTESIAN_POINT('',(0.400000000084325,5.49270199661426,-2.4));
#290=CURVE_STYLE('',#438,POSITIVE_LENGTH_MEASURE(1.0E-006),#439);
#291=LINE('',#440,#441);
#292=POINT_STYLE(' ',#442,POSITIVE_LENGTH_MEASURE(1.0E-006),#443);
#293=CARTESIAN_POINT('',(0.4,0.337298003285741,-2.4));
#294=CURVE_STYLE('',#444,POSITIVE_LENGTH_MEASURE(1.0E-006),#445);
#295=LINE('',#446,#447);
#296=CURVE_STYLE('',#448,POSITIVE_LENGTH_MEASURE(1.0E-006),#449);
#297=LINE('',#450,#451);
#298=POINT_STYLE(' ',#452,POSITIVE_LENGTH_MEASURE(1.0E-006),#453);
#299=CARTESIAN_POINT('',(5.43,5.49270199671426,-2.4));
#300=CURVE_STYLE('',#454,POSITIVE_LENGTH_MEASURE(1.0E-006),#455);
#301=CIRCLE('',#456,0.4);
#302=CURVE_STYLE('',#457,POSITIVE_LENGTH_MEASURE(1.0E-006),#458);
#303=LINE('',#459,#460);
#304=PRODUCT_CONTEXT('',#61,'mechanical');
#305=PRODUCT_DEFINITION_FORMATION_WITH_SPECIFIED_SOURCE(' ','NONE',#176,.NOT_KNOWN.);
#306=CARTESIAN_POINT('',(0.0,0.0,0.0));
#307=DIRECTION('',(0.0,0.0,1.0));
#308=DIRECTION('',(1.0,0.0,0.0));
#309= (NAMED_UNIT(#184)LENGTH_UNIT()SI_UNIT(.MILLI.,.METRE.));
#310=SURFACE_SIDE_STYLE('',(#462));
#311=EDGE_LOOP('',(#463,#464,#465,#466));
#312=AXIS2_PLACEMENT_3D('',#467,#468,#469);
#313=PRE_DEFINED_MARKER('');
#314=COLOUR_RGB('',0.800000011920929,0.800000011920929,0.800000011920929);
#315=PRE_DEFINED_MARKER('');
#316=COLOUR_RGB('',0.800000011920929,0.800000011920929,0.800000011920929);
#317=PRE_DEFINED_MARKER('');
#318=COLOUR_RGB('',0.800000011920929,0.800000011920929,0.800000011920929);
#319=PRE_DEFINED_MARKER('');
#320=COLOUR_RGB('',0.800000011920929,0.800000011920929,0.800000011920929);
#321=DRAUGHTING_PRE_DEFINED_CURVE_FONT('continuous');
#322=COLOUR_RGB('',0.800000011920929,0.800000011920929,0.800000011920929);
#323=CARTESIAN_POINT('',(9.99991200956174E-011,5.43,0.0));
#324=VECTOR('',#470,1.0);
#325=PRE_DEFINED_MARKER('');
#326=COLOUR_RGB('',0.800000011920929,0.800000011920929,0.800000011920929);
#327=PRE_DEFINED_MARKER('');
#328=COLOUR_RGB('',0.800000011920929,0.800000011920929,0.800000011920929);
#329=DRAUGHTING_PRE_DEFINED_CURVE_FONT('continuous');
#330=COLOUR_RGB('',0.800000011920929,0.800000011920929,0.800000011920929);
#331=AXIS2_PLACEMENT_3D('',#471,#472,#473);
#332=PRE_DEFINED_MARKER('');
#333=COLOUR_RGB('',0.800000011920929,0.800000011920929,0.800000011920929);
#334=PRE_DEFINED_MARKER('');
#335=COLOUR_RGB('',0.800000011920929,0.800000011920929,0.800000011920929);
#336=DRAUGHTING_PRE_DEFINED_CURVE_FONT('continuous');
#337=COLOUR_RGB('',0.800000011920929,0.800000011920929,0.800000011920929);
#338=CARTESIAN_POINT('',(0.0,0.4,0.0));
#339=VECTOR('',#474,1.0);
#340=DRAUGHTING_PRE_DEFINED_CURVE_FONT('continuous');
#341=COLOUR_RGB('',0.800000011920929,0.800000011920929,0.800000011920929);
#342=CARTESIAN_POINT('',(5.83,0.4,0.0));
#343=VECTOR('',#475,1.0);
#344=DRAUGHTING_PRE_DEFINED_CURVE_FONT('continuous');
#345=COLOUR_RGB('',0.800000011920929,0.800000011920929,0.800000011920929);
#346=AXIS2_PLACEMENT_3D('',#476,#477,#478);
#347=DRAUGHTING_PRE_DEFINED_CURVE_FONT('continuous');
#348=COLOUR_RGB('',0.800000011920929,0.800000011920929,0.800000011920929);
#349=CARTESIAN_POINT('',(5.49270199671426,0.4,-2.4));
#350=VECTOR('',#479,1.0);
#351=SURFACE_SIDE_STYLE('',(#480));
#352=EDGE_LOOP('',(#481,#482,#483,#484,#485,#486,#487,#488));
#353=AXIS2_PLACEMENT_3D('',#489,#490,#491);
#354=PRE_DEFINED_MARKER('');
#355=COLOUR_RGB('',0.800000011920929,0.800000011920929,0.800000011920929);
#356=DRAUGHTING_PRE_DEFINED_CURVE_FONT('continuous');
#357=COLOUR_RGB('',0.800000011920929,0.800000011920929,0.800000011920929);
#358=AXIS2_PLACEMENT_3D('',#492,#493,#494);
#359=SURFACE_SIDE_STYLE('',(#495));
#360=EDGE_LOOP('',(#496,#497,#498,#499));
#361=AXIS2_PLACEMENT_3D('',#500,#501,#502);
#362=DRAUGHTING_PRE_DEFINED_CURVE_FONT('continuous');
#363=COLOUR_RGB('',0.800000011920929,0.800000011920929,0.800000011920929);
#364=CARTESIAN_POINT('',(5.8299999999,0.4,0.0));
#365=VECTOR('',#503,1.0);
#366=DRAUGHTING_PRE_DEFINED_CURVE_FONT('continuous');
#367=COLOUR_RGB('',0.800000011920929,0.800000011920929,0.800000011920929);
#368=CARTESIAN_POINT('',(5.43,5.83,0.0));
#369=VECTOR('',#504,1.0);
#370=DRAUGHTING_PRE_DEFINED_CURVE_FONT('continuous');
#371=COLOUR_RGB('',0.800000011920929,0.800000011920929,0.800000011920929);
#372=AXIS2_PLACEMENT_3D('',#505,#506,#507);
#373=SURFACE_SIDE_STYLE('',(#508));
#374=EDGE_LOOP('',(#509,#510,#511,#512));
#375=AXIS2_PLACEMENT_3D('',#513,#514,#515);
#376=DRAUGHTING_PRE_DEFINED_CURVE_FONT('continuous');
#377=COLOUR_RGB('',0.800000011920929,0.800000011920929,0.800000011920929);
#378=CARTESIAN_POINT('',(0.4,5.83,0.0));
#379=VECTOR('',#516,1.0);
#380=PRE_DEFINED_MARKER('');
#381=COLOUR_RGB('',0.800000011920929,0.800000011920929,0.800000011920929);
#382=DRAUGHTING_PRE_DEFINED_CURVE_FONT('continuous');
#383=COLOUR_RGB('',0.800000011920929,0.800000011920929,0.800000011920929);
#384=CARTESIAN_POINT('',(0.337298003285741,5.43,-2.4));
#385=VECTOR('',#517,1.0);
#386=SURFACE_SIDE_STYLE('',(#518));
#387=EDGE_LOOP('',(#519,#520,#521,#522,#523,#524,#525,#526));
#388=AXIS2_PLACEMENT_3D('',#527,#528,#529);
#389=DRAUGHTING_PRE_DEFINED_CURVE_FONT('continuous');
#390=COLOUR_RGB('',0.800000011920929,0.800000011920929,0.800000011920929);
#391=AXIS2_PLACEMENT_3D('',#530,#531,#532);
#392=SURFACE_SIDE_STYLE('',(#533));
#393=EDGE_LOOP('',(#534,#535,#536,#537));
#394=AXIS2_PLACEMENT_3D('',#538,#539,#540);
#395=PRE_DEFINED_MARKER('');
#396=COLOUR_RGB('',0.800000011920929,0.800000011920929,0.800000011920929);
#397=SURFACE_SIDE_STYLE('',(#541));
#398=EDGE_LOOP('',(#542,#543,#544,#545));
#399=AXIS2_PLACEMENT_3D('',#546,#547,#548);
#400=PRE_DEFINED_MARKER('');
#401=COLOUR_RGB('',0.800000011920929,0.800000011920929,0.800000011920929);
#402=PRE_DEFINED_MARKER('');
#403=COLOUR_RGB('',0.800000011920929,0.800000011920929,0.800000011920929);
#404=DRAUGHTING_PRE_DEFINED_CURVE_FONT('continuous');
#405=COLOUR_RGB('',0.800000011920929,0.800000011920929,0.800000011920929);
#406=CARTESIAN_POINT('',(0.4,0.0,0.0));
#407=VECTOR('',#549,1.0);
#408=SURFACE_SIDE_STYLE('',(#550));
#409=SURFACE_SIDE_STYLE('',(#551));
#410=EDGE_LOOP('',(#552,#553,#554,#555));
#411=AXIS2_PLACEMENT_3D('',#556,#557,#558);
#412=SURFACE_SIDE_STYLE('',(#559));
#413=EDGE_LOOP('',(#560,#561,#562,#563));
#414=AXIS2_PLACEMENT_3D('',#564,#565,#566);
#415=DRAUGHTING_PRE_DEFINED_CURVE_FONT('continuous');
#416=COLOUR_RGB('',0.800000011920929,0.800000011920929,0.800000011920929);
#417=AXIS2_PLACEMENT_3D('',#567,#568,#569);
#418=DRAUGHTING_PRE_DEFINED_CURVE_FONT('continuous');
#419=COLOUR_RGB('',0.800000011920929,0.800000011920929,0.800000011920929);
#420=CARTESIAN_POINT('',(5.83,5.43,0.0));
#421=VECTOR('',#570,1.0);
#422=DRAUGHTING_PRE_DEFINED_CURVE_FONT('continuous');
#423=COLOUR_RGB('',0.800000011920929,0.800000011920929,0.800000011920929);
#424=CARTESIAN_POINT('',(5.43,5.8299999999,0.0));
#425=VECTOR('',#571,1.0);
#426=DRAUGHTING_PRE_DEFINED_CURVE_FONT('continuous');
#427=COLOUR_RGB('',0.800000011920929,0.800000011920929,0.800000011920929);
#428=AXIS2_PLACEMENT_3D('',#572,#573,#574);
#429=DRAUGHTING_PRE_DEFINED_CURVE_FONT('continuous');
#430=COLOUR_RGB('',0.800000011920929,0.800000011920929,0.800000011920929);
#431=CARTESIAN_POINT('',(0.0,5.43,0.0));
#432=VECTOR('',#575,1.0);
#433=SURFACE_SIDE_STYLE('',(#576));
#434=EDGE_LOOP('',(#577,#578,#579,#580));
#435=AXIS2_PLACEMENT_3D('',#581,#582,#583);
#436=PRE_DEFINED_MARKER('');
#437=COLOUR_RGB('',0.800000011920929,0.800000011920929,0.800000011920929);
#438=DRAUGHTING_PRE_DEFINED_CURVE_FONT('continuous');
#439=COLOUR_RGB('',0.800000011920929,0.800000011920929,0.800000011920929);
#440=CARTESIAN_POINT('',(5.43,5.49270199671426,-2.4));
#441=VECTOR('',#584,1.0);
#442=PRE_DEFINED_MARKER('');
#443=COLOUR_RGB('',0.800000011920929,0.800000011920929,0.800000011920929);
#444=DRAUGHTING_PRE_DEFINED_CURVE_FONT('continuous');
#445=COLOUR_RGB('',0.800000011920929,0.800000011920929,0.800000011920929);
#446=CARTESIAN_POINT('',(5.43,0.0,0.0));
#447=VECTOR('',#585,1.0);
#448=DRAUGHTING_PRE_DEFINED_CURVE_FONT('continuous');
#449=COLOUR_RGB('',0.800000011920929,0.800000011920929,0.800000011920929);
#450=CARTESIAN_POINT('',(0.4,0.0,0.0));
#451=VECTOR('',#586,1.0);
#452=PRE_DEFINED_MARKER('');
#453=COLOUR_RGB('',0.800000011920929,0.800000011920929,0.800000011920929);
#454=DRAUGHTING_PRE_DEFINED_CURVE_FONT('continuous');
#455=COLOUR_RGB('',0.800000011920929,0.800000011920929,0.800000011920929);
#456=AXIS2_PLACEMENT_3D('',#587,#588,#589);
#457=DRAUGHTING_PRE_DEFINED_CURVE_FONT('continuous');
#458=COLOUR_RGB('',0.800000011920929,0.800000011920929,0.800000011920929);
#459=CARTESIAN_POINT('',(0.4,0.337298003285741,-2.4));
#460=VECTOR('',#590,1.0);
#462=SURFACE_STYLE_FILL_AREA(#591);
#463=ORIENTED_EDGE('',*,*,#149,.T.);
#464=ORIENTED_EDGE('',*,*,#113,.F.);
#465=ORIENTED_EDGE('',*,*,#173,.F.);
#466=ORIENTED_EDGE('',*,*,#167,.T.);
#467=CARTESIAN_POINT('',(5.4299999999,0.4000000001,0.0));
#468=DIRECTION('',(-0.0,-0.0,1.0));
#469=DIRECTION('',(2.50000020685093E-010,-1.0,0.0));
#470=DIRECTION('',(0.139173100919604,0.0,-0.990268068747257));
#471=CARTESIAN_POINT('',(0.4000000001,5.4299999999,-2.4));
#472=DIRECTION('',(0.0,0.0,1.0));
#473=DIRECTION('',(-2.50001269685995E-010,1.0,0.0));
#474=DIRECTION('',(0.139173101000528,3.47931341040288E-011,-0.990268068735884));
#475=DIRECTION('',(0.0,1.0,0.0));
#476=CARTESIAN_POINT('',(0.4000000001,0.4000000001,0.0));
#477=DIRECTION('',(0.0,0.0,1.0));
#478=DIRECTION('',(-1.0,-2.49998494128434E-010,0.0));
#479=DIRECTION('',(0.0,1.0,0.0));
#480=SURFACE_STYLE_FILL_AREA(#592);
#481=ORIENTED_EDGE('',*,*,#169,.T.);
#482=ORIENTED_EDGE('',*,*,#173,.T.);
#483=ORIENTED_EDGE('',*,*,#99,.T.);
#484=ORIENTED_EDGE('',*,*,#117,.T.);
#485=ORIENTED_EDGE('',*,*,#115,.T.);
#486=ORIENTED_EDGE('',*,*,#155,.T.);
#487=ORIENTED_EDGE('',*,*,#157,.T.);
#488=ORIENTED_EDGE('',*,*,#101,.T.);
#489=CARTESIAN_POINT('',(2.915,2.915,0.0));
#490=DIRECTION('',(0.0,0.0,1.0));
#491=DIRECTION('',(1.0,0.0,0.0));
#492=CARTESIAN_POINT('',(5.4299999999,5.4299999999,-2.4));
#493=DIRECTION('',(0.0,-0.0,1.0));
#494=DIRECTION('',(1.0,2.50002241131141E-010,0.0));
#495=SURFACE_STYLE_FILL_AREA(#593);
#496=ORIENTED_EDGE('',*,*,#163,.T.);
#497=ORIENTED_EDGE('',*,*,#121,.F.);
#498=ORIENTED_EDGE('',*,*,#115,.F.);
#499=ORIENTED_EDGE('',*,*,#153,.T.);
#500=CARTESIAN_POINT('',(5.43,5.8299999999,0.0));
#501=DIRECTION('',(0.0,0.990268068747257,-0.139173100919604));
#502=DIRECTION('',(1.0,-0.0,0.0));
#503=DIRECTION('',(-0.139173100919604,0.0,-0.990268068747257));
#504=DIRECTION('',(-1.0,0.0,0.0));
#505=CARTESIAN_POINT('',(5.4299999999,5.4299999999,0.0));
#506=DIRECTION('',(0.0,-0.0,1.0));
#507=DIRECTION('',(1.0,2.50002241131141E-010,0.0));
#508=SURFACE_STYLE_FILL_AREA(#594);
#509=ORIENTED_EDGE('',*,*,#109,.T.);
#510=ORIENTED_EDGE('',*,*,#153,.F.);
#511=ORIENTED_EDGE('',*,*,#117,.F.);
#512=ORIENTED_EDGE('',*,*,#151,.T.);
#513=CARTESIAN_POINT('',(5.4299999999,5.4299999999,0.0));
#514=DIRECTION('',(-0.0,-0.0,1.0));
#515=DIRECTION('',(1.0,2.50002241131141E-010,0.0));
#516=DIRECTION('',(3.47932715313301E-011,-0.139173101000528,-0.990268068735884));
#517=DIRECTION('',(0.0,-1.0,0.0));
#518=SURFACE_STYLE_FILL_AREA(#595);
#519=ORIENTED_EDGE('',*,*,#149,.F.);
#520=ORIENTED_EDGE('',*,*,#175,.F.);
#521=ORIENTED_EDGE('',*,*,#129,.F.);
#522=ORIENTED_EDGE('',*,*,#125,.F.);
#523=ORIENTED_EDGE('',*,*,#91,.F.);
#524=ORIENTED_EDGE('',*,*,#163,.F.);
#525=ORIENTED_EDGE('',*,*,#109,.F.);
#526=ORIENTED_EDGE('',*,*,#103,.F.);
#527=CARTESIAN_POINT('',(2.915,2.915,-2.4));
#528=DIRECTION('',(0.0,0.0,1.0));
#529=DIRECTION('',(1.0,0.0,0.0));
#530=CARTESIAN_POINT('',(0.4000000001,0.4000000001,-2.4));
#531=DIRECTION('',(0.0,0.0,1.0));
#532=DIRECTION('',(-1.0,-2.49998494128434E-010,0.0));
#533=SURFACE_STYLE_FILL_AREA(#596);
#534=ORIENTED_EDGE('',*,*,#125,.T.);
#535=ORIENTED_EDGE('',*,*,#97,.F.);
#536=ORIENTED_EDGE('',*,*,#157,.F.);
#537=ORIENTED_EDGE('',*,*,#85,.T.);
#538=CARTESIAN_POINT('',(9.99991200956174E-011,5.43,0.0));
#539=DIRECTION('',(-0.990268068747257,0.0,-0.139173100919604));
#540=DIRECTION('',(0.0,1.0,0.0));
#541=SURFACE_STYLE_FILL_AREA(#597);
#542=ORIENTED_EDGE('',*,*,#129,.T.);
#543=ORIENTED_EDGE('',*,*,#141,.F.);
#544=ORIENTED_EDGE('',*,*,#101,.F.);
#545=ORIENTED_EDGE('',*,*,#97,.T.);
#546=CARTESIAN_POINT('',(0.4000000001,0.4000000001,0.0));
#547=DIRECTION('',(0.0,-0.0,1.0));
#548=DIRECTION('',(-1.0,-2.49998494128434E-010,0.0));
#549=DIRECTION('',(0.0,0.139173100960066,-0.99026806874157));
#550=SURFACE_STYLE_FILL_AREA(#598);
#551=SURFACE_STYLE_FILL_AREA(#599);
#552=ORIENTED_EDGE('',*,*,#103,.T.);
#553=ORIENTED_EDGE('',*,*,#151,.F.);
#554=ORIENTED_EDGE('',*,*,#99,.F.);
#555=ORIENTED_EDGE('',*,*,#113,.T.);
#556=CARTESIAN_POINT('',(5.8299999999,0.4,0.0));
#557=DIRECTION('',(0.990268068747257,-0.0,-0.139173100919604));
#558=DIRECTION('',(-0.0,-1.0,0.0));
#559=SURFACE_STYLE_FILL_AREA(#600);
#560=ORIENTED_EDGE('',*,*,#91,.T.);
#561=ORIENTED_EDGE('',*,*,#85,.F.);
#562=ORIENTED_EDGE('',*,*,#155,.F.);
#563=ORIENTED_EDGE('',*,*,#121,.T.);
#564=CARTESIAN_POINT('',(0.4000000001,5.4299999999,0.0));
#565=DIRECTION('',(-0.0,-0.0,1.0));
#566=DIRECTION('',(-2.50001269685995E-010,1.0,0.0));
#567=CARTESIAN_POINT('',(5.4299999999,0.4000000001,-2.4));
#568=DIRECTION('',(0.0,0.0,1.0));
#569=DIRECTION('',(2.50000020685093E-010,-1.0,0.0));
#570=DIRECTION('',(-0.139173101000528,-3.47936609086838E-011,-0.990268068735884));
#571=DIRECTION('',(0.0,-0.139173100919604,-0.990268068747257));
#572=CARTESIAN_POINT('',(0.4000000001,5.4299999999,0.0));
#573=DIRECTION('',(0.0,0.0,1.0));
#574=DIRECTION('',(-2.50001269685995E-010,1.0,0.0));
#575=DIRECTION('',(0.0,-1.0,0.0));
#576=SURFACE_STYLE_FILL_AREA(#601);
#577=ORIENTED_EDGE('',*,*,#175,.T.);
#578=ORIENTED_EDGE('',*,*,#167,.F.);
#579=ORIENTED_EDGE('',*,*,#169,.F.);
#580=ORIENTED_EDGE('',*,*,#141,.T.);
#581=CARTESIAN_POINT('',(0.4,0.0,0.0));
#582=DIRECTION('',(-0.0,-0.99026806874157,-0.139173100960066));
#583=DIRECTION('',(-1.0,0.0,0.0));
#584=DIRECTION('',(-1.0,0.0,0.0));
#585=DIRECTION('',(-3.47929279630768E-011,0.139173101000528,-0.990268068735884));
#586=DIRECTION('',(1.0,0.0,0.0));
#587=CARTESIAN_POINT('',(5.4299999999,0.4000000001,0.0));
#588=DIRECTION('',(0.0,0.0,1.0));
#589=DIRECTION('',(2.50000020685093E-010,-1.0,0.0));
#590=DIRECTION('',(1.0,0.0,0.0));
#591=FILL_AREA_STYLE('',(#602));
#592=FILL_AREA_STYLE('',(#603));
#593=FILL_AREA_STYLE('',(#604));
#594=FILL_AREA_STYLE('',(#605));
#595=FILL_AREA_STYLE('',(#606));
#596=FILL_AREA_STYLE('',(#607));
#597=FILL_AREA_STYLE('',(#608));
#598=FILL_AREA_STYLE('',(#609));
#599=FILL_AREA_STYLE('',(#610));
#600=FILL_AREA_STYLE('',(#611));
#601=FILL_AREA_STYLE('',(#612));
#602=FILL_AREA_STYLE_COLOUR('',#613);
#603=FILL_AREA_STYLE_COLOUR('',#614);
#604=FILL_AREA_STYLE_COLOUR('',#615);
#605=FILL_AREA_STYLE_COLOUR('',#616);
#606=FILL_AREA_STYLE_COLOUR('',#617);
#607=FILL_AREA_STYLE_COLOUR('',#618);
#608=FILL_AREA_STYLE_COLOUR('',#619);
#609=FILL_AREA_STYLE_COLOUR('',#620);
#610=FILL_AREA_STYLE_COLOUR('',#621);
#611=FILL_AREA_STYLE_COLOUR('',#622);
#612=FILL_AREA_STYLE_COLOUR('',#623);
#613=COLOUR_RGB('',0.800000011920929,0.800000011920929,0.800000011920929);
#614=COLOUR_RGB('',0.800000011920929,0.800000011920929,0.800000011920929);
#615=COLOUR_RGB('',0.800000011920929,0.800000011920929,0.800000011920929);
#616=COLOUR_RGB('',0.800000011920929,0.800000011920929,0.800000011920929);
#617=COLOUR_RGB('',0.800000011920929,0.800000011920929,0.800000011920929);
#618=COLOUR_RGB('',0.800000011920929,0.800000011920929,0.800000011920929);
#619=COLOUR_RGB('',0.800000011920929,0.800000011920929,0.800000011920929);
#620=COLOUR_RGB('',0.800000011920929,0.800000011920929,0.800000011920929);
#621=COLOUR_RGB('',0.800000011920929,0.800000011920929,0.800000011920929);
#622=COLOUR_RGB('',0.800000011920929,0.800000011920929,0.800000011920929);
#623=COLOUR_RGB('',0.800000011920929,0.800000011920929,0.800000011920929);
#624=AXIS2_PLACEMENT_3D('PCS',#625,#626,#627);
#625=CARTESIAN_POINT('',(0.0,0.0,0.0));
#626=DIRECTION('',(0.0,0.0,1.0));
#627=DIRECTION('',(1.0,0.0,0.0));
#628=AXIS2_PLACEMENT_3D('MCS',#629,#630,#631);
#629=CARTESIAN_POINT('',(2.915,2.915,0.0));
#630=DIRECTION('',(0.0,0.0,1.0));
#631=DIRECTION('',(1.0,0.0,0.0));
#632=CONSTRUCTIVE_GEOMETRY_REPRESENTATION_RELATIONSHIP('coordinate systems',$,#65,#633);
#633=CONSTRUCTIVE_GEOMETRY_REPRESENTATION('coordinate systems',(#624,#628),#6);
ENDSEC;
END-ISO-10303-21;
