ISO-10303-21;
HEADER;
FILE_DESCRIPTION(('no description'),'unknown implementation level');
FILE_NAME('solid0IF1a_qMz9w_oXJec_8NHwCBlNo_1.STP','  ',('CIMSOURCE GmbH'),('CADClick - KiM GmbH - www.kimweb.de'),'unknown preprocess','ACIS','unknown authorization');
FILE_SCHEMA(('automotive_design'));
ENDSEC;
DATA;
#1=MECHANICAL_DESIGN_GEOMETRIC_PRESENTATION_REPRESENTATION(' ',(#10,#11,#12,#13,#14,#15,#16,#17,#18,#19,#20,#21,#22,#23,#24,#25,#26,#27,#28,#29,#30,#31,#32,#33,#34,#35,#36,#37,#38,#39,#40,#41,#42,#43,#44,#45,#46,#47,#48,#49,#50,#51,#52,#53,#54,#55,#56,#57,#58,#59,#60),#6);
#2=PRODUCT_DEFINITION_CONTEXT('',#61,'design');
#3=APPLICATION_PROTOCOL_DEFINITION('INTERNATIONAL STANDARD','automotive_design',1994,#61);
#4=PRODUCT_CATEGORY_RELATIONSHIP('NONE','NONE',#62,#63);
#5=SHAPE_DEFINITION_REPRESENTATION(#64,#65);
#6= (GEOMETRIC_REPRESENTATION_CONTEXT(3)GLOBAL_UNCERTAINTY_ASSIGNED_CONTEXT((#68))GLOBAL_UNIT_ASSIGNED_CONTEXT((#70,#71,#72))REPRESENTATION_CONTEXT('NONE','WORKSPACE'));
#10=STYLED_ITEM('',(#74),#75);
#11=STYLED_ITEM('',(#76),#77);
#12=STYLED_ITEM('',(#78),#79);
#13=STYLED_ITEM('',(#80),#81);
#14=STYLED_ITEM('',(#82),#83);
#15=STYLED_ITEM('',(#84),#85);
#16=STYLED_ITEM('',(#86),#87);
#17=STYLED_ITEM('',(#88),#89);
#18=STYLED_ITEM('',(#90),#91);
#19=STYLED_ITEM('',(#92),#93);
#20=STYLED_ITEM('',(#94),#95);
#21=STYLED_ITEM('',(#96),#97);
#22=STYLED_ITEM('',(#98),#99);
#23=STYLED_ITEM('',(#100),#101);
#24=STYLED_ITEM('',(#102),#103);
#25=STYLED_ITEM('',(#104),#105);
#26=STYLED_ITEM('',(#106),#107);
#27=STYLED_ITEM('',(#108),#109);
#28=STYLED_ITEM('',(#110),#111);
#29=STYLED_ITEM('',(#112),#113);
#30=STYLED_ITEM('',(#114),#115);
#31=STYLED_ITEM('',(#116),#117);
#32=STYLED_ITEM('',(#118),#119);
#33=STYLED_ITEM('',(#120),#121);
#34=STYLED_ITEM('',(#122),#123);
#35=STYLED_ITEM('',(#124),#125);
#36=STYLED_ITEM('',(#126),#127);
#37=STYLED_ITEM('',(#128),#129);
#38=STYLED_ITEM('',(#130),#131);
#39=STYLED_ITEM('',(#132),#133);
#40=STYLED_ITEM('',(#134),#135);
#41=STYLED_ITEM('',(#136),#137);
#42=STYLED_ITEM('',(#138),#139);
#43=STYLED_ITEM('',(#140),#141);
#44=STYLED_ITEM('',(#142),#143);
#45=STYLED_ITEM('',(#144),#145);
#46=STYLED_ITEM('',(#146),#147);
#47=STYLED_ITEM('',(#148),#149);
#48=STYLED_ITEM('',(#150),#151);
#49=STYLED_ITEM('',(#152),#153);
#50=STYLED_ITEM('',(#154),#155);
#51=STYLED_ITEM('',(#156),#157);
#52=STYLED_ITEM('',(#158),#159);
#53=STYLED_ITEM('',(#160),#161);
#54=STYLED_ITEM('',(#162),#163);
#55=STYLED_ITEM('',(#164),#165);
#56=STYLED_ITEM('',(#166),#167);
#57=STYLED_ITEM('',(#168),#169);
#58=STYLED_ITEM('',(#170),#171);
#59=STYLED_ITEM('',(#172),#173);
#60=STYLED_ITEM('',(#174),#175);
#61=APPLICATION_CONTEXT(' ');
#62=PRODUCT_CATEGORY('part','NONE');
#63=PRODUCT_RELATED_PRODUCT_CATEGORY('detail',' ',(#176));
#64=PRODUCT_DEFINITION_SHAPE('NONE','NONE',#177);
#65=ADVANCED_BREP_SHAPE_REPRESENTATION('1',(#143,#178),#6);
#68=UNCERTAINTY_MEASURE_WITH_UNIT(LENGTH_MEASURE(1.0E-006),#70,'','');
#70= (CONVERSION_BASED_UNIT('MILLIMETRE',#181)LENGTH_UNIT()NAMED_UNIT(#184));
#71= (NAMED_UNIT(#186)PLANE_ANGLE_UNIT()SI_UNIT($,.RADIAN.));
#72= (NAMED_UNIT(#186)SOLID_ANGLE_UNIT()SI_UNIT($,.STERADIAN.));
#74=PRESENTATION_STYLE_ASSIGNMENT((#192));
#75=EDGE_CURVE('',#99,#91,#193,.T.);
#76=PRESENTATION_STYLE_ASSIGNMENT((#194));
#77=EDGE_CURVE('',#137,#151,#195,.T.);
#78=PRESENTATION_STYLE_ASSIGNMENT((#196));
#79=EDGE_CURVE('',#103,#153,#197,.T.);
#80=PRESENTATION_STYLE_ASSIGNMENT((#198));
#81=VERTEX_POINT('',#199);
#82=PRESENTATION_STYLE_ASSIGNMENT((#200));
#83=ADVANCED_FACE('',(#201),#202,.T.);
#84=PRESENTATION_STYLE_ASSIGNMENT((#203));
#85=VERTEX_POINT('',#204);
#86=PRESENTATION_STYLE_ASSIGNMENT((#205));
#87=ADVANCED_FACE('',(#206),#207,.T.);
#88=PRESENTATION_STYLE_ASSIGNMENT((#208));
#89=ADVANCED_FACE('',(#209),#210,.F.);
#90=PRESENTATION_STYLE_ASSIGNMENT((#211));
#91=VERTEX_POINT('',#212);
#92=PRESENTATION_STYLE_ASSIGNMENT((#213));
#93=EDGE_CURVE('',#165,#91,#214,.T.);
#94=PRESENTATION_STYLE_ASSIGNMENT((#215));
#95=EDGE_CURVE('',#167,#85,#216,.T.);
#96=PRESENTATION_STYLE_ASSIGNMENT((#217));
#97=EDGE_CURVE('',#133,#175,#218,.T.);
#98=PRESENTATION_STYLE_ASSIGNMENT((#219));
#99=VERTEX_POINT('',#220);
#100=PRESENTATION_STYLE_ASSIGNMENT((#221));
#101=VERTEX_POINT('',#222);
#102=PRESENTATION_STYLE_ASSIGNMENT((#223));
#103=VERTEX_POINT('',#224);
#104=PRESENTATION_STYLE_ASSIGNMENT((#225));
#105=VERTEX_POINT('',#226);
#106=PRESENTATION_STYLE_ASSIGNMENT((#227));
#107=EDGE_CURVE('',#137,#105,#228,.T.);
#108=PRESENTATION_STYLE_ASSIGNMENT((#229));
#109=EDGE_CURVE('',#105,#101,#230,.T.);
#110=PRESENTATION_STYLE_ASSIGNMENT((#231));
#111=EDGE_CURVE('',#81,#153,#232,.T.);
#112=PRESENTATION_STYLE_ASSIGNMENT((#233));
#113=EDGE_CURVE('',#153,#175,#234,.T.);
#114=PRESENTATION_STYLE_ASSIGNMENT((#235));
#115=ADVANCED_FACE('',(#236),#237,.T.);
#116=PRESENTATION_STYLE_ASSIGNMENT((#238));
#117=VERTEX_POINT('',#239);
#118=PRESENTATION_STYLE_ASSIGNMENT((#240));
#119=EDGE_CURVE('',#165,#141,#241,.T.);
#120=PRESENTATION_STYLE_ASSIGNMENT((#242));
#121=EDGE_CURVE('',#141,#81,#243,.T.);
#122=PRESENTATION_STYLE_ASSIGNMENT((#244));
#123=ADVANCED_FACE('',(#245),#246,.T.);
#124=PRESENTATION_STYLE_ASSIGNMENT((#247));
#125=ADVANCED_FACE('',(#248),#249,.T.);
#126=PRESENTATION_STYLE_ASSIGNMENT((#250));
#127=EDGE_CURVE('',#167,#117,#251,.T.);
#128=PRESENTATION_STYLE_ASSIGNMENT((#252));
#129=ADVANCED_FACE('',(#253),#254,.T.);
#130=PRESENTATION_STYLE_ASSIGNMENT((#255));
#131=ADVANCED_FACE('',(#256),#257,.T.);
#132=PRESENTATION_STYLE_ASSIGNMENT((#258));
#133=VERTEX_POINT('',#259);
#134=PRESENTATION_STYLE_ASSIGNMENT((#260));
#135=EDGE_CURVE('',#91,#103,#261,.T.);
#136=PRESENTATION_STYLE_ASSIGNMENT((#262));
#137=VERTEX_POINT('',#263);
#138=PRESENTATION_STYLE_ASSIGNMENT((#264));
#139=EDGE_CURVE('',#151,#101,#265,.T.);
#140=PRESENTATION_STYLE_ASSIGNMENT((#266));
#141=VERTEX_POINT('',#267);
#142=PRESENTATION_STYLE_ASSIGNMENT((#268));
#143=MANIFOLD_SOLID_BREP('1',#269);
#144=PRESENTATION_STYLE_ASSIGNMENT((#270));
#145=ADVANCED_FACE('',(#271),#272,.T.);
#146=PRESENTATION_STYLE_ASSIGNMENT((#273));
#147=EDGE_CURVE('',#133,#137,#274,.T.);
#148=PRESENTATION_STYLE_ASSIGNMENT((#275));
#149=EDGE_CURVE('',#85,#99,#276,.T.);
#150=PRESENTATION_STYLE_ASSIGNMENT((#277));
#151=VERTEX_POINT('',#278);
#152=PRESENTATION_STYLE_ASSIGNMENT((#279));
#153=VERTEX_POINT('',#280);
#154=PRESENTATION_STYLE_ASSIGNMENT((#281));
#155=EDGE_CURVE('',#151,#167,#282,.T.);
#156=PRESENTATION_STYLE_ASSIGNMENT((#283));
#157=EDGE_CURVE('',#81,#133,#284,.T.);
#158=PRESENTATION_STYLE_ASSIGNMENT((#285));
#159=EDGE_CURVE('',#175,#105,#286,.T.);
#160=PRESENTATION_STYLE_ASSIGNMENT((#287));
#161=ADVANCED_FACE('',(#288),#289,.T.);
#162=PRESENTATION_STYLE_ASSIGNMENT((#290));
#163=EDGE_CURVE('',#101,#117,#291,.T.);
#164=PRESENTATION_STYLE_ASSIGNMENT((#292));
#165=VERTEX_POINT('',#293);
#166=PRESENTATION_STYLE_ASSIGNMENT((#294));
#167=VERTEX_POINT('',#295);
#168=PRESENTATION_STYLE_ASSIGNMENT((#296));
#169=EDGE_CURVE('',#85,#165,#297,.T.);
#170=PRESENTATION_STYLE_ASSIGNMENT((#298));
#171=EDGE_CURVE('',#117,#99,#299,.T.);
#172=PRESENTATION_STYLE_ASSIGNMENT((#300));
#173=EDGE_CURVE('',#141,#103,#301,.T.);
#174=PRESENTATION_STYLE_ASSIGNMENT((#302));
#175=VERTEX_POINT('',#303);
#176=PRODUCT('1','1','PART-1-DESC',(#304));
#177=PRODUCT_DEFINITION('NONE','NONE',#305,#2);
#178=AXIS2_PLACEMENT_3D('',#306,#307,#308);
#181=LENGTH_MEASURE_WITH_UNIT(LENGTH_MEASURE(1.0),#309);
#184=DIMENSIONAL_EXPONENTS(1.0,0.0,0.0,0.0,0.0,0.0,0.0);
#186=DIMENSIONAL_EXPONENTS(0.0,0.0,0.0,0.0,0.0,0.0,0.0);
#192=CURVE_STYLE('',#310,POSITIVE_LENGTH_MEASURE(1.0E-006),#311);
#193=CIRCLE('',#312,0.220539746303542);
#194=CURVE_STYLE('',#313,POSITIVE_LENGTH_MEASURE(1.0E-006),#314);
#195=LINE('',#315,#316);
#196=CURVE_STYLE('',#317,POSITIVE_LENGTH_MEASURE(1.0E-006),#318);
#197=CIRCLE('',#319,0.220539746303542);
#198=POINT_STYLE(' ',#320,POSITIVE_LENGTH_MEASURE(1.0E-006),#321);
#199=CARTESIAN_POINT('',(0.6,0.0,0.0));
#200=SURFACE_STYLE_USAGE(.BOTH.,#322);
#201=FACE_OUTER_BOUND('',#323,.T.);
#202=PLANE('',#324);
#203=POINT_STYLE(' ',#325,POSITIVE_LENGTH_MEASURE(1.0E-006),#326);
#204=CARTESIAN_POINT('',(0.6,6.46,0.0));
#205=SURFACE_STYLE_USAGE(.BOTH.,#327);
#206=FACE_OUTER_BOUND('',#328,.T.);
#207=CONICAL_SURFACE('',#329,0.6,0.139626340159547);
#208=SURFACE_STYLE_USAGE(.BOTH.,#330);
#209=FACE_OUTER_BOUND('',#331,.T.);
#210=PLANE('',#332);
#211=POINT_STYLE(' ',#333,POSITIVE_LENGTH_MEASURE(1.0E-006),#334);
#212=CARTESIAN_POINT('',(0.379460253696458,5.86,-2.7));
#213=CURVE_STYLE('',#335,POSITIVE_LENGTH_MEASURE(1.0E-006),#336);
#214=LINE('',#337,#338);
#215=CURVE_STYLE('',#339,POSITIVE_LENGTH_MEASURE(1.0E-006),#340);
#216=LINE('',#341,#342);
#217=CURVE_STYLE('',#343,POSITIVE_LENGTH_MEASURE(1.0E-006),#344);
#218=LINE('',#345,#346);
#219=POINT_STYLE(' ',#347,POSITIVE_LENGTH_MEASURE(1.0E-006),#348);
#220=CARTESIAN_POINT('',(0.600000000063243,6.08053974620354,-2.7));
#221=POINT_STYLE(' ',#349,POSITIVE_LENGTH_MEASURE(1.0E-006),#350);
#222=CARTESIAN_POINT('',(6.08053974620354,5.85999999993676,-2.7));
#223=POINT_STYLE(' ',#351,POSITIVE_LENGTH_MEASURE(1.0E-006),#352);
#224=CARTESIAN_POINT('',(0.379460253796458,0.600000000063244,-2.7));
#225=POINT_STYLE(' ',#353,POSITIVE_LENGTH_MEASURE(1.0E-006),#354);
#226=CARTESIAN_POINT('',(6.08053974630354,0.6,-2.7));
#227=CURVE_STYLE('',#355,POSITIVE_LENGTH_MEASURE(1.0E-006),#356);
#228=LINE('',#357,#358);
#229=CURVE_STYLE('',#359,POSITIVE_LENGTH_MEASURE(1.0E-006),#360);
#230=LINE('',#361,#362);
#231=CURVE_STYLE('',#363,POSITIVE_LENGTH_MEASURE(1.0E-006),#364);
#232=LINE('',#365,#366);
#233=CURVE_STYLE('',#367,POSITIVE_LENGTH_MEASURE(1.0E-006),#368);
#234=LINE('',#369,#370);
#235=SURFACE_STYLE_USAGE(.BOTH.,#371);
#236=FACE_OUTER_BOUND('',#372,.T.);
#237=PLANE('',#373);
#238=POINT_STYLE(' ',#374,POSITIVE_LENGTH_MEASURE(1.0E-006),#375);
#239=CARTESIAN_POINT('',(5.86,6.08053974630354,-2.7));
#240=CURVE_STYLE('',#376,POSITIVE_LENGTH_MEASURE(1.0E-006),#377);
#241=LINE('',#378,#379);
#242=CURVE_STYLE('',#380,POSITIVE_LENGTH_MEASURE(1.0E-006),#381);
#243=CIRCLE('',#382,0.6);
#244=SURFACE_STYLE_USAGE(.BOTH.,#383);
#245=FACE_OUTER_BOUND('',#384,.T.);
#246=PLANE('',#385);
#247=SURFACE_STYLE_USAGE(.BOTH.,#386);
#248=FACE_OUTER_BOUND('',#387,.T.);
#249=CONICAL_SURFACE('',#388,0.600000000000001,0.139626340159547);
#250=CURVE_STYLE('',#389,POSITIVE_LENGTH_MEASURE(1.0E-006),#390);
#251=LINE('',#391,#392);
#252=SURFACE_STYLE_USAGE(.BOTH.,#393);
#253=FACE_OUTER_BOUND('',#394,.T.);
#254=PLANE('',#395);
#255=SURFACE_STYLE_USAGE(.BOTH.,#396);
#256=FACE_OUTER_BOUND('',#397,.T.);
#257=PLANE('',#398);
#258=POINT_STYLE(' ',#399,POSITIVE_LENGTH_MEASURE(1.0E-006),#400);
#259=CARTESIAN_POINT('',(5.86,0.0,0.0));
#260=CURVE_STYLE('',#401,POSITIVE_LENGTH_MEASURE(1.0E-006),#402);
#261=LINE('',#403,#404);
#262=POINT_STYLE(' ',#405,POSITIVE_LENGTH_MEASURE(1.0E-006),#406);
#263=CARTESIAN_POINT('',(6.4599999999,0.6,0.0));
#264=CURVE_STYLE('',#407,POSITIVE_LENGTH_MEASURE(1.0E-006),#408);
#265=LINE('',#409,#410);
#266=POINT_STYLE(' ',#411,POSITIVE_LENGTH_MEASURE(1.0E-006),#412);
#267=CARTESIAN_POINT('',(0.0,0.600000000000001,0.0));
#268=SURFACE_STYLE_USAGE(.BOTH.,#413);
#269=CLOSED_SHELL('',(#161,#123,#125,#131,#145,#115,#87,#83,#89,#129));
#270=SURFACE_STYLE_USAGE(.BOTH.,#414);
#271=FACE_OUTER_BOUND('',#415,.T.);
#272=CONICAL_SURFACE('',#416,0.6,0.139626340159547);
#273=CURVE_STYLE('',#417,POSITIVE_LENGTH_MEASURE(1.0E-006),#418);
#274=CIRCLE('',#419,0.6);
#275=CURVE_STYLE('',#420,POSITIVE_LENGTH_MEASURE(1.0E-006),#421);
#276=LINE('',#422,#423);
#277=POINT_STYLE(' ',#424,POSITIVE_LENGTH_MEASURE(1.0E-006),#425);
#278=CARTESIAN_POINT('',(6.46,5.86,0.0));
#279=POINT_STYLE(' ',#426,POSITIVE_LENGTH_MEASURE(1.0E-006),#427);
#280=CARTESIAN_POINT('',(0.6,0.379460253696458,-2.7));
#281=CURVE_STYLE('',#428,POSITIVE_LENGTH_MEASURE(1.0E-006),#429);
#282=CIRCLE('',#430,0.600000000000001);
#283=CURVE_STYLE('',#431,POSITIVE_LENGTH_MEASURE(1.0E-006),#432);
#284=LINE('',#433,#434);
#285=CURVE_STYLE('',#435,POSITIVE_LENGTH_MEASURE(1.0E-006),#436);
#286=CIRCLE('',#437,0.220539746303542);
#287=SURFACE_STYLE_USAGE(.BOTH.,#438);
#288=FACE_OUTER_BOUND('',#439,.T.);
#289=CONICAL_SURFACE('',#440,0.6,0.139626340159547);
#290=CURVE_STYLE('',#441,POSITIVE_LENGTH_MEASURE(1.0E-006),#442);
#291=CIRCLE('',#443,0.220539746303542);
#292=POINT_STYLE(' ',#444,POSITIVE_LENGTH_MEASURE(1.0E-006),#445);
#293=CARTESIAN_POINT('',(1.00000452363247E-010,5.86,0.0));
#294=POINT_STYLE(' ',#446,POSITIVE_LENGTH_MEASURE(1.0E-006),#447);
#295=CARTESIAN_POINT('',(5.86,6.4599999999,0.0));
#296=CURVE_STYLE('',#448,POSITIVE_LENGTH_MEASURE(1.0E-006),#449);
#297=CIRCLE('',#450,0.6);
#298=CURVE_STYLE('',#451,POSITIVE_LENGTH_MEASURE(1.0E-006),#452);
#299=LINE('',#453,#454);
#300=CURVE_STYLE('',#455,POSITIVE_LENGTH_MEASURE(1.0E-006),#456);
#301=LINE('',#457,#458);
#302=POINT_STYLE(' ',#459,POSITIVE_LENGTH_MEASURE(1.0E-006),#460);
#303=CARTESIAN_POINT('',(5.85999999993676,0.379460253796458,-2.7));
#304=PRODUCT_CONTEXT('',#61,'mechanical');
#305=PRODUCT_DEFINITION_FORMATION_WITH_SPECIFIED_SOURCE(' ','NONE',#176,.NOT_KNOWN.);
#306=CARTESIAN_POINT('',(0.0,0.0,0.0));
#307=DIRECTION('',(0.0,0.0,1.0));
#308=DIRECTION('',(1.0,0.0,0.0));
#309= (NAMED_UNIT(#184)LENGTH_UNIT()SI_UNIT(.MILLI.,.METRE.));
#310=DRAUGHTING_PRE_DEFINED_CURVE_FONT('continuous');
#311=COLOUR_RGB('',0.800000011920929,0.800000011920929,0.800000011920929);
#312=AXIS2_PLACEMENT_3D('',#462,#463,#464);
#313=DRAUGHTING_PRE_DEFINED_CURVE_FONT('continuous');
#314=COLOUR_RGB('',0.800000011920929,0.800000011920929,0.800000011920929);
#315=CARTESIAN_POINT('',(6.46,0.6,0.0));
#316=VECTOR('',#465,1.0);
#317=DRAUGHTING_PRE_DEFINED_CURVE_FONT('continuous');
#318=COLOUR_RGB('',0.800000011920929,0.800000011920929,0.800000011920929);
#319=AXIS2_PLACEMENT_3D('',#466,#467,#468);
#320=PRE_DEFINED_MARKER('');
#321=COLOUR_RGB('',0.800000011920929,0.800000011920929,0.800000011920929);
#322=SURFACE_SIDE_STYLE('',(#469));
#323=EDGE_LOOP('',(#470,#471,#472,#473));
#324=AXIS2_PLACEMENT_3D('',#474,#475,#476);
#325=PRE_DEFINED_MARKER('');
#326=COLOUR_RGB('',0.800000011920929,0.800000011920929,0.800000011920929);
#327=SURFACE_SIDE_STYLE('',(#477));
#328=EDGE_LOOP('',(#478,#479,#480,#481));
#329=AXIS2_PLACEMENT_3D('',#482,#483,#484);
#330=SURFACE_SIDE_STYLE('',(#485));
#331=EDGE_LOOP('',(#486,#487,#488,#489,#490,#491,#492,#493));
#332=AXIS2_PLACEMENT_3D('',#494,#495,#496);
#333=PRE_DEFINED_MARKER('');
#334=COLOUR_RGB('',0.800000011920929,0.800000011920929,0.800000011920929);
#335=DRAUGHTING_PRE_DEFINED_CURVE_FONT('continuous');
#336=COLOUR_RGB('',0.800000011920929,0.800000011920929,0.800000011920929);
#337=CARTESIAN_POINT('',(1.00000452363247E-010,5.86,0.0));
#338=VECTOR('',#497,1.0);
#339=DRAUGHTING_PRE_DEFINED_CURVE_FONT('continuous');
#340=COLOUR_RGB('',0.800000011920929,0.800000011920929,0.800000011920929);
#341=CARTESIAN_POINT('',(5.86,6.46,0.0));
#342=VECTOR('',#498,1.0);
#343=DRAUGHTING_PRE_DEFINED_CURVE_FONT('continuous');
#344=COLOUR_RGB('',0.800000011920929,0.800000011920929,0.800000011920929);
#345=CARTESIAN_POINT('',(5.86,0.0,0.0));
#346=VECTOR('',#499,1.0);
#347=PRE_DEFINED_MARKER('');
#348=COLOUR_RGB('',0.800000011920929,0.800000011920929,0.800000011920929);
#349=PRE_DEFINED_MARKER('');
#350=COLOUR_RGB('',0.800000011920929,0.800000011920929,0.800000011920929);
#351=PRE_DEFINED_MARKER('');
#352=COLOUR_RGB('',0.800000011920929,0.800000011920929,0.800000011920929);
#353=PRE_DEFINED_MARKER('');
#354=COLOUR_RGB('',0.800000011920929,0.800000011920929,0.800000011920929);
#355=DRAUGHTING_PRE_DEFINED_CURVE_FONT('continuous');
#356=COLOUR_RGB('',0.800000011920929,0.800000011920929,0.800000011920929);
#357=CARTESIAN_POINT('',(6.4599999999,0.6,0.0));
#358=VECTOR('',#500,1.0);
#359=DRAUGHTING_PRE_DEFINED_CURVE_FONT('continuous');
#360=COLOUR_RGB('',0.800000011920929,0.800000011920929,0.800000011920929);
#361=CARTESIAN_POINT('',(6.08053974630354,0.6,-2.7));
#362=VECTOR('',#501,1.0);
#363=DRAUGHTING_PRE_DEFINED_CURVE_FONT('continuous');
#364=COLOUR_RGB('',0.800000011920929,0.800000011920929,0.800000011920929);
#365=CARTESIAN_POINT('',(0.6,0.0,0.0));
#366=VECTOR('',#502,1.0);
#367=DRAUGHTING_PRE_DEFINED_CURVE_FONT('continuous');
#368=COLOUR_RGB('',0.800000011920929,0.800000011920929,0.800000011920929);
#369=CARTESIAN_POINT('',(0.6,0.379460253696458,-2.7));
#370=VECTOR('',#503,1.0);
#371=SURFACE_SIDE_STYLE('',(#504));
#372=EDGE_LOOP('',(#505,#506,#507,#508));
#373=AXIS2_PLACEMENT_3D('',#509,#510,#511);
#374=PRE_DEFINED_MARKER('');
#375=COLOUR_RGB('',0.800000011920929,0.800000011920929,0.800000011920929);
#376=DRAUGHTING_PRE_DEFINED_CURVE_FONT('continuous');
#377=COLOUR_RGB('',0.800000011920929,0.800000011920929,0.800000011920929);
#378=CARTESIAN_POINT('',(0.0,5.86,0.0));
#379=VECTOR('',#512,1.0);
#380=DRAUGHTING_PRE_DEFINED_CURVE_FONT('continuous');
#381=COLOUR_RGB('',0.800000011920929,0.800000011920929,0.800000011920929);
#382=AXIS2_PLACEMENT_3D('',#513,#514,#515);
#383=SURFACE_SIDE_STYLE('',(#516));
#384=EDGE_LOOP('',(#517,#518,#519,#520));
#385=AXIS2_PLACEMENT_3D('',#521,#522,#523);
#386=SURFACE_SIDE_STYLE('',(#524));
#387=EDGE_LOOP('',(#525,#526,#527,#528));
#388=AXIS2_PLACEMENT_3D('',#529,#530,#531);
#389=DRAUGHTING_PRE_DEFINED_CURVE_FONT('continuous');
#390=COLOUR_RGB('',0.800000011920929,0.800000011920929,0.800000011920929);
#391=CARTESIAN_POINT('',(5.86,6.4599999999,0.0));
#392=VECTOR('',#532,1.0);
#393=SURFACE_SIDE_STYLE('',(#533));
#394=EDGE_LOOP('',(#534,#535,#536,#537,#538,#539,#540,#541));
#395=AXIS2_PLACEMENT_3D('',#542,#543,#544);
#396=SURFACE_SIDE_STYLE('',(#545));
#397=EDGE_LOOP('',(#546,#547,#548,#549));
#398=AXIS2_PLACEMENT_3D('',#550,#551,#552);
#399=PRE_DEFINED_MARKER('');
#400=COLOUR_RGB('',0.800000011920929,0.800000011920929,0.800000011920929);
#401=DRAUGHTING_PRE_DEFINED_CURVE_FONT('continuous');
#402=COLOUR_RGB('',0.800000011920929,0.800000011920929,0.800000011920929);
#403=CARTESIAN_POINT('',(0.379460253696458,5.86,-2.7));
#404=VECTOR('',#553,1.0);
#405=PRE_DEFINED_MARKER('');
#406=COLOUR_RGB('',0.800000011920929,0.800000011920929,0.800000011920929);
#407=DRAUGHTING_PRE_DEFINED_CURVE_FONT('continuous');
#408=COLOUR_RGB('',0.800000011920929,0.800000011920929,0.800000011920929);
#409=CARTESIAN_POINT('',(6.46,5.86,0.0));
#410=VECTOR('',#554,1.0);
#411=PRE_DEFINED_MARKER('');
#412=COLOUR_RGB('',0.800000011920929,0.800000011920929,0.800000011920929);
#413=SURFACE_SIDE_STYLE('',(#555));
#414=SURFACE_SIDE_STYLE('',(#556));
#415=EDGE_LOOP('',(#557,#558,#559,#560));
#416=AXIS2_PLACEMENT_3D('',#561,#562,#563);
#417=DRAUGHTING_PRE_DEFINED_CURVE_FONT('continuous');
#418=COLOUR_RGB('',0.800000011920929,0.800000011920929,0.800000011920929);
#419=AXIS2_PLACEMENT_3D('',#564,#565,#566);
#420=DRAUGHTING_PRE_DEFINED_CURVE_FONT('continuous');
#421=COLOUR_RGB('',0.800000011920929,0.800000011920929,0.800000011920929);
#422=CARTESIAN_POINT('',(0.6,6.46,0.0));
#423=VECTOR('',#567,1.0);
#424=PRE_DEFINED_MARKER('');
#425=COLOUR_RGB('',0.800000011920929,0.800000011920929,0.800000011920929);
#426=PRE_DEFINED_MARKER('');
#427=COLOUR_RGB('',0.800000011920929,0.800000011920929,0.800000011920929);
#428=DRAUGHTING_PRE_DEFINED_CURVE_FONT('continuous');
#429=COLOUR_RGB('',0.800000011920929,0.800000011920929,0.800000011920929);
#430=AXIS2_PLACEMENT_3D('',#568,#569,#570);
#431=DRAUGHTING_PRE_DEFINED_CURVE_FONT('continuous');
#432=COLOUR_RGB('',0.800000011920929,0.800000011920929,0.800000011920929);
#433=CARTESIAN_POINT('',(0.6,0.0,0.0));
#434=VECTOR('',#571,1.0);
#435=DRAUGHTING_PRE_DEFINED_CURVE_FONT('continuous');
#436=COLOUR_RGB('',0.800000011920929,0.800000011920929,0.800000011920929);
#437=AXIS2_PLACEMENT_3D('',#572,#573,#574);
#438=SURFACE_SIDE_STYLE('',(#575));
#439=EDGE_LOOP('',(#576,#577,#578,#579));
#440=AXIS2_PLACEMENT_3D('',#580,#581,#582);
#441=DRAUGHTING_PRE_DEFINED_CURVE_FONT('continuous');
#442=COLOUR_RGB('',0.800000011920929,0.800000011920929,0.800000011920929);
#443=AXIS2_PLACEMENT_3D('',#583,#584,#585);
#444=PRE_DEFINED_MARKER('');
#445=COLOUR_RGB('',0.800000011920929,0.800000011920929,0.800000011920929);
#446=PRE_DEFINED_MARKER('');
#447=COLOUR_RGB('',0.800000011920929,0.800000011920929,0.800000011920929);
#448=DRAUGHTING_PRE_DEFINED_CURVE_FONT('continuous');
#449=COLOUR_RGB('',0.800000011920929,0.800000011920929,0.800000011920929);
#450=AXIS2_PLACEMENT_3D('',#586,#587,#588);
#451=DRAUGHTING_PRE_DEFINED_CURVE_FONT('continuous');
#452=COLOUR_RGB('',0.800000011920929,0.800000011920929,0.800000011920929);
#453=CARTESIAN_POINT('',(5.86,6.08053974630354,-2.7));
#454=VECTOR('',#589,1.0);
#455=DRAUGHTING_PRE_DEFINED_CURVE_FONT('continuous');
#456=COLOUR_RGB('',0.800000011920929,0.800000011920929,0.800000011920929);
#457=CARTESIAN_POINT('',(0.0,0.600000000000001,0.0));
#458=VECTOR('',#590,1.0);
#459=PRE_DEFINED_MARKER('');
#460=COLOUR_RGB('',0.800000011920929,0.800000011920929,0.800000011920929);
#462=CARTESIAN_POINT('',(0.6000000001,5.8599999999,-2.7));
#463=DIRECTION('',(0.0,0.0,1.0));
#464=DIRECTION('',(-1.6666705053107E-010,1.0,0.0));
#465=DIRECTION('',(0.0,1.0,0.0));
#466=CARTESIAN_POINT('',(0.6000000001,0.6000000001,-2.7));
#467=DIRECTION('',(0.0,0.0,1.0));
#468=DIRECTION('',(-1.0,-1.66666310382387E-010,0.0));
#469=SURFACE_STYLE_FILL_AREA(#591);
#470=ORIENTED_EDGE('',*,*,#113,.T.);
#471=ORIENTED_EDGE('',*,*,#97,.F.);
#472=ORIENTED_EDGE('',*,*,#157,.F.);
#473=ORIENTED_EDGE('',*,*,#111,.T.);
#474=CARTESIAN_POINT('',(0.6,0.0,0.0));
#475=DIRECTION('',(-0.0,-0.99026806874157,-0.139173100960066));
#476=DIRECTION('',(-1.0,0.0,0.0));
#477=SURFACE_STYLE_FILL_AREA(#592);
#478=ORIENTED_EDGE('',*,*,#79,.T.);
#479=ORIENTED_EDGE('',*,*,#111,.F.);
#480=ORIENTED_EDGE('',*,*,#121,.F.);
#481=ORIENTED_EDGE('',*,*,#173,.T.);
#482=CARTESIAN_POINT('',(0.6000000001,0.6000000001,0.0));
#483=DIRECTION('',(0.0,-0.0,1.0));
#484=DIRECTION('',(-1.0,-1.66666310382387E-010,0.0));
#485=SURFACE_STYLE_FILL_AREA(#593);
#486=ORIENTED_EDGE('',*,*,#159,.F.);
#487=ORIENTED_EDGE('',*,*,#113,.F.);
#488=ORIENTED_EDGE('',*,*,#79,.F.);
#489=ORIENTED_EDGE('',*,*,#135,.F.);
#490=ORIENTED_EDGE('',*,*,#75,.F.);
#491=ORIENTED_EDGE('',*,*,#171,.F.);
#492=ORIENTED_EDGE('',*,*,#163,.F.);
#493=ORIENTED_EDGE('',*,*,#109,.F.);
#494=CARTESIAN_POINT('',(3.23,3.23,-2.7));
#495=DIRECTION('',(0.0,0.0,1.0));
#496=DIRECTION('',(1.0,0.0,0.0));
#497=DIRECTION('',(0.139173100924099,0.0,-0.990268068746625));
#498=DIRECTION('',(-1.0,0.0,0.0));
#499=DIRECTION('',(-2.31952853087327E-011,0.139173100996032,-0.990268068736516));
#500=DIRECTION('',(-0.1391731009241,0.0,-0.990268068746625));
#501=DIRECTION('',(0.0,1.0,0.0));
#502=DIRECTION('',(0.0,0.139173100960066,-0.99026806874157));
#503=DIRECTION('',(1.0,0.0,0.0));
#504=SURFACE_STYLE_FILL_AREA(#594);
#505=ORIENTED_EDGE('',*,*,#135,.T.);
#506=ORIENTED_EDGE('',*,*,#173,.F.);
#507=ORIENTED_EDGE('',*,*,#119,.F.);
#508=ORIENTED_EDGE('',*,*,#93,.T.);
#509=CARTESIAN_POINT('',(1.00000452363247E-010,5.86,0.0));
#510=DIRECTION('',(-0.990268068746625,0.0,-0.139173100924099));
#511=DIRECTION('',(0.0,1.0,0.0));
#512=DIRECTION('',(0.0,-1.0,0.0));
#513=CARTESIAN_POINT('',(0.6000000001,0.6000000001,0.0));
#514=DIRECTION('',(0.0,0.0,1.0));
#515=DIRECTION('',(-1.0,-1.66666310382387E-010,0.0));
#516=SURFACE_STYLE_FILL_AREA(#595);
#517=ORIENTED_EDGE('',*,*,#109,.T.);
#518=ORIENTED_EDGE('',*,*,#139,.F.);
#519=ORIENTED_EDGE('',*,*,#77,.F.);
#520=ORIENTED_EDGE('',*,*,#107,.T.);
#521=CARTESIAN_POINT('',(6.4599999999,0.6,0.0));
#522=DIRECTION('',(0.990268068746625,-0.0,-0.1391731009241));
#523=DIRECTION('',(-0.0,-1.0,0.0));
#524=SURFACE_STYLE_FILL_AREA(#596);
#525=ORIENTED_EDGE('',*,*,#163,.T.);
#526=ORIENTED_EDGE('',*,*,#127,.F.);
#527=ORIENTED_EDGE('',*,*,#155,.F.);
#528=ORIENTED_EDGE('',*,*,#139,.T.);
#529=CARTESIAN_POINT('',(5.8599999999,5.8599999999,0.0));
#530=DIRECTION('',(-0.0,-0.0,1.0));
#531=DIRECTION('',(1.0,1.66666680456728E-010,0.0));
#532=DIRECTION('',(0.0,-0.1391731009241,-0.990268068746625));
#533=SURFACE_STYLE_FILL_AREA(#597);
#534=ORIENTED_EDGE('',*,*,#157,.T.);
#535=ORIENTED_EDGE('',*,*,#147,.T.);
#536=ORIENTED_EDGE('',*,*,#77,.T.);
#537=ORIENTED_EDGE('',*,*,#155,.T.);
#538=ORIENTED_EDGE('',*,*,#95,.T.);
#539=ORIENTED_EDGE('',*,*,#169,.T.);
#540=ORIENTED_EDGE('',*,*,#119,.T.);
#541=ORIENTED_EDGE('',*,*,#121,.T.);
#542=CARTESIAN_POINT('',(3.23,3.23,0.0));
#543=DIRECTION('',(0.0,0.0,1.0));
#544=DIRECTION('',(1.0,0.0,0.0));
#545=SURFACE_STYLE_FILL_AREA(#598);
#546=ORIENTED_EDGE('',*,*,#171,.T.);
#547=ORIENTED_EDGE('',*,*,#149,.F.);
#548=ORIENTED_EDGE('',*,*,#95,.F.);
#549=ORIENTED_EDGE('',*,*,#127,.T.);
#550=CARTESIAN_POINT('',(5.86,6.4599999999,0.0));
#551=DIRECTION('',(0.0,0.990268068746625,-0.1391731009241));
#552=DIRECTION('',(1.0,-0.0,0.0));
#553=DIRECTION('',(0.0,-1.0,0.0));
#554=DIRECTION('',(-0.139173100996032,-2.31956110623358E-011,-0.990268068736516));
#555=SURFACE_STYLE_FILL_AREA(#599);
#556=SURFACE_STYLE_FILL_AREA(#600);
#557=ORIENTED_EDGE('',*,*,#75,.T.);
#558=ORIENTED_EDGE('',*,*,#93,.F.);
#559=ORIENTED_EDGE('',*,*,#169,.F.);
#560=ORIENTED_EDGE('',*,*,#149,.T.);
#561=CARTESIAN_POINT('',(0.6000000001,5.8599999999,0.0));
#562=DIRECTION('',(-0.0,-0.0,1.0));
#563=DIRECTION('',(-1.6666705053107E-010,1.0,0.0));
#564=CARTESIAN_POINT('',(5.8599999999,0.6000000001,0.0));
#565=DIRECTION('',(0.0,0.0,1.0));
#566=DIRECTION('',(1.66666680456729E-010,-1.0,0.0));
#567=DIRECTION('',(2.31956110623358E-011,-0.139173100996033,-0.990268068736516));
#568=CARTESIAN_POINT('',(5.8599999999,5.8599999999,0.0));
#569=DIRECTION('',(0.0,-0.0,1.0));
#570=DIRECTION('',(1.0,1.66666680456728E-010,0.0));
#571=DIRECTION('',(1.0,0.0,0.0));
#572=CARTESIAN_POINT('',(5.8599999999,0.6000000001,-2.7));
#573=DIRECTION('',(0.0,0.0,1.0));
#574=DIRECTION('',(1.66666680456729E-010,-1.0,0.0));
#575=SURFACE_STYLE_FILL_AREA(#601);
#576=ORIENTED_EDGE('',*,*,#159,.T.);
#577=ORIENTED_EDGE('',*,*,#107,.F.);
#578=ORIENTED_EDGE('',*,*,#147,.F.);
#579=ORIENTED_EDGE('',*,*,#97,.T.);
#580=CARTESIAN_POINT('',(5.8599999999,0.6000000001,0.0));
#581=DIRECTION('',(-0.0,-0.0,1.0));
#582=DIRECTION('',(1.66666680456729E-010,-1.0,0.0));
#583=CARTESIAN_POINT('',(5.8599999999,5.8599999999,-2.7));
#584=DIRECTION('',(0.0,-0.0,1.0));
#585=DIRECTION('',(1.0,1.66666680456728E-010,0.0));
#586=CARTESIAN_POINT('',(0.6000000001,5.8599999999,0.0));
#587=DIRECTION('',(0.0,0.0,1.0));
#588=DIRECTION('',(-1.6666705053107E-010,1.0,0.0));
#589=DIRECTION('',(-1.0,0.0,0.0));
#590=DIRECTION('',(0.139173100996032,2.31954074663338E-011,-0.990268068736516));
#591=FILL_AREA_STYLE('',(#602));
#592=FILL_AREA_STYLE('',(#603));
#593=FILL_AREA_STYLE('',(#604));
#594=FILL_AREA_STYLE('',(#605));
#595=FILL_AREA_STYLE('',(#606));
#596=FILL_AREA_STYLE('',(#607));
#597=FILL_AREA_STYLE('',(#608));
#598=FILL_AREA_STYLE('',(#609));
#599=FILL_AREA_STYLE('',(#610));
#600=FILL_AREA_STYLE('',(#611));
#601=FILL_AREA_STYLE('',(#612));
#602=FILL_AREA_STYLE_COLOUR('',#613);
#603=FILL_AREA_STYLE_COLOUR('',#614);
#604=FILL_AREA_STYLE_COLOUR('',#615);
#605=FILL_AREA_STYLE_COLOUR('',#616);
#606=FILL_AREA_STYLE_COLOUR('',#617);
#607=FILL_AREA_STYLE_COLOUR('',#618);
#608=FILL_AREA_STYLE_COLOUR('',#619);
#609=FILL_AREA_STYLE_COLOUR('',#620);
#610=FILL_AREA_STYLE_COLOUR('',#621);
#611=FILL_AREA_STYLE_COLOUR('',#622);
#612=FILL_AREA_STYLE_COLOUR('',#623);
#613=COLOUR_RGB('',0.800000011920929,0.800000011920929,0.800000011920929);
#614=COLOUR_RGB('',0.800000011920929,0.800000011920929,0.800000011920929);
#615=COLOUR_RGB('',0.800000011920929,0.800000011920929,0.800000011920929);
#616=COLOUR_RGB('',0.800000011920929,0.800000011920929,0.800000011920929);
#617=COLOUR_RGB('',0.800000011920929,0.800000011920929,0.800000011920929);
#618=COLOUR_RGB('',0.800000011920929,0.800000011920929,0.800000011920929);
#619=COLOUR_RGB('',0.800000011920929,0.800000011920929,0.800000011920929);
#620=COLOUR_RGB('',0.800000011920929,0.800000011920929,0.800000011920929);
#621=COLOUR_RGB('',0.800000011920929,0.800000011920929,0.800000011920929);
#622=COLOUR_RGB('',0.800000011920929,0.800000011920929,0.800000011920929);
#623=COLOUR_RGB('',0.800000011920929,0.800000011920929,0.800000011920929);
#624=AXIS2_PLACEMENT_3D('PCS',#625,#626,#627);
#625=CARTESIAN_POINT('',(0.0,0.0,0.0));
#626=DIRECTION('',(0.0,0.0,1.0));
#627=DIRECTION('',(1.0,0.0,0.0));
#628=AXIS2_PLACEMENT_3D('MCS',#629,#630,#631);
#629=CARTESIAN_POINT('',(3.23,3.23,0.0));
#630=DIRECTION('',(0.0,0.0,1.0));
#631=DIRECTION('',(1.0,0.0,0.0));
#632=CONSTRUCTIVE_GEOMETRY_REPRESENTATION_RELATIONSHIP('coordinate systems',$,#65,#633);
#633=CONSTRUCTIVE_GEOMETRY_REPRESENTATION('coordinate systems',(#624,#628),#6);
ENDSEC;
END-ISO-10303-21;
