ISO-10303-21;
HEADER;
FILE_DESCRIPTION(('no description'),'unknown implementation level');
FILE_NAME('solids1Hksdx9qr6Qbm_OxkN8ejFAIME_1.STP','  ',('CIMSOURCE GmbH'),('CADClick - KiM GmbH - www.kimweb.de'),'unknown preprocess','ACIS','unknown authorization');
FILE_SCHEMA(('automotive_design'));
ENDSEC;
DATA;
#1=MECHANICAL_DESIGN_GEOMETRIC_PRESENTATION_REPRESENTATION(' ',(#10,#11,#12,#13,#14,#15,#16,#17,#18,#19,#20,#21,#22,#23,#24,#25,#26,#27,#28,#29,#30,#31,#32,#33,#34,#35,#36,#37,#38,#39,#40,#41,#42,#43,#44,#45,#46,#47,#48,#49,#50,#51,#52,#53,#54,#55,#56,#57,#58,#59,#60),#6);
#2=PRODUCT_DEFINITION_CONTEXT('',#61,'design');
#3=APPLICATION_PROTOCOL_DEFINITION('INTERNATIONAL STANDARD','automotive_design',1994,#61);
#4=PRODUCT_CATEGORY_RELATIONSHIP('NONE','NONE',#62,#63);
#5=SHAPE_DEFINITION_REPRESENTATION(#64,#65);
#6= (GEOMETRIC_REPRESENTATION_CONTEXT(3)GLOBAL_UNCERTAINTY_ASSIGNED_CONTEXT((#68))GLOBAL_UNIT_ASSIGNED_CONTEXT((#70,#71,#72))REPRESENTATION_CONTEXT('NONE','WORKSPACE'));
#10=STYLED_ITEM('',(#74),#75);
#11=STYLED_ITEM('',(#76),#77);
#12=STYLED_ITEM('',(#78),#79);
#13=STYLED_ITEM('',(#80),#81);
#14=STYLED_ITEM('',(#82),#83);
#15=STYLED_ITEM('',(#84),#85);
#16=STYLED_ITEM('',(#86),#87);
#17=STYLED_ITEM('',(#88),#89);
#18=STYLED_ITEM('',(#90),#91);
#19=STYLED_ITEM('',(#92),#93);
#20=STYLED_ITEM('',(#94),#95);
#21=STYLED_ITEM('',(#96),#97);
#22=STYLED_ITEM('',(#98),#99);
#23=STYLED_ITEM('',(#100),#101);
#24=STYLED_ITEM('',(#102),#103);
#25=STYLED_ITEM('',(#104),#105);
#26=STYLED_ITEM('',(#106),#107);
#27=STYLED_ITEM('',(#108),#109);
#28=STYLED_ITEM('',(#110),#111);
#29=STYLED_ITEM('',(#112),#113);
#30=STYLED_ITEM('',(#114),#115);
#31=STYLED_ITEM('',(#116),#117);
#32=STYLED_ITEM('',(#118),#119);
#33=STYLED_ITEM('',(#120),#121);
#34=STYLED_ITEM('',(#122),#123);
#35=STYLED_ITEM('',(#124),#125);
#36=STYLED_ITEM('',(#126),#127);
#37=STYLED_ITEM('',(#128),#129);
#38=STYLED_ITEM('',(#130),#131);
#39=STYLED_ITEM('',(#132),#133);
#40=STYLED_ITEM('',(#134),#135);
#41=STYLED_ITEM('',(#136),#137);
#42=STYLED_ITEM('',(#138),#139);
#43=STYLED_ITEM('',(#140),#141);
#44=STYLED_ITEM('',(#142),#143);
#45=STYLED_ITEM('',(#144),#145);
#46=STYLED_ITEM('',(#146),#147);
#47=STYLED_ITEM('',(#148),#149);
#48=STYLED_ITEM('',(#150),#151);
#49=STYLED_ITEM('',(#152),#153);
#50=STYLED_ITEM('',(#154),#155);
#51=STYLED_ITEM('',(#156),#157);
#52=STYLED_ITEM('',(#158),#159);
#53=STYLED_ITEM('',(#160),#161);
#54=STYLED_ITEM('',(#162),#163);
#55=STYLED_ITEM('',(#164),#165);
#56=STYLED_ITEM('',(#166),#167);
#57=STYLED_ITEM('',(#168),#169);
#58=STYLED_ITEM('',(#170),#171);
#59=STYLED_ITEM('',(#172),#173);
#60=STYLED_ITEM('',(#174),#175);
#61=APPLICATION_CONTEXT(' ');
#62=PRODUCT_CATEGORY('part','NONE');
#63=PRODUCT_RELATED_PRODUCT_CATEGORY('detail',' ',(#176));
#64=PRODUCT_DEFINITION_SHAPE('NONE','NONE',#177);
#65=ADVANCED_BREP_SHAPE_REPRESENTATION('1',(#123,#178),#6);
#68=UNCERTAINTY_MEASURE_WITH_UNIT(LENGTH_MEASURE(1.0E-006),#70,'','');
#70= (CONVERSION_BASED_UNIT('MILLIMETRE',#181)LENGTH_UNIT()NAMED_UNIT(#184));
#71= (NAMED_UNIT(#186)PLANE_ANGLE_UNIT()SI_UNIT($,.RADIAN.));
#72= (NAMED_UNIT(#186)SOLID_ANGLE_UNIT()SI_UNIT($,.STERADIAN.));
#74=PRESENTATION_STYLE_ASSIGNMENT((#192));
#75=VERTEX_POINT('',#193);
#76=PRESENTATION_STYLE_ASSIGNMENT((#194));
#77=VERTEX_POINT('',#195);
#78=PRESENTATION_STYLE_ASSIGNMENT((#196));
#79=EDGE_CURVE('',#75,#85,#197,.T.);
#80=PRESENTATION_STYLE_ASSIGNMENT((#198));
#81=ADVANCED_FACE('',(#199),#200,.F.);
#82=PRESENTATION_STYLE_ASSIGNMENT((#201));
#83=EDGE_CURVE('',#91,#159,#202,.T.);
#84=PRESENTATION_STYLE_ASSIGNMENT((#203));
#85=VERTEX_POINT('',#204);
#86=PRESENTATION_STYLE_ASSIGNMENT((#205));
#87=ADVANCED_FACE('',(#206),#207,.T.);
#88=PRESENTATION_STYLE_ASSIGNMENT((#208));
#89=EDGE_CURVE('',#157,#153,#209,.T.);
#90=PRESENTATION_STYLE_ASSIGNMENT((#210));
#91=VERTEX_POINT('',#211);
#92=PRESENTATION_STYLE_ASSIGNMENT((#212));
#93=EDGE_CURVE('',#149,#119,#213,.T.);
#94=PRESENTATION_STYLE_ASSIGNMENT((#214));
#95=VERTEX_POINT('',#215);
#96=PRESENTATION_STYLE_ASSIGNMENT((#216));
#97=EDGE_CURVE('',#159,#143,#217,.T.);
#98=PRESENTATION_STYLE_ASSIGNMENT((#218));
#99=EDGE_CURVE('',#85,#157,#219,.T.);
#100=PRESENTATION_STYLE_ASSIGNMENT((#220));
#101=ADVANCED_FACE('',(#221),#222,.T.);
#102=PRESENTATION_STYLE_ASSIGNMENT((#223));
#103=ADVANCED_FACE('',(#224),#225,.T.);
#104=PRESENTATION_STYLE_ASSIGNMENT((#226));
#105=EDGE_CURVE('',#115,#95,#227,.T.);
#106=PRESENTATION_STYLE_ASSIGNMENT((#228));
#107=EDGE_CURVE('',#119,#91,#229,.T.);
#108=PRESENTATION_STYLE_ASSIGNMENT((#230));
#109=ADVANCED_FACE('',(#231),#232,.T.);
#110=PRESENTATION_STYLE_ASSIGNMENT((#233));
#111=EDGE_CURVE('',#77,#119,#234,.T.);
#112=PRESENTATION_STYLE_ASSIGNMENT((#235));
#113=EDGE_CURVE('',#165,#77,#236,.T.);
#114=PRESENTATION_STYLE_ASSIGNMENT((#237));
#115=VERTEX_POINT('',#238);
#116=PRESENTATION_STYLE_ASSIGNMENT((#239));
#117=EDGE_CURVE('',#129,#95,#240,.T.);
#118=PRESENTATION_STYLE_ASSIGNMENT((#241));
#119=VERTEX_POINT('',#242);
#120=PRESENTATION_STYLE_ASSIGNMENT((#243));
#121=EDGE_CURVE('',#95,#149,#244,.T.);
#122=PRESENTATION_STYLE_ASSIGNMENT((#245));
#123=MANIFOLD_SOLID_BREP('1',#246);
#124=PRESENTATION_STYLE_ASSIGNMENT((#247));
#125=VERTEX_POINT('',#248);
#126=PRESENTATION_STYLE_ASSIGNMENT((#249));
#127=EDGE_CURVE('',#157,#125,#250,.T.);
#128=PRESENTATION_STYLE_ASSIGNMENT((#251));
#129=VERTEX_POINT('',#252);
#130=PRESENTATION_STYLE_ASSIGNMENT((#253));
#131=EDGE_CURVE('',#129,#165,#254,.T.);
#132=PRESENTATION_STYLE_ASSIGNMENT((#255));
#133=EDGE_CURVE('',#125,#115,#256,.T.);
#134=PRESENTATION_STYLE_ASSIGNMENT((#257));
#135=EDGE_CURVE('',#143,#153,#258,.T.);
#136=PRESENTATION_STYLE_ASSIGNMENT((#259));
#137=ADVANCED_FACE('',(#260),#261,.T.);
#138=PRESENTATION_STYLE_ASSIGNMENT((#262));
#139=ADVANCED_FACE('',(#263),#264,.T.);
#140=PRESENTATION_STYLE_ASSIGNMENT((#265));
#141=ADVANCED_FACE('',(#266),#267,.T.);
#142=PRESENTATION_STYLE_ASSIGNMENT((#268));
#143=VERTEX_POINT('',#269);
#144=PRESENTATION_STYLE_ASSIGNMENT((#270));
#145=VERTEX_POINT('',#271);
#146=PRESENTATION_STYLE_ASSIGNMENT((#272));
#147=EDGE_CURVE('',#85,#143,#273,.T.);
#148=PRESENTATION_STYLE_ASSIGNMENT((#274));
#149=VERTEX_POINT('',#275);
#150=PRESENTATION_STYLE_ASSIGNMENT((#276));
#151=EDGE_CURVE('',#153,#115,#277,.T.);
#152=PRESENTATION_STYLE_ASSIGNMENT((#278));
#153=VERTEX_POINT('',#279);
#154=PRESENTATION_STYLE_ASSIGNMENT((#280));
#155=EDGE_CURVE('',#145,#91,#281,.T.);
#156=PRESENTATION_STYLE_ASSIGNMENT((#282));
#157=VERTEX_POINT('',#283);
#158=PRESENTATION_STYLE_ASSIGNMENT((#284));
#159=VERTEX_POINT('',#285);
#160=PRESENTATION_STYLE_ASSIGNMENT((#286));
#161=EDGE_CURVE('',#125,#129,#287,.T.);
#162=PRESENTATION_STYLE_ASSIGNMENT((#288));
#163=ADVANCED_FACE('',(#289),#290,.T.);
#164=PRESENTATION_STYLE_ASSIGNMENT((#291));
#165=VERTEX_POINT('',#292);
#166=PRESENTATION_STYLE_ASSIGNMENT((#293));
#167=EDGE_CURVE('',#75,#159,#294,.T.);
#168=PRESENTATION_STYLE_ASSIGNMENT((#295));
#169=ADVANCED_FACE('',(#296),#297,.T.);
#170=PRESENTATION_STYLE_ASSIGNMENT((#298));
#171=EDGE_CURVE('',#165,#149,#299,.T.);
#172=PRESENTATION_STYLE_ASSIGNMENT((#300));
#173=EDGE_CURVE('',#77,#145,#301,.T.);
#174=PRESENTATION_STYLE_ASSIGNMENT((#302));
#175=EDGE_CURVE('',#145,#75,#303,.T.);
#176=PRODUCT('1','1','PART-1-DESC',(#304));
#177=PRODUCT_DEFINITION('NONE','NONE',#305,#2);
#178=AXIS2_PLACEMENT_3D('',#306,#307,#308);
#181=LENGTH_MEASURE_WITH_UNIT(LENGTH_MEASURE(1.0),#309);
#184=DIMENSIONAL_EXPONENTS(1.0,0.0,0.0,0.0,0.0,0.0,0.0);
#186=DIMENSIONAL_EXPONENTS(0.0,0.0,0.0,0.0,0.0,0.0,0.0);
#192=POINT_STYLE(' ',#310,POSITIVE_LENGTH_MEASURE(1.0E-006),#311);
#193=CARTESIAN_POINT('',(6.51,7.1099999999,0.0));
#194=POINT_STYLE(' ',#312,POSITIVE_LENGTH_MEASURE(1.0E-006),#313);
#195=CARTESIAN_POINT('',(7.1099999999,0.6,0.0));
#196=CURVE_STYLE('',#314,POSITIVE_LENGTH_MEASURE(1.0E-006),#315);
#197=LINE('',#316,#317);
#198=SURFACE_STYLE_USAGE(.BOTH.,#318);
#199=FACE_OUTER_BOUND('',#319,.T.);
#200=PLANE('',#320);
#201=CURVE_STYLE('',#321,POSITIVE_LENGTH_MEASURE(1.0E-006),#322);
#202=CIRCLE('',#323,0.164323412422586);
#203=POINT_STYLE(' ',#324,POSITIVE_LENGTH_MEASURE(1.0E-006),#325);
#204=CARTESIAN_POINT('',(0.6,7.11,0.0));
#205=SURFACE_STYLE_USAGE(.BOTH.,#326);
#206=FACE_OUTER_BOUND('',#327,.T.);
#207=PLANE('',#328);
#208=CURVE_STYLE('',#329,POSITIVE_LENGTH_MEASURE(1.0E-006),#330);
#209=LINE('',#331,#332);
#210=POINT_STYLE(' ',#333,POSITIVE_LENGTH_MEASURE(1.0E-006),#334);
#211=CARTESIAN_POINT('',(6.67432341232259,6.50999999992739,-3.1));
#212=CURVE_STYLE('',#335,POSITIVE_LENGTH_MEASURE(1.0E-006),#336);
#213=CIRCLE('',#337,0.164323412422585);
#214=POINT_STYLE(' ',#338,POSITIVE_LENGTH_MEASURE(1.0E-006),#339);
#215=CARTESIAN_POINT('',(0.6,0.435676587577415,-3.1));
#216=CURVE_STYLE('',#340,POSITIVE_LENGTH_MEASURE(1.0E-006),#341);
#217=LINE('',#342,#343);
#218=CURVE_STYLE('',#344,POSITIVE_LENGTH_MEASURE(1.0E-006),#345);
#219=CIRCLE('',#346,0.6);
#220=SURFACE_STYLE_USAGE(.BOTH.,#347);
#221=FACE_OUTER_BOUND('',#348,.T.);
#222=CONICAL_SURFACE('',#349,0.600000000000001,0.139626340159547);
#223=SURFACE_STYLE_USAGE(.BOTH.,#350);
#224=FACE_OUTER_BOUND('',#351,.T.);
#225=PLANE('',#352);
#226=CURVE_STYLE('',#353,POSITIVE_LENGTH_MEASURE(1.0E-006),#354);
#227=CIRCLE('',#355,0.164323412422585);
#228=CURVE_STYLE('',#356,POSITIVE_LENGTH_MEASURE(1.0E-006),#357);
#229=LINE('',#358,#359);
#230=SURFACE_STYLE_USAGE(.BOTH.,#360);
#231=FACE_OUTER_BOUND('',#361,.T.);
#232=PLANE('',#362);
#233=CURVE_STYLE('',#363,POSITIVE_LENGTH_MEASURE(1.0E-006),#364);
#234=LINE('',#365,#366);
#235=CURVE_STYLE('',#367,POSITIVE_LENGTH_MEASURE(1.0E-006),#368);
#236=CIRCLE('',#369,0.6);
#237=POINT_STYLE(' ',#370,POSITIVE_LENGTH_MEASURE(1.0E-006),#371);
#238=CARTESIAN_POINT('',(0.435676587677415,0.600000000072613,-3.1));
#239=CURVE_STYLE('',#372,POSITIVE_LENGTH_MEASURE(1.0E-006),#373);
#240=LINE('',#374,#375);
#241=POINT_STYLE(' ',#376,POSITIVE_LENGTH_MEASURE(1.0E-006),#377);
#242=CARTESIAN_POINT('',(6.67432341242259,0.6,-3.1));
#243=CURVE_STYLE('',#378,POSITIVE_LENGTH_MEASURE(1.0E-006),#379);
#244=LINE('',#380,#381);
#245=SURFACE_STYLE_USAGE(.BOTH.,#382);
#246=CLOSED_SHELL('',(#163,#109,#101,#137,#141,#103,#169,#87,#81,#139));
#247=POINT_STYLE(' ',#383,POSITIVE_LENGTH_MEASURE(1.0E-006),#384);
#248=CARTESIAN_POINT('',(0.0,0.600000000000001,0.0));
#249=CURVE_STYLE('',#385,POSITIVE_LENGTH_MEASURE(1.0E-006),#386);
#250=LINE('',#387,#388);
#251=POINT_STYLE(' ',#389,POSITIVE_LENGTH_MEASURE(1.0E-006),#390);
#252=CARTESIAN_POINT('',(0.6,0.0,0.0));
#253=CURVE_STYLE('',#391,POSITIVE_LENGTH_MEASURE(1.0E-006),#392);
#254=LINE('',#393,#394);
#255=CURVE_STYLE('',#395,POSITIVE_LENGTH_MEASURE(1.0E-006),#396);
#256=LINE('',#397,#398);
#257=CURVE_STYLE('',#399,POSITIVE_LENGTH_MEASURE(1.0E-006),#400);
#258=CIRCLE('',#401,0.164323412422585);
#259=SURFACE_STYLE_USAGE(.BOTH.,#402);
#260=FACE_OUTER_BOUND('',#403,.T.);
#261=PLANE('',#404);
#262=SURFACE_STYLE_USAGE(.BOTH.,#405);
#263=FACE_OUTER_BOUND('',#406,.T.);
#264=PLANE('',#407);
#265=SURFACE_STYLE_USAGE(.BOTH.,#408);
#266=FACE_OUTER_BOUND('',#409,.T.);
#267=CONICAL_SURFACE('',#410,0.6,0.139626340159547);
#268=POINT_STYLE(' ',#411,POSITIVE_LENGTH_MEASURE(1.0E-006),#412);
#269=CARTESIAN_POINT('',(0.600000000072613,6.67432341232258,-3.1));
#270=POINT_STYLE(' ',#413,POSITIVE_LENGTH_MEASURE(1.0E-006),#414);
#271=CARTESIAN_POINT('',(7.11,6.51,0.0));
#272=CURVE_STYLE('',#415,POSITIVE_LENGTH_MEASURE(1.0E-006),#416);
#273=LINE('',#417,#418);
#274=POINT_STYLE(' ',#419,POSITIVE_LENGTH_MEASURE(1.0E-006),#420);
#275=CARTESIAN_POINT('',(6.50999999992739,0.435676587677415,-3.1));
#276=CURVE_STYLE('',#421,POSITIVE_LENGTH_MEASURE(1.0E-006),#422);
#277=LINE('',#423,#424);
#278=POINT_STYLE(' ',#425,POSITIVE_LENGTH_MEASURE(1.0E-006),#426);
#279=CARTESIAN_POINT('',(0.435676587577415,6.51,-3.1));
#280=CURVE_STYLE('',#427,POSITIVE_LENGTH_MEASURE(1.0E-006),#428);
#281=LINE('',#429,#430);
#282=POINT_STYLE(' ',#431,POSITIVE_LENGTH_MEASURE(1.0E-006),#432);
#283=CARTESIAN_POINT('',(1.00000452363247E-010,6.51,0.0));
#284=POINT_STYLE(' ',#433,POSITIVE_LENGTH_MEASURE(1.0E-006),#434);
#285=CARTESIAN_POINT('',(6.51,6.67432341242259,-3.1));
#286=CURVE_STYLE('',#435,POSITIVE_LENGTH_MEASURE(1.0E-006),#436);
#287=CIRCLE('',#437,0.6);
#288=SURFACE_STYLE_USAGE(.BOTH.,#438);
#289=FACE_OUTER_BOUND('',#439,.T.);
#290=CONICAL_SURFACE('',#440,0.6,0.139626340159547);
#291=POINT_STYLE(' ',#441,POSITIVE_LENGTH_MEASURE(1.0E-006),#442);
#292=CARTESIAN_POINT('',(6.51,0.0,0.0));
#293=CURVE_STYLE('',#443,POSITIVE_LENGTH_MEASURE(1.0E-006),#444);
#294=LINE('',#445,#446);
#295=SURFACE_STYLE_USAGE(.BOTH.,#447);
#296=FACE_OUTER_BOUND('',#448,.T.);
#297=CONICAL_SURFACE('',#449,0.6,0.139626340159547);
#298=CURVE_STYLE('',#450,POSITIVE_LENGTH_MEASURE(1.0E-006),#451);
#299=LINE('',#452,#453);
#300=CURVE_STYLE('',#454,POSITIVE_LENGTH_MEASURE(1.0E-006),#455);
#301=LINE('',#456,#457);
#302=CURVE_STYLE('',#458,POSITIVE_LENGTH_MEASURE(1.0E-006),#459);
#303=CIRCLE('',#460,0.600000000000001);
#304=PRODUCT_CONTEXT('',#61,'mechanical');
#305=PRODUCT_DEFINITION_FORMATION_WITH_SPECIFIED_SOURCE(' ','NONE',#176,.NOT_KNOWN.);
#306=CARTESIAN_POINT('',(0.0,0.0,0.0));
#307=DIRECTION('',(0.0,0.0,1.0));
#308=DIRECTION('',(1.0,0.0,0.0));
#309= (NAMED_UNIT(#184)LENGTH_UNIT()SI_UNIT(.MILLI.,.METRE.));
#310=PRE_DEFINED_MARKER('');
#311=COLOUR_RGB('',0.800000011920929,0.800000011920929,0.800000011920929);
#312=PRE_DEFINED_MARKER('');
#313=COLOUR_RGB('',0.800000011920929,0.800000011920929,0.800000011920929);
#314=DRAUGHTING_PRE_DEFINED_CURVE_FONT('continuous');
#315=COLOUR_RGB('',0.800000011920929,0.800000011920929,0.800000011920929);
#316=CARTESIAN_POINT('',(6.51,7.11,0.0));
#317=VECTOR('',#462,1.0);
#318=SURFACE_SIDE_STYLE('',(#463));
#319=EDGE_LOOP('',(#464,#465,#466,#467,#468,#469,#470,#471));
#320=AXIS2_PLACEMENT_3D('',#472,#473,#474);
#321=DRAUGHTING_PRE_DEFINED_CURVE_FONT('continuous');
#322=COLOUR_RGB('',0.800000011920929,0.800000011920929,0.800000011920929);
#323=AXIS2_PLACEMENT_3D('',#475,#476,#477);
#324=PRE_DEFINED_MARKER('');
#325=COLOUR_RGB('',0.800000011920929,0.800000011920929,0.800000011920929);
#326=SURFACE_SIDE_STYLE('',(#478));
#327=EDGE_LOOP('',(#479,#480,#481,#482));
#328=AXIS2_PLACEMENT_3D('',#483,#484,#485);
#329=DRAUGHTING_PRE_DEFINED_CURVE_FONT('continuous');
#330=COLOUR_RGB('',0.800000011920929,0.800000011920929,0.800000011920929);
#331=CARTESIAN_POINT('',(1.00000452363247E-010,6.51,0.0));
#332=VECTOR('',#486,1.0);
#333=PRE_DEFINED_MARKER('');
#334=COLOUR_RGB('',0.800000011920929,0.800000011920929,0.800000011920929);
#335=DRAUGHTING_PRE_DEFINED_CURVE_FONT('continuous');
#336=COLOUR_RGB('',0.800000011920929,0.800000011920929,0.800000011920929);
#337=AXIS2_PLACEMENT_3D('',#487,#488,#489);
#338=PRE_DEFINED_MARKER('');
#339=COLOUR_RGB('',0.800000011920929,0.800000011920929,0.800000011920929);
#340=DRAUGHTING_PRE_DEFINED_CURVE_FONT('continuous');
#341=COLOUR_RGB('',0.800000011920929,0.800000011920929,0.800000011920929);
#342=CARTESIAN_POINT('',(6.51,6.67432341242259,-3.1));
#343=VECTOR('',#490,1.0);
#344=DRAUGHTING_PRE_DEFINED_CURVE_FONT('continuous');
#345=COLOUR_RGB('',0.800000011920929,0.800000011920929,0.800000011920929);
#346=AXIS2_PLACEMENT_3D('',#491,#492,#493);
#347=SURFACE_SIDE_STYLE('',(#494));
#348=EDGE_LOOP('',(#495,#496,#497,#498));
#349=AXIS2_PLACEMENT_3D('',#499,#500,#501);
#350=SURFACE_SIDE_STYLE('',(#502));
#351=EDGE_LOOP('',(#503,#504,#505,#506));
#352=AXIS2_PLACEMENT_3D('',#507,#508,#509);
#353=DRAUGHTING_PRE_DEFINED_CURVE_FONT('continuous');
#354=COLOUR_RGB('',0.800000011920929,0.800000011920929,0.800000011920929);
#355=AXIS2_PLACEMENT_3D('',#510,#511,#512);
#356=DRAUGHTING_PRE_DEFINED_CURVE_FONT('continuous');
#357=COLOUR_RGB('',0.800000011920929,0.800000011920929,0.800000011920929);
#358=CARTESIAN_POINT('',(6.67432341242259,0.6,-3.1));
#359=VECTOR('',#513,1.0);
#360=SURFACE_SIDE_STYLE('',(#514));
#361=EDGE_LOOP('',(#515,#516,#517,#518));
#362=AXIS2_PLACEMENT_3D('',#519,#520,#521);
#363=DRAUGHTING_PRE_DEFINED_CURVE_FONT('continuous');
#364=COLOUR_RGB('',0.800000011920929,0.800000011920929,0.800000011920929);
#365=CARTESIAN_POINT('',(7.1099999999,0.6,0.0));
#366=VECTOR('',#522,1.0);
#367=DRAUGHTING_PRE_DEFINED_CURVE_FONT('continuous');
#368=COLOUR_RGB('',0.800000011920929,0.800000011920929,0.800000011920929);
#369=AXIS2_PLACEMENT_3D('',#523,#524,#525);
#370=PRE_DEFINED_MARKER('');
#371=COLOUR_RGB('',0.800000011920929,0.800000011920929,0.800000011920929);
#372=DRAUGHTING_PRE_DEFINED_CURVE_FONT('continuous');
#373=COLOUR_RGB('',0.800000011920929,0.800000011920929,0.800000011920929);
#374=CARTESIAN_POINT('',(0.6,0.0,0.0));
#375=VECTOR('',#526,1.0);
#376=PRE_DEFINED_MARKER('');
#377=COLOUR_RGB('',0.800000011920929,0.800000011920929,0.800000011920929);
#378=DRAUGHTING_PRE_DEFINED_CURVE_FONT('continuous');
#379=COLOUR_RGB('',0.800000011920929,0.800000011920929,0.800000011920929);
#380=CARTESIAN_POINT('',(0.6,0.435676587577415,-3.1));
#381=VECTOR('',#527,1.0);
#382=SURFACE_SIDE_STYLE('',(#528));
#383=PRE_DEFINED_MARKER('');
#384=COLOUR_RGB('',0.800000011920929,0.800000011920929,0.800000011920929);
#385=DRAUGHTING_PRE_DEFINED_CURVE_FONT('continuous');
#386=COLOUR_RGB('',0.800000011920929,0.800000011920929,0.800000011920929);
#387=CARTESIAN_POINT('',(0.0,6.51,0.0));
#388=VECTOR('',#529,1.0);
#389=PRE_DEFINED_MARKER('');
#390=COLOUR_RGB('',0.800000011920929,0.800000011920929,0.800000011920929);
#391=DRAUGHTING_PRE_DEFINED_CURVE_FONT('continuous');
#392=COLOUR_RGB('',0.800000011920929,0.800000011920929,0.800000011920929);
#393=CARTESIAN_POINT('',(0.6,0.0,0.0));
#394=VECTOR('',#530,1.0);
#395=DRAUGHTING_PRE_DEFINED_CURVE_FONT('continuous');
#396=COLOUR_RGB('',0.800000011920929,0.800000011920929,0.800000011920929);
#397=CARTESIAN_POINT('',(0.0,0.600000000000001,0.0));
#398=VECTOR('',#531,1.0);
#399=DRAUGHTING_PRE_DEFINED_CURVE_FONT('continuous');
#400=COLOUR_RGB('',0.800000011920929,0.800000011920929,0.800000011920929);
#401=AXIS2_PLACEMENT_3D('',#532,#533,#534);
#402=SURFACE_SIDE_STYLE('',(#535));
#403=EDGE_LOOP('',(#536,#537,#538,#539));
#404=AXIS2_PLACEMENT_3D('',#540,#541,#542);
#405=SURFACE_SIDE_STYLE('',(#543));
#406=EDGE_LOOP('',(#544,#545,#546,#547,#548,#549,#550,#551));
#407=AXIS2_PLACEMENT_3D('',#552,#553,#554);
#408=SURFACE_SIDE_STYLE('',(#555));
#409=EDGE_LOOP('',(#556,#557,#558,#559));
#410=AXIS2_PLACEMENT_3D('',#560,#561,#562);
#411=PRE_DEFINED_MARKER('');
#412=COLOUR_RGB('',0.800000011920929,0.800000011920929,0.800000011920929);
#413=PRE_DEFINED_MARKER('');
#414=COLOUR_RGB('',0.800000011920929,0.800000011920929,0.800000011920929);
#415=DRAUGHTING_PRE_DEFINED_CURVE_FONT('continuous');
#416=COLOUR_RGB('',0.800000011920929,0.800000011920929,0.800000011920929);
#417=CARTESIAN_POINT('',(0.6,7.11,0.0));
#418=VECTOR('',#563,1.0);
#419=PRE_DEFINED_MARKER('');
#420=COLOUR_RGB('',0.800000011920929,0.800000011920929,0.800000011920929);
#421=DRAUGHTING_PRE_DEFINED_CURVE_FONT('continuous');
#422=COLOUR_RGB('',0.800000011920929,0.800000011920929,0.800000011920929);
#423=CARTESIAN_POINT('',(0.435676587577415,6.51,-3.1));
#424=VECTOR('',#564,1.0);
#425=PRE_DEFINED_MARKER('');
#426=COLOUR_RGB('',0.800000011920929,0.800000011920929,0.800000011920929);
#427=DRAUGHTING_PRE_DEFINED_CURVE_FONT('continuous');
#428=COLOUR_RGB('',0.800000011920929,0.800000011920929,0.800000011920929);
#429=CARTESIAN_POINT('',(7.11,6.51,0.0));
#430=VECTOR('',#565,1.0);
#431=PRE_DEFINED_MARKER('');
#432=COLOUR_RGB('',0.800000011920929,0.800000011920929,0.800000011920929);
#433=PRE_DEFINED_MARKER('');
#434=COLOUR_RGB('',0.800000011920929,0.800000011920929,0.800000011920929);
#435=DRAUGHTING_PRE_DEFINED_CURVE_FONT('continuous');
#436=COLOUR_RGB('',0.800000011920929,0.800000011920929,0.800000011920929);
#437=AXIS2_PLACEMENT_3D('',#566,#567,#568);
#438=SURFACE_SIDE_STYLE('',(#569));
#439=EDGE_LOOP('',(#570,#571,#572,#573));
#440=AXIS2_PLACEMENT_3D('',#574,#575,#576);
#441=PRE_DEFINED_MARKER('');
#442=COLOUR_RGB('',0.800000011920929,0.800000011920929,0.800000011920929);
#443=DRAUGHTING_PRE_DEFINED_CURVE_FONT('continuous');
#444=COLOUR_RGB('',0.800000011920929,0.800000011920929,0.800000011920929);
#445=CARTESIAN_POINT('',(6.51,7.1099999999,0.0));
#446=VECTOR('',#577,1.0);
#447=SURFACE_SIDE_STYLE('',(#578));
#448=EDGE_LOOP('',(#579,#580,#581,#582));
#449=AXIS2_PLACEMENT_3D('',#583,#584,#585);
#450=DRAUGHTING_PRE_DEFINED_CURVE_FONT('continuous');
#451=COLOUR_RGB('',0.800000011920929,0.800000011920929,0.800000011920929);
#452=CARTESIAN_POINT('',(6.51,0.0,0.0));
#453=VECTOR('',#586,1.0);
#454=DRAUGHTING_PRE_DEFINED_CURVE_FONT('continuous');
#455=COLOUR_RGB('',0.800000011920929,0.800000011920929,0.800000011920929);
#456=CARTESIAN_POINT('',(7.11,0.6,0.0));
#457=VECTOR('',#587,1.0);
#458=DRAUGHTING_PRE_DEFINED_CURVE_FONT('continuous');
#459=COLOUR_RGB('',0.800000011920929,0.800000011920929,0.800000011920929);
#460=AXIS2_PLACEMENT_3D('',#588,#589,#590);
#462=DIRECTION('',(-1.0,0.0,0.0));
#463=SURFACE_STYLE_FILL_AREA(#591);
#464=ORIENTED_EDGE('',*,*,#93,.F.);
#465=ORIENTED_EDGE('',*,*,#121,.F.);
#466=ORIENTED_EDGE('',*,*,#105,.F.);
#467=ORIENTED_EDGE('',*,*,#151,.F.);
#468=ORIENTED_EDGE('',*,*,#135,.F.);
#469=ORIENTED_EDGE('',*,*,#97,.F.);
#470=ORIENTED_EDGE('',*,*,#83,.F.);
#471=ORIENTED_EDGE('',*,*,#107,.F.);
#472=CARTESIAN_POINT('',(3.555,3.555,-3.1));
#473=DIRECTION('',(0.0,0.0,1.0));
#474=DIRECTION('',(1.0,0.0,0.0));
#475=CARTESIAN_POINT('',(6.5099999999,6.5099999999,-3.1));
#476=DIRECTION('',(0.0,-0.0,1.0));
#477=DIRECTION('',(1.0,1.66666680456728E-010,0.0));
#478=SURFACE_STYLE_FILL_AREA(#592);
#479=ORIENTED_EDGE('',*,*,#121,.T.);
#480=ORIENTED_EDGE('',*,*,#171,.F.);
#481=ORIENTED_EDGE('',*,*,#131,.F.);
#482=ORIENTED_EDGE('',*,*,#117,.T.);
#483=CARTESIAN_POINT('',(0.6,0.0,0.0));
#484=DIRECTION('',(-0.0,-0.99026806874157,-0.139173100960066));
#485=DIRECTION('',(-1.0,0.0,0.0));
#486=DIRECTION('',(0.13917310092874,0.0,-0.990268068745973));
#487=CARTESIAN_POINT('',(6.5099999999,0.6000000001,-3.1));
#488=DIRECTION('',(0.0,0.0,1.0));
#489=DIRECTION('',(1.66666680456729E-010,-1.0,0.0));
#490=DIRECTION('',(-1.0,0.0,0.0));
#491=CARTESIAN_POINT('',(0.6000000001,6.5099999999,0.0));
#492=DIRECTION('',(0.0,0.0,1.0));
#493=DIRECTION('',(-1.6666705053107E-010,1.0,0.0));
#494=SURFACE_STYLE_FILL_AREA(#593);
#495=ORIENTED_EDGE('',*,*,#83,.T.);
#496=ORIENTED_EDGE('',*,*,#167,.F.);
#497=ORIENTED_EDGE('',*,*,#175,.F.);
#498=ORIENTED_EDGE('',*,*,#155,.T.);
#499=CARTESIAN_POINT('',(6.5099999999,6.5099999999,0.0));
#500=DIRECTION('',(-0.0,-0.0,1.0));
#501=DIRECTION('',(1.0,1.66666680456728E-010,0.0));
#502=SURFACE_STYLE_FILL_AREA(#594);
#503=ORIENTED_EDGE('',*,*,#151,.T.);
#504=ORIENTED_EDGE('',*,*,#133,.F.);
#505=ORIENTED_EDGE('',*,*,#127,.F.);
#506=ORIENTED_EDGE('',*,*,#89,.T.);
#507=CARTESIAN_POINT('',(1.00000452363247E-010,6.51,0.0));
#508=DIRECTION('',(-0.990268068745973,0.0,-0.13917310092874));
#509=DIRECTION('',(0.0,1.0,0.0));
#510=CARTESIAN_POINT('',(0.6000000001,0.6000000001,-3.1));
#511=DIRECTION('',(0.0,0.0,1.0));
#512=DIRECTION('',(-1.0,-1.66666310382387E-010,0.0));
#513=DIRECTION('',(0.0,1.0,0.0));
#514=SURFACE_STYLE_FILL_AREA(#595);
#515=ORIENTED_EDGE('',*,*,#107,.T.);
#516=ORIENTED_EDGE('',*,*,#155,.F.);
#517=ORIENTED_EDGE('',*,*,#173,.F.);
#518=ORIENTED_EDGE('',*,*,#111,.T.);
#519=CARTESIAN_POINT('',(7.1099999999,0.6,0.0));
#520=DIRECTION('',(0.990268068745973,-0.0,-0.139173100928741));
#521=DIRECTION('',(-0.0,-1.0,0.0));
#522=DIRECTION('',(-0.139173100928741,0.0,-0.990268068745973));
#523=CARTESIAN_POINT('',(6.5099999999,0.6000000001,0.0));
#524=DIRECTION('',(0.0,0.0,1.0));
#525=DIRECTION('',(1.66666680456729E-010,-1.0,0.0));
#526=DIRECTION('',(0.0,0.139173100960066,-0.99026806874157));
#527=DIRECTION('',(1.0,0.0,0.0));
#528=SURFACE_STYLE_FILL_AREA(#596);
#529=DIRECTION('',(0.0,-1.0,0.0));
#530=DIRECTION('',(1.0,0.0,0.0));
#531=DIRECTION('',(0.139173100991391,2.31954232286202E-011,-0.990268068737168));
#532=CARTESIAN_POINT('',(0.6000000001,6.5099999999,-3.1));
#533=DIRECTION('',(0.0,0.0,1.0));
#534=DIRECTION('',(-1.6666705053107E-010,1.0,0.0));
#535=SURFACE_STYLE_FILL_AREA(#597);
#536=ORIENTED_EDGE('',*,*,#97,.T.);
#537=ORIENTED_EDGE('',*,*,#147,.F.);
#538=ORIENTED_EDGE('',*,*,#79,.F.);
#539=ORIENTED_EDGE('',*,*,#167,.T.);
#540=CARTESIAN_POINT('',(6.51,7.1099999999,0.0));
#541=DIRECTION('',(0.0,0.990268068745973,-0.139173100928741));
#542=DIRECTION('',(1.0,-0.0,0.0));
#543=SURFACE_STYLE_FILL_AREA(#598);
#544=ORIENTED_EDGE('',*,*,#131,.T.);
#545=ORIENTED_EDGE('',*,*,#113,.T.);
#546=ORIENTED_EDGE('',*,*,#173,.T.);
#547=ORIENTED_EDGE('',*,*,#175,.T.);
#548=ORIENTED_EDGE('',*,*,#79,.T.);
#549=ORIENTED_EDGE('',*,*,#99,.T.);
#550=ORIENTED_EDGE('',*,*,#127,.T.);
#551=ORIENTED_EDGE('',*,*,#161,.T.);
#552=CARTESIAN_POINT('',(3.555,3.555,0.0));
#553=DIRECTION('',(0.0,0.0,1.0));
#554=DIRECTION('',(1.0,0.0,0.0));
#555=SURFACE_STYLE_FILL_AREA(#599);
#556=ORIENTED_EDGE('',*,*,#135,.T.);
#557=ORIENTED_EDGE('',*,*,#89,.F.);
#558=ORIENTED_EDGE('',*,*,#99,.F.);
#559=ORIENTED_EDGE('',*,*,#147,.T.);
#560=CARTESIAN_POINT('',(0.6000000001,6.5099999999,0.0));
#561=DIRECTION('',(-0.0,-0.0,1.0));
#562=DIRECTION('',(-1.6666705053107E-010,1.0,0.0));
#563=DIRECTION('',(2.31956005541703E-011,-0.139173100991392,-0.990268068737168));
#564=DIRECTION('',(0.0,-1.0,0.0));
#565=DIRECTION('',(-0.139173100991391,-2.31956005541703E-011,-0.990268068737168));
#566=CARTESIAN_POINT('',(0.6000000001,0.6000000001,0.0));
#567=DIRECTION('',(0.0,0.0,1.0));
#568=DIRECTION('',(-1.0,-1.66666310382387E-010,0.0));
#569=SURFACE_STYLE_FILL_AREA(#600);
#570=ORIENTED_EDGE('',*,*,#93,.T.);
#571=ORIENTED_EDGE('',*,*,#111,.F.);
#572=ORIENTED_EDGE('',*,*,#113,.F.);
#573=ORIENTED_EDGE('',*,*,#171,.T.);
#574=CARTESIAN_POINT('',(6.5099999999,0.6000000001,0.0));
#575=DIRECTION('',(-0.0,-0.0,1.0));
#576=DIRECTION('',(1.66666680456729E-010,-1.0,0.0));
#577=DIRECTION('',(0.0,-0.139173100928741,-0.990268068745973));
#578=SURFACE_STYLE_FILL_AREA(#601);
#579=ORIENTED_EDGE('',*,*,#105,.T.);
#580=ORIENTED_EDGE('',*,*,#117,.F.);
#581=ORIENTED_EDGE('',*,*,#161,.F.);
#582=ORIENTED_EDGE('',*,*,#133,.T.);
#583=CARTESIAN_POINT('',(0.6000000001,0.6000000001,0.0));
#584=DIRECTION('',(0.0,-0.0,1.0));
#585=DIRECTION('',(-1.0,-1.66666310382387E-010,0.0));
#586=DIRECTION('',(-2.31953168332902E-011,0.139173100991391,-0.990268068737168));
#587=DIRECTION('',(0.0,1.0,0.0));
#588=CARTESIAN_POINT('',(6.5099999999,6.5099999999,0.0));
#589=DIRECTION('',(0.0,-0.0,1.0));
#590=DIRECTION('',(1.0,1.66666680456728E-010,0.0));
#591=FILL_AREA_STYLE('',(#602));
#592=FILL_AREA_STYLE('',(#603));
#593=FILL_AREA_STYLE('',(#604));
#594=FILL_AREA_STYLE('',(#605));
#595=FILL_AREA_STYLE('',(#606));
#596=FILL_AREA_STYLE('',(#607));
#597=FILL_AREA_STYLE('',(#608));
#598=FILL_AREA_STYLE('',(#609));
#599=FILL_AREA_STYLE('',(#610));
#600=FILL_AREA_STYLE('',(#611));
#601=FILL_AREA_STYLE('',(#612));
#602=FILL_AREA_STYLE_COLOUR('',#613);
#603=FILL_AREA_STYLE_COLOUR('',#614);
#604=FILL_AREA_STYLE_COLOUR('',#615);
#605=FILL_AREA_STYLE_COLOUR('',#616);
#606=FILL_AREA_STYLE_COLOUR('',#617);
#607=FILL_AREA_STYLE_COLOUR('',#618);
#608=FILL_AREA_STYLE_COLOUR('',#619);
#609=FILL_AREA_STYLE_COLOUR('',#620);
#610=FILL_AREA_STYLE_COLOUR('',#621);
#611=FILL_AREA_STYLE_COLOUR('',#622);
#612=FILL_AREA_STYLE_COLOUR('',#623);
#613=COLOUR_RGB('',0.800000011920929,0.800000011920929,0.800000011920929);
#614=COLOUR_RGB('',0.800000011920929,0.800000011920929,0.800000011920929);
#615=COLOUR_RGB('',0.800000011920929,0.800000011920929,0.800000011920929);
#616=COLOUR_RGB('',0.800000011920929,0.800000011920929,0.800000011920929);
#617=COLOUR_RGB('',0.800000011920929,0.800000011920929,0.800000011920929);
#618=COLOUR_RGB('',0.800000011920929,0.800000011920929,0.800000011920929);
#619=COLOUR_RGB('',0.800000011920929,0.800000011920929,0.800000011920929);
#620=COLOUR_RGB('',0.800000011920929,0.800000011920929,0.800000011920929);
#621=COLOUR_RGB('',0.800000011920929,0.800000011920929,0.800000011920929);
#622=COLOUR_RGB('',0.800000011920929,0.800000011920929,0.800000011920929);
#623=COLOUR_RGB('',0.800000011920929,0.800000011920929,0.800000011920929);
#624=AXIS2_PLACEMENT_3D('PCS',#625,#626,#627);
#625=CARTESIAN_POINT('',(0.0,0.0,0.0));
#626=DIRECTION('',(0.0,0.0,1.0));
#627=DIRECTION('',(1.0,0.0,0.0));
#628=AXIS2_PLACEMENT_3D('MCS',#629,#630,#631);
#629=CARTESIAN_POINT('',(3.555,3.555,0.0));
#630=DIRECTION('',(0.0,0.0,1.0));
#631=DIRECTION('',(1.0,0.0,0.0));
#632=CONSTRUCTIVE_GEOMETRY_REPRESENTATION_RELATIONSHIP('coordinate systems',$,#65,#633);
#633=CONSTRUCTIVE_GEOMETRY_REPRESENTATION('coordinate systems',(#624,#628),#6);
ENDSEC;
END-ISO-10303-21;
