ISO-10303-21;
HEADER;
FILE_DESCRIPTION(('no description'),'unknown implementation level');
FILE_NAME('solidmlKmMjqMRcw2S88jH7Ix_ysg0Xs_1.STP','  ',('CIMSOURCE GmbH'),('CADClick - KiM GmbH - www.kimweb.de'),'unknown preprocess','ACIS','unknown authorization');
FILE_SCHEMA(('automotive_design'));
ENDSEC;
DATA;
#1=MECHANICAL_DESIGN_GEOMETRIC_PRESENTATION_REPRESENTATION(' ',(#10,#11,#12,#13,#14,#15,#16,#17,#18,#19,#20,#21,#22,#23,#24,#25,#26,#27,#28,#29,#30,#31,#32,#33,#34,#35,#36,#37,#38,#39,#40,#41,#42,#43,#44,#45,#46,#47,#48,#49,#50,#51,#52,#53,#54,#55,#56,#57,#58,#59,#60),#6);
#2=PRODUCT_DEFINITION_CONTEXT('',#61,'design');
#3=APPLICATION_PROTOCOL_DEFINITION('INTERNATIONAL STANDARD','automotive_design',1994,#61);
#4=PRODUCT_CATEGORY_RELATIONSHIP('NONE','NONE',#62,#63);
#5=SHAPE_DEFINITION_REPRESENTATION(#64,#65);
#6= (GEOMETRIC_REPRESENTATION_CONTEXT(3)GLOBAL_UNCERTAINTY_ASSIGNED_CONTEXT((#68))GLOBAL_UNIT_ASSIGNED_CONTEXT((#70,#71,#72))REPRESENTATION_CONTEXT('NONE','WORKSPACE'));
#10=STYLED_ITEM('',(#74),#75);
#11=STYLED_ITEM('',(#76),#77);
#12=STYLED_ITEM('',(#78),#79);
#13=STYLED_ITEM('',(#80),#81);
#14=STYLED_ITEM('',(#82),#83);
#15=STYLED_ITEM('',(#84),#85);
#16=STYLED_ITEM('',(#86),#87);
#17=STYLED_ITEM('',(#88),#89);
#18=STYLED_ITEM('',(#90),#91);
#19=STYLED_ITEM('',(#92),#93);
#20=STYLED_ITEM('',(#94),#95);
#21=STYLED_ITEM('',(#96),#97);
#22=STYLED_ITEM('',(#98),#99);
#23=STYLED_ITEM('',(#100),#101);
#24=STYLED_ITEM('',(#102),#103);
#25=STYLED_ITEM('',(#104),#105);
#26=STYLED_ITEM('',(#106),#107);
#27=STYLED_ITEM('',(#108),#109);
#28=STYLED_ITEM('',(#110),#111);
#29=STYLED_ITEM('',(#112),#113);
#30=STYLED_ITEM('',(#114),#115);
#31=STYLED_ITEM('',(#116),#117);
#32=STYLED_ITEM('',(#118),#119);
#33=STYLED_ITEM('',(#120),#121);
#34=STYLED_ITEM('',(#122),#123);
#35=STYLED_ITEM('',(#124),#125);
#36=STYLED_ITEM('',(#126),#127);
#37=STYLED_ITEM('',(#128),#129);
#38=STYLED_ITEM('',(#130),#131);
#39=STYLED_ITEM('',(#132),#133);
#40=STYLED_ITEM('',(#134),#135);
#41=STYLED_ITEM('',(#136),#137);
#42=STYLED_ITEM('',(#138),#139);
#43=STYLED_ITEM('',(#140),#141);
#44=STYLED_ITEM('',(#142),#143);
#45=STYLED_ITEM('',(#144),#145);
#46=STYLED_ITEM('',(#146),#147);
#47=STYLED_ITEM('',(#148),#149);
#48=STYLED_ITEM('',(#150),#151);
#49=STYLED_ITEM('',(#152),#153);
#50=STYLED_ITEM('',(#154),#155);
#51=STYLED_ITEM('',(#156),#157);
#52=STYLED_ITEM('',(#158),#159);
#53=STYLED_ITEM('',(#160),#161);
#54=STYLED_ITEM('',(#162),#163);
#55=STYLED_ITEM('',(#164),#165);
#56=STYLED_ITEM('',(#166),#167);
#57=STYLED_ITEM('',(#168),#169);
#58=STYLED_ITEM('',(#170),#171);
#59=STYLED_ITEM('',(#172),#173);
#60=STYLED_ITEM('',(#174),#175);
#61=APPLICATION_CONTEXT(' ');
#62=PRODUCT_CATEGORY('part','NONE');
#63=PRODUCT_RELATED_PRODUCT_CATEGORY('detail',' ',(#176));
#64=PRODUCT_DEFINITION_SHAPE('NONE','NONE',#177);
#65=ADVANCED_BREP_SHAPE_REPRESENTATION('1',(#121,#178),#6);
#68=UNCERTAINTY_MEASURE_WITH_UNIT(LENGTH_MEASURE(1.0E-006),#70,'','');
#70= (CONVERSION_BASED_UNIT('MILLIMETRE',#181)LENGTH_UNIT()NAMED_UNIT(#184));
#71= (NAMED_UNIT(#186)PLANE_ANGLE_UNIT()SI_UNIT($,.RADIAN.));
#72= (NAMED_UNIT(#186)SOLID_ANGLE_UNIT()SI_UNIT($,.STERADIAN.));
#74=PRESENTATION_STYLE_ASSIGNMENT((#192));
#75=EDGE_CURVE('',#81,#145,#193,.T.);
#76=PRESENTATION_STYLE_ASSIGNMENT((#194));
#77=EDGE_CURVE('',#159,#155,#195,.T.);
#78=PRESENTATION_STYLE_ASSIGNMENT((#196));
#79=VERTEX_POINT('',#197);
#80=PRESENTATION_STYLE_ASSIGNMENT((#198));
#81=VERTEX_POINT('',#199);
#82=PRESENTATION_STYLE_ASSIGNMENT((#200));
#83=EDGE_CURVE('',#155,#111,#201,.T.);
#84=PRESENTATION_STYLE_ASSIGNMENT((#202));
#85=VERTEX_POINT('',#203);
#86=PRESENTATION_STYLE_ASSIGNMENT((#204));
#87=ADVANCED_FACE('',(#205),#206,.T.);
#88=PRESENTATION_STYLE_ASSIGNMENT((#207));
#89=VERTEX_POINT('',#208);
#90=PRESENTATION_STYLE_ASSIGNMENT((#209));
#91=EDGE_CURVE('',#111,#147,#210,.T.);
#92=PRESENTATION_STYLE_ASSIGNMENT((#211));
#93=VERTEX_POINT('',#212);
#94=PRESENTATION_STYLE_ASSIGNMENT((#213));
#95=EDGE_CURVE('',#145,#119,#214,.T.);
#96=PRESENTATION_STYLE_ASSIGNMENT((#215));
#97=EDGE_CURVE('',#117,#173,#216,.T.);
#98=PRESENTATION_STYLE_ASSIGNMENT((#217));
#99=EDGE_CURVE('',#167,#109,#218,.T.);
#100=PRESENTATION_STYLE_ASSIGNMENT((#219));
#101=EDGE_CURVE('',#109,#79,#220,.T.);
#102=PRESENTATION_STYLE_ASSIGNMENT((#221));
#103=ADVANCED_FACE('',(#222),#223,.T.);
#104=PRESENTATION_STYLE_ASSIGNMENT((#224));
#105=EDGE_CURVE('',#143,#85,#225,.T.);
#106=PRESENTATION_STYLE_ASSIGNMENT((#226));
#107=EDGE_CURVE('',#159,#81,#227,.T.);
#108=PRESENTATION_STYLE_ASSIGNMENT((#228));
#109=VERTEX_POINT('',#229);
#110=PRESENTATION_STYLE_ASSIGNMENT((#230));
#111=VERTEX_POINT('',#231);
#112=PRESENTATION_STYLE_ASSIGNMENT((#232));
#113=ADVANCED_FACE('',(#233),#234,.T.);
#114=PRESENTATION_STYLE_ASSIGNMENT((#235));
#115=EDGE_CURVE('',#111,#119,#236,.T.);
#116=PRESENTATION_STYLE_ASSIGNMENT((#237));
#117=VERTEX_POINT('',#238);
#118=PRESENTATION_STYLE_ASSIGNMENT((#239));
#119=VERTEX_POINT('',#240);
#120=PRESENTATION_STYLE_ASSIGNMENT((#241));
#121=MANIFOLD_SOLID_BREP('1',#242);
#122=PRESENTATION_STYLE_ASSIGNMENT((#243));
#123=EDGE_CURVE('',#89,#93,#244,.T.);
#124=PRESENTATION_STYLE_ASSIGNMENT((#245));
#125=ADVANCED_FACE('',(#246),#247,.F.);
#126=PRESENTATION_STYLE_ASSIGNMENT((#248));
#127=ADVANCED_FACE('',(#249),#250,.T.);
#128=PRESENTATION_STYLE_ASSIGNMENT((#251));
#129=ADVANCED_FACE('',(#252),#253,.T.);
#130=PRESENTATION_STYLE_ASSIGNMENT((#254));
#131=EDGE_CURVE('',#89,#109,#255,.T.);
#132=PRESENTATION_STYLE_ASSIGNMENT((#256));
#133=EDGE_CURVE('',#79,#173,#257,.T.);
#134=PRESENTATION_STYLE_ASSIGNMENT((#258));
#135=EDGE_CURVE('',#93,#117,#259,.T.);
#136=PRESENTATION_STYLE_ASSIGNMENT((#260));
#137=EDGE_CURVE('',#117,#143,#261,.T.);
#138=PRESENTATION_STYLE_ASSIGNMENT((#262));
#139=EDGE_CURVE('',#119,#167,#263,.T.);
#140=PRESENTATION_STYLE_ASSIGNMENT((#264));
#141=EDGE_CURVE('',#147,#89,#265,.T.);
#142=PRESENTATION_STYLE_ASSIGNMENT((#266));
#143=VERTEX_POINT('',#267);
#144=PRESENTATION_STYLE_ASSIGNMENT((#268));
#145=VERTEX_POINT('',#269);
#146=PRESENTATION_STYLE_ASSIGNMENT((#270));
#147=VERTEX_POINT('',#271);
#148=PRESENTATION_STYLE_ASSIGNMENT((#272));
#149=EDGE_CURVE('',#85,#81,#273,.T.);
#150=PRESENTATION_STYLE_ASSIGNMENT((#274));
#151=EDGE_CURVE('',#93,#79,#275,.T.);
#152=PRESENTATION_STYLE_ASSIGNMENT((#276));
#153=EDGE_CURVE('',#143,#159,#277,.T.);
#154=PRESENTATION_STYLE_ASSIGNMENT((#278));
#155=VERTEX_POINT('',#279);
#156=PRESENTATION_STYLE_ASSIGNMENT((#280));
#157=EDGE_CURVE('',#155,#145,#281,.T.);
#158=PRESENTATION_STYLE_ASSIGNMENT((#282));
#159=VERTEX_POINT('',#283);
#160=PRESENTATION_STYLE_ASSIGNMENT((#284));
#161=EDGE_CURVE('',#147,#167,#285,.T.);
#162=PRESENTATION_STYLE_ASSIGNMENT((#286));
#163=ADVANCED_FACE('',(#287),#288,.T.);
#164=PRESENTATION_STYLE_ASSIGNMENT((#289));
#165=ADVANCED_FACE('',(#290),#291,.T.);
#166=PRESENTATION_STYLE_ASSIGNMENT((#292));
#167=VERTEX_POINT('',#293);
#168=PRESENTATION_STYLE_ASSIGNMENT((#294));
#169=ADVANCED_FACE('',(#295),#296,.T.);
#170=PRESENTATION_STYLE_ASSIGNMENT((#297));
#171=EDGE_CURVE('',#173,#85,#298,.T.);
#172=PRESENTATION_STYLE_ASSIGNMENT((#299));
#173=VERTEX_POINT('',#300);
#174=PRESENTATION_STYLE_ASSIGNMENT((#301));
#175=ADVANCED_FACE('',(#302),#303,.T.);
#176=PRODUCT('1','1','PART-1-DESC',(#304));
#177=PRODUCT_DEFINITION('NONE','NONE',#305,#2);
#178=AXIS2_PLACEMENT_3D('',#306,#307,#308);
#181=LENGTH_MEASURE_WITH_UNIT(LENGTH_MEASURE(1.0),#309);
#184=DIMENSIONAL_EXPONENTS(1.0,0.0,0.0,0.0,0.0,0.0,0.0);
#186=DIMENSIONAL_EXPONENTS(0.0,0.0,0.0,0.0,0.0,0.0,0.0);
#192=CURVE_STYLE('',#310,POSITIVE_LENGTH_MEASURE(1.0E-006),#311);
#193=CIRCLE('',#312,0.469187659547562);
#194=CURVE_STYLE('',#313,POSITIVE_LENGTH_MEASURE(1.0E-006),#314);
#195=CIRCLE('',#315,1.2);
#196=POINT_STYLE(' ',#316,POSITIVE_LENGTH_MEASURE(1.0E-006),#317);
#197=CARTESIAN_POINT('',(12.85,13.3191876595476,-5.2));
#198=POINT_STYLE(' ',#318,POSITIVE_LENGTH_MEASURE(1.0E-006),#319);
#199=CARTESIAN_POINT('',(0.730812340552438,1.2000000000609,-5.2));
#200=CURVE_STYLE('',#320,POSITIVE_LENGTH_MEASURE(1.0E-006),#321);
#201=LINE('',#322,#323);
#202=POINT_STYLE(' ',#324,POSITIVE_LENGTH_MEASURE(1.0E-006),#325);
#203=CARTESIAN_POINT('',(0.730812340452438,12.85,-5.2));
#204=SURFACE_STYLE_USAGE(.BOTH.,#326);
#205=FACE_OUTER_BOUND('',#327,.T.);
#206=CONICAL_SURFACE('',#328,1.2,0.139626340159547);
#207=POINT_STYLE(' ',#329,POSITIVE_LENGTH_MEASURE(1.0E-006),#330);
#208=CARTESIAN_POINT('',(14.05,12.85,0.0));
#209=CURVE_STYLE('',#331,POSITIVE_LENGTH_MEASURE(1.0E-006),#332);
#210=CIRCLE('',#333,1.2);
#211=POINT_STYLE(' ',#334,POSITIVE_LENGTH_MEASURE(1.0E-006),#335);
#212=CARTESIAN_POINT('',(12.85,14.0499999999,0.0));
#213=CURVE_STYLE('',#336,POSITIVE_LENGTH_MEASURE(1.0E-006),#337);
#214=LINE('',#338,#339);
#215=CURVE_STYLE('',#340,POSITIVE_LENGTH_MEASURE(1.0E-006),#341);
#216=LINE('',#342,#343);
#217=CURVE_STYLE('',#344,POSITIVE_LENGTH_MEASURE(1.0E-006),#345);
#218=LINE('',#346,#347);
#219=CURVE_STYLE('',#348,POSITIVE_LENGTH_MEASURE(1.0E-006),#349);
#220=CIRCLE('',#350,0.469187659547565);
#221=SURFACE_STYLE_USAGE(.BOTH.,#351);
#222=FACE_OUTER_BOUND('',#352,.T.);
#223=CONICAL_SURFACE('',#353,1.2,0.139626340159547);
#224=CURVE_STYLE('',#354,POSITIVE_LENGTH_MEASURE(1.0E-006),#355);
#225=LINE('',#356,#357);
#226=CURVE_STYLE('',#358,POSITIVE_LENGTH_MEASURE(1.0E-006),#359);
#227=LINE('',#360,#361);
#228=POINT_STYLE(' ',#362,POSITIVE_LENGTH_MEASURE(1.0E-006),#363);
#229=CARTESIAN_POINT('',(13.3191876594476,12.8499999999391,-5.2));
#230=POINT_STYLE(' ',#364,POSITIVE_LENGTH_MEASURE(1.0E-006),#365);
#231=CARTESIAN_POINT('',(12.85,0.0,0.0));
#232=SURFACE_STYLE_USAGE(.BOTH.,#366);
#233=FACE_OUTER_BOUND('',#367,.T.);
#234=PLANE('',#368);
#235=CURVE_STYLE('',#369,POSITIVE_LENGTH_MEASURE(1.0E-006),#370);
#236=LINE('',#371,#372);
#237=POINT_STYLE(' ',#373,POSITIVE_LENGTH_MEASURE(1.0E-006),#374);
#238=CARTESIAN_POINT('',(1.2,14.05,0.0));
#239=POINT_STYLE(' ',#375,POSITIVE_LENGTH_MEASURE(1.0E-006),#376);
#240=CARTESIAN_POINT('',(12.8499999999391,0.730812340552438,-5.2));
#241=SURFACE_STYLE_USAGE(.BOTH.,#377);
#242=CLOSED_SHELL('',(#175,#127,#87,#163,#129,#165,#103,#113,#125,#169));
#243=CURVE_STYLE('',#378,POSITIVE_LENGTH_MEASURE(1.0E-006),#379);
#244=CIRCLE('',#380,1.2);
#245=SURFACE_STYLE_USAGE(.BOTH.,#381);
#246=FACE_OUTER_BOUND('',#382,.T.);
#247=PLANE('',#383);
#248=SURFACE_STYLE_USAGE(.BOTH.,#384);
#249=FACE_OUTER_BOUND('',#385,.T.);
#250=PLANE('',#386);
#251=SURFACE_STYLE_USAGE(.BOTH.,#387);
#252=FACE_OUTER_BOUND('',#388,.T.);
#253=CONICAL_SURFACE('',#389,1.2,0.139626340159547);
#254=CURVE_STYLE('',#390,POSITIVE_LENGTH_MEASURE(1.0E-006),#391);
#255=LINE('',#392,#393);
#256=CURVE_STYLE('',#394,POSITIVE_LENGTH_MEASURE(1.0E-006),#395);
#257=LINE('',#396,#397);
#258=CURVE_STYLE('',#398,POSITIVE_LENGTH_MEASURE(1.0E-006),#399);
#259=LINE('',#400,#401);
#260=CURVE_STYLE('',#402,POSITIVE_LENGTH_MEASURE(1.0E-006),#403);
#261=CIRCLE('',#404,1.2);
#262=CURVE_STYLE('',#405,POSITIVE_LENGTH_MEASURE(1.0E-006),#406);
#263=CIRCLE('',#407,0.46918765954756);
#264=CURVE_STYLE('',#408,POSITIVE_LENGTH_MEASURE(1.0E-006),#409);
#265=LINE('',#410,#411);
#266=POINT_STYLE(' ',#412,POSITIVE_LENGTH_MEASURE(1.0E-006),#413);
#267=CARTESIAN_POINT('',(1.00000674407852E-010,12.85,0.0));
#268=POINT_STYLE(' ',#414,POSITIVE_LENGTH_MEASURE(1.0E-006),#415);
#269=CARTESIAN_POINT('',(1.2,0.730812340452438,-5.2));
#270=POINT_STYLE(' ',#416,POSITIVE_LENGTH_MEASURE(1.0E-006),#417);
#271=CARTESIAN_POINT('',(14.0499999999,1.2,0.0));
#272=CURVE_STYLE('',#418,POSITIVE_LENGTH_MEASURE(1.0E-006),#419);
#273=LINE('',#420,#421);
#274=CURVE_STYLE('',#422,POSITIVE_LENGTH_MEASURE(1.0E-006),#423);
#275=LINE('',#424,#425);
#276=CURVE_STYLE('',#426,POSITIVE_LENGTH_MEASURE(1.0E-006),#427);
#277=LINE('',#428,#429);
#278=POINT_STYLE(' ',#430,POSITIVE_LENGTH_MEASURE(1.0E-006),#431);
#279=CARTESIAN_POINT('',(1.2,0.0,0.0));
#280=CURVE_STYLE('',#432,POSITIVE_LENGTH_MEASURE(1.0E-006),#433);
#281=LINE('',#434,#435);
#282=POINT_STYLE(' ',#436,POSITIVE_LENGTH_MEASURE(1.0E-006),#437);
#283=CARTESIAN_POINT('',(0.0,1.2,0.0));
#284=CURVE_STYLE('',#438,POSITIVE_LENGTH_MEASURE(1.0E-006),#439);
#285=LINE('',#440,#441);
#286=SURFACE_STYLE_USAGE(.BOTH.,#442);
#287=FACE_OUTER_BOUND('',#443,.T.);
#288=PLANE('',#444);
#289=SURFACE_STYLE_USAGE(.BOTH.,#445);
#290=FACE_OUTER_BOUND('',#446,.T.);
#291=PLANE('',#447);
#292=POINT_STYLE(' ',#448,POSITIVE_LENGTH_MEASURE(1.0E-006),#449);
#293=CARTESIAN_POINT('',(13.3191876595476,1.2,-5.2));
#294=SURFACE_STYLE_USAGE(.BOTH.,#450);
#295=FACE_OUTER_BOUND('',#451,.T.);
#296=PLANE('',#452);
#297=CURVE_STYLE('',#453,POSITIVE_LENGTH_MEASURE(1.0E-006),#454);
#298=CIRCLE('',#455,0.469187659547565);
#299=POINT_STYLE(' ',#456,POSITIVE_LENGTH_MEASURE(1.0E-006),#457);
#300=CARTESIAN_POINT('',(1.2000000000609,13.3191876594476,-5.2));
#301=SURFACE_STYLE_USAGE(.BOTH.,#458);
#302=FACE_OUTER_BOUND('',#459,.T.);
#303=CONICAL_SURFACE('',#460,1.2,0.139626340159547);
#304=PRODUCT_CONTEXT('',#61,'mechanical');
#305=PRODUCT_DEFINITION_FORMATION_WITH_SPECIFIED_SOURCE(' ','NONE',#176,.NOT_KNOWN.);
#306=CARTESIAN_POINT('',(0.0,0.0,0.0));
#307=DIRECTION('',(0.0,0.0,1.0));
#308=DIRECTION('',(1.0,0.0,0.0));
#309= (NAMED_UNIT(#184)LENGTH_UNIT()SI_UNIT(.MILLI.,.METRE.));
#310=DRAUGHTING_PRE_DEFINED_CURVE_FONT('continuous');
#311=COLOUR_RGB('',0.800000011920929,0.800000011920929,0.800000011920929);
#312=AXIS2_PLACEMENT_3D('',#462,#463,#464);
#313=DRAUGHTING_PRE_DEFINED_CURVE_FONT('continuous');
#314=COLOUR_RGB('',0.800000011920929,0.800000011920929,0.800000011920929);
#315=AXIS2_PLACEMENT_3D('',#465,#466,#467);
#316=PRE_DEFINED_MARKER('');
#317=COLOUR_RGB('',0.800000011920929,0.800000011920929,0.800000011920929);
#318=PRE_DEFINED_MARKER('');
#319=COLOUR_RGB('',0.800000011920929,0.800000011920929,0.800000011920929);
#320=DRAUGHTING_PRE_DEFINED_CURVE_FONT('continuous');
#321=COLOUR_RGB('',0.800000011920929,0.800000011920929,0.800000011920929);
#322=CARTESIAN_POINT('',(1.2,0.0,0.0));
#323=VECTOR('',#468,1.0);
#324=PRE_DEFINED_MARKER('');
#325=COLOUR_RGB('',0.800000011920929,0.800000011920929,0.800000011920929);
#326=SURFACE_SIDE_STYLE('',(#469));
#327=EDGE_LOOP('',(#470,#471,#472,#473));
#328=AXIS2_PLACEMENT_3D('',#474,#475,#476);
#329=PRE_DEFINED_MARKER('');
#330=COLOUR_RGB('',0.800000011920929,0.800000011920929,0.800000011920929);
#331=DRAUGHTING_PRE_DEFINED_CURVE_FONT('continuous');
#332=COLOUR_RGB('',0.800000011920929,0.800000011920929,0.800000011920929);
#333=AXIS2_PLACEMENT_3D('',#477,#478,#479);
#334=PRE_DEFINED_MARKER('');
#335=COLOUR_RGB('',0.800000011920929,0.800000011920929,0.800000011920929);
#336=DRAUGHTING_PRE_DEFINED_CURVE_FONT('continuous');
#337=COLOUR_RGB('',0.800000011920929,0.800000011920929,0.800000011920929);
#338=CARTESIAN_POINT('',(1.2,0.730812340452438,-5.2));
#339=VECTOR('',#480,1.0);
#340=DRAUGHTING_PRE_DEFINED_CURVE_FONT('continuous');
#341=COLOUR_RGB('',0.800000011920929,0.800000011920929,0.800000011920929);
#342=CARTESIAN_POINT('',(1.2,14.05,0.0));
#343=VECTOR('',#481,1.0);
#344=DRAUGHTING_PRE_DEFINED_CURVE_FONT('continuous');
#345=COLOUR_RGB('',0.800000011920929,0.800000011920929,0.800000011920929);
#346=CARTESIAN_POINT('',(13.3191876595476,1.2,-5.2));
#347=VECTOR('',#482,1.0);
#348=DRAUGHTING_PRE_DEFINED_CURVE_FONT('continuous');
#349=COLOUR_RGB('',0.800000011920929,0.800000011920929,0.800000011920929);
#350=AXIS2_PLACEMENT_3D('',#483,#484,#485);
#351=SURFACE_SIDE_STYLE('',(#486));
#352=EDGE_LOOP('',(#487,#488,#489,#490));
#353=AXIS2_PLACEMENT_3D('',#491,#492,#493);
#354=DRAUGHTING_PRE_DEFINED_CURVE_FONT('continuous');
#355=COLOUR_RGB('',0.800000011920929,0.800000011920929,0.800000011920929);
#356=CARTESIAN_POINT('',(1.00000674407852E-010,12.85,0.0));
#357=VECTOR('',#494,1.0);
#358=DRAUGHTING_PRE_DEFINED_CURVE_FONT('continuous');
#359=COLOUR_RGB('',0.800000011920929,0.800000011920929,0.800000011920929);
#360=CARTESIAN_POINT('',(0.0,1.2,0.0));
#361=VECTOR('',#495,1.0);
#362=PRE_DEFINED_MARKER('');
#363=COLOUR_RGB('',0.800000011920929,0.800000011920929,0.800000011920929);
#364=PRE_DEFINED_MARKER('');
#365=COLOUR_RGB('',0.800000011920929,0.800000011920929,0.800000011920929);
#366=SURFACE_SIDE_STYLE('',(#496));
#367=EDGE_LOOP('',(#497,#498,#499,#500));
#368=AXIS2_PLACEMENT_3D('',#501,#502,#503);
#369=DRAUGHTING_PRE_DEFINED_CURVE_FONT('continuous');
#370=COLOUR_RGB('',0.800000011920929,0.800000011920929,0.800000011920929);
#371=CARTESIAN_POINT('',(12.85,0.0,0.0));
#372=VECTOR('',#504,1.0);
#373=PRE_DEFINED_MARKER('');
#374=COLOUR_RGB('',0.800000011920929,0.800000011920929,0.800000011920929);
#375=PRE_DEFINED_MARKER('');
#376=COLOUR_RGB('',0.800000011920929,0.800000011920929,0.800000011920929);
#377=SURFACE_SIDE_STYLE('',(#505));
#378=DRAUGHTING_PRE_DEFINED_CURVE_FONT('continuous');
#379=COLOUR_RGB('',0.800000011920929,0.800000011920929,0.800000011920929);
#380=AXIS2_PLACEMENT_3D('',#506,#507,#508);
#381=SURFACE_SIDE_STYLE('',(#509));
#382=EDGE_LOOP('',(#510,#511,#512,#513,#514,#515,#516,#517));
#383=AXIS2_PLACEMENT_3D('',#518,#519,#520);
#384=SURFACE_SIDE_STYLE('',(#521));
#385=EDGE_LOOP('',(#522,#523,#524,#525));
#386=AXIS2_PLACEMENT_3D('',#526,#527,#528);
#387=SURFACE_SIDE_STYLE('',(#529));
#388=EDGE_LOOP('',(#530,#531,#532,#533));
#389=AXIS2_PLACEMENT_3D('',#534,#535,#536);
#390=DRAUGHTING_PRE_DEFINED_CURVE_FONT('continuous');
#391=COLOUR_RGB('',0.800000011920929,0.800000011920929,0.800000011920929);
#392=CARTESIAN_POINT('',(14.05,12.85,0.0));
#393=VECTOR('',#537,1.0);
#394=DRAUGHTING_PRE_DEFINED_CURVE_FONT('continuous');
#395=COLOUR_RGB('',0.800000011920929,0.800000011920929,0.800000011920929);
#396=CARTESIAN_POINT('',(12.85,13.3191876595476,-5.2));
#397=VECTOR('',#538,1.0);
#398=DRAUGHTING_PRE_DEFINED_CURVE_FONT('continuous');
#399=COLOUR_RGB('',0.800000011920929,0.800000011920929,0.800000011920929);
#400=CARTESIAN_POINT('',(12.85,14.05,0.0));
#401=VECTOR('',#539,1.0);
#402=DRAUGHTING_PRE_DEFINED_CURVE_FONT('continuous');
#403=COLOUR_RGB('',0.800000011920929,0.800000011920929,0.800000011920929);
#404=AXIS2_PLACEMENT_3D('',#540,#541,#542);
#405=DRAUGHTING_PRE_DEFINED_CURVE_FONT('continuous');
#406=COLOUR_RGB('',0.800000011920929,0.800000011920929,0.800000011920929);
#407=AXIS2_PLACEMENT_3D('',#543,#544,#545);
#408=DRAUGHTING_PRE_DEFINED_CURVE_FONT('continuous');
#409=COLOUR_RGB('',0.800000011920929,0.800000011920929,0.800000011920929);
#410=CARTESIAN_POINT('',(14.05,1.2,0.0));
#411=VECTOR('',#546,1.0);
#412=PRE_DEFINED_MARKER('');
#413=COLOUR_RGB('',0.800000011920929,0.800000011920929,0.800000011920929);
#414=PRE_DEFINED_MARKER('');
#415=COLOUR_RGB('',0.800000011920929,0.800000011920929,0.800000011920929);
#416=PRE_DEFINED_MARKER('');
#417=COLOUR_RGB('',0.800000011920929,0.800000011920929,0.800000011920929);
#418=DRAUGHTING_PRE_DEFINED_CURVE_FONT('continuous');
#419=COLOUR_RGB('',0.800000011920929,0.800000011920929,0.800000011920929);
#420=CARTESIAN_POINT('',(0.730812340452438,12.85,-5.2));
#421=VECTOR('',#547,1.0);
#422=DRAUGHTING_PRE_DEFINED_CURVE_FONT('continuous');
#423=COLOUR_RGB('',0.800000011920929,0.800000011920929,0.800000011920929);
#424=CARTESIAN_POINT('',(12.85,14.0499999999,0.0));
#425=VECTOR('',#548,1.0);
#426=DRAUGHTING_PRE_DEFINED_CURVE_FONT('continuous');
#427=COLOUR_RGB('',0.800000011920929,0.800000011920929,0.800000011920929);
#428=CARTESIAN_POINT('',(0.0,12.85,0.0));
#429=VECTOR('',#549,1.0);
#430=PRE_DEFINED_MARKER('');
#431=COLOUR_RGB('',0.800000011920929,0.800000011920929,0.800000011920929);
#432=DRAUGHTING_PRE_DEFINED_CURVE_FONT('continuous');
#433=COLOUR_RGB('',0.800000011920929,0.800000011920929,0.800000011920929);
#434=CARTESIAN_POINT('',(1.2,0.0,0.0));
#435=VECTOR('',#550,1.0);
#436=PRE_DEFINED_MARKER('');
#437=COLOUR_RGB('',0.800000011920929,0.800000011920929,0.800000011920929);
#438=DRAUGHTING_PRE_DEFINED_CURVE_FONT('continuous');
#439=COLOUR_RGB('',0.800000011920929,0.800000011920929,0.800000011920929);
#440=CARTESIAN_POINT('',(14.0499999999,1.2,0.0));
#441=VECTOR('',#551,1.0);
#442=SURFACE_SIDE_STYLE('',(#552));
#443=EDGE_LOOP('',(#553,#554,#555,#556));
#444=AXIS2_PLACEMENT_3D('',#557,#558,#559);
#445=SURFACE_SIDE_STYLE('',(#560));
#446=EDGE_LOOP('',(#561,#562,#563,#564));
#447=AXIS2_PLACEMENT_3D('',#565,#566,#567);
#448=PRE_DEFINED_MARKER('');
#449=COLOUR_RGB('',0.800000011920929,0.800000011920929,0.800000011920929);
#450=SURFACE_SIDE_STYLE('',(#568));
#451=EDGE_LOOP('',(#569,#570,#571,#572,#573,#574,#575,#576));
#452=AXIS2_PLACEMENT_3D('',#577,#578,#579);
#453=DRAUGHTING_PRE_DEFINED_CURVE_FONT('continuous');
#454=COLOUR_RGB('',0.800000011920929,0.800000011920929,0.800000011920929);
#455=AXIS2_PLACEMENT_3D('',#580,#581,#582);
#456=PRE_DEFINED_MARKER('');
#457=COLOUR_RGB('',0.800000011920929,0.800000011920929,0.800000011920929);
#458=SURFACE_SIDE_STYLE('',(#583));
#459=EDGE_LOOP('',(#584,#585,#586,#587));
#460=AXIS2_PLACEMENT_3D('',#588,#589,#590);
#462=CARTESIAN_POINT('',(1.2000000001,1.2000000001,-5.2));
#463=DIRECTION('',(0.0,0.0,1.0));
#464=DIRECTION('',(-1.0,-8.33322300053396E-011,0.0));
#465=CARTESIAN_POINT('',(1.2000000001,1.2000000001,0.0));
#466=DIRECTION('',(0.0,0.0,1.0));
#467=DIRECTION('',(-1.0,-8.33322300053396E-011,0.0));
#468=DIRECTION('',(1.0,0.0,0.0));
#469=SURFACE_STYLE_FILL_AREA(#591);
#470=ORIENTED_EDGE('',*,*,#101,.T.);
#471=ORIENTED_EDGE('',*,*,#151,.F.);
#472=ORIENTED_EDGE('',*,*,#123,.F.);
#473=ORIENTED_EDGE('',*,*,#131,.T.);
#474=CARTESIAN_POINT('',(12.8499999999,12.8499999999,0.0));
#475=DIRECTION('',(-0.0,-0.0,1.0));
#476=DIRECTION('',(1.0,8.33363008230964E-011,0.0));
#477=CARTESIAN_POINT('',(12.8499999999,1.2000000001,0.0));
#478=DIRECTION('',(0.0,0.0,1.0));
#479=DIRECTION('',(8.33318599309982E-011,-1.0,0.0));
#480=DIRECTION('',(1.0,0.0,0.0));
#481=DIRECTION('',(1.15982299505542E-011,-0.139173100978741,-0.990268068738946));
#482=DIRECTION('',(0.0,1.0,0.0));
#483=CARTESIAN_POINT('',(12.8499999999,12.8499999999,-5.2));
#484=DIRECTION('',(0.0,-0.0,1.0));
#485=DIRECTION('',(1.0,8.33363008230964E-011,0.0));
#486=SURFACE_STYLE_FILL_AREA(#592);
#487=ORIENTED_EDGE('',*,*,#75,.T.);
#488=ORIENTED_EDGE('',*,*,#157,.F.);
#489=ORIENTED_EDGE('',*,*,#77,.F.);
#490=ORIENTED_EDGE('',*,*,#107,.T.);
#491=CARTESIAN_POINT('',(1.2000000001,1.2000000001,0.0));
#492=DIRECTION('',(0.0,-0.0,1.0));
#493=DIRECTION('',(-1.0,-8.33322300053396E-011,0.0));
#494=DIRECTION('',(0.139173100941391,0.0,-0.990268068744195));
#495=DIRECTION('',(0.139173100978741,1.15978070973194E-011,-0.990268068738946));
#496=SURFACE_STYLE_FILL_AREA(#593);
#497=ORIENTED_EDGE('',*,*,#95,.T.);
#498=ORIENTED_EDGE('',*,*,#115,.F.);
#499=ORIENTED_EDGE('',*,*,#83,.F.);
#500=ORIENTED_EDGE('',*,*,#157,.T.);
#501=CARTESIAN_POINT('',(1.2,0.0,0.0));
#502=DIRECTION('',(-0.0,-0.99026806874157,-0.139173100960066));
#503=DIRECTION('',(-1.0,0.0,0.0));
#504=DIRECTION('',(-1.1597680241349E-011,0.139173100978741,-0.990268068738946));
#505=SURFACE_STYLE_FILL_AREA(#594);
#506=CARTESIAN_POINT('',(12.8499999999,12.8499999999,0.0));
#507=DIRECTION('',(0.0,-0.0,1.0));
#508=DIRECTION('',(1.0,8.33363008230964E-011,0.0));
#509=SURFACE_STYLE_FILL_AREA(#595);
#510=ORIENTED_EDGE('',*,*,#139,.F.);
#511=ORIENTED_EDGE('',*,*,#95,.F.);
#512=ORIENTED_EDGE('',*,*,#75,.F.);
#513=ORIENTED_EDGE('',*,*,#149,.F.);
#514=ORIENTED_EDGE('',*,*,#171,.F.);
#515=ORIENTED_EDGE('',*,*,#133,.F.);
#516=ORIENTED_EDGE('',*,*,#101,.F.);
#517=ORIENTED_EDGE('',*,*,#99,.F.);
#518=CARTESIAN_POINT('',(7.025,7.025,-5.2));
#519=DIRECTION('',(0.0,0.0,1.0));
#520=DIRECTION('',(1.0,0.0,0.0));
#521=SURFACE_STYLE_FILL_AREA(#596);
#522=ORIENTED_EDGE('',*,*,#99,.T.);
#523=ORIENTED_EDGE('',*,*,#131,.F.);
#524=ORIENTED_EDGE('',*,*,#141,.F.);
#525=ORIENTED_EDGE('',*,*,#161,.T.);
#526=CARTESIAN_POINT('',(14.0499999999,1.2,0.0));
#527=DIRECTION('',(0.990268068744195,-0.0,-0.139173100941391));
#528=DIRECTION('',(-0.0,-1.0,0.0));
#529=SURFACE_STYLE_FILL_AREA(#597);
#530=ORIENTED_EDGE('',*,*,#171,.T.);
#531=ORIENTED_EDGE('',*,*,#105,.F.);
#532=ORIENTED_EDGE('',*,*,#137,.F.);
#533=ORIENTED_EDGE('',*,*,#97,.T.);
#534=CARTESIAN_POINT('',(1.2000000001,12.8499999999,0.0));
#535=DIRECTION('',(-0.0,-0.0,1.0));
#536=DIRECTION('',(-8.33364858602672E-011,1.0,0.0));
#537=DIRECTION('',(-0.139173100978741,-1.15980185239368E-011,-0.990268068738946));
#538=DIRECTION('',(-1.0,0.0,0.0));
#539=DIRECTION('',(-1.0,0.0,0.0));
#540=CARTESIAN_POINT('',(1.2000000001,12.8499999999,0.0));
#541=DIRECTION('',(0.0,0.0,1.0));
#542=DIRECTION('',(-8.33364858602672E-011,1.0,0.0));
#543=CARTESIAN_POINT('',(12.8499999999,1.2000000001,-5.2));
#544=DIRECTION('',(0.0,0.0,1.0));
#545=DIRECTION('',(8.33318599309982E-011,-1.0,0.0));
#546=DIRECTION('',(0.0,1.0,0.0));
#547=DIRECTION('',(0.0,-1.0,0.0));
#548=DIRECTION('',(0.0,-0.139173100941391,-0.990268068744195));
#549=DIRECTION('',(0.0,-1.0,0.0));
#550=DIRECTION('',(0.0,0.139173100960066,-0.99026806874157));
#551=DIRECTION('',(-0.139173100941391,0.0,-0.990268068744195));
#552=SURFACE_STYLE_FILL_AREA(#598);
#553=ORIENTED_EDGE('',*,*,#133,.T.);
#554=ORIENTED_EDGE('',*,*,#97,.F.);
#555=ORIENTED_EDGE('',*,*,#135,.F.);
#556=ORIENTED_EDGE('',*,*,#151,.T.);
#557=CARTESIAN_POINT('',(12.85,14.0499999999,0.0));
#558=DIRECTION('',(0.0,0.990268068744195,-0.139173100941391));
#559=DIRECTION('',(1.0,-0.0,0.0));
#560=SURFACE_STYLE_FILL_AREA(#599);
#561=ORIENTED_EDGE('',*,*,#149,.T.);
#562=ORIENTED_EDGE('',*,*,#107,.F.);
#563=ORIENTED_EDGE('',*,*,#153,.F.);
#564=ORIENTED_EDGE('',*,*,#105,.T.);
#565=CARTESIAN_POINT('',(1.00000674407852E-010,12.85,0.0));
#566=DIRECTION('',(-0.990268068744195,0.0,-0.139173100941391));
#567=DIRECTION('',(0.0,1.0,0.0));
#568=SURFACE_STYLE_FILL_AREA(#600);
#569=ORIENTED_EDGE('',*,*,#83,.T.);
#570=ORIENTED_EDGE('',*,*,#91,.T.);
#571=ORIENTED_EDGE('',*,*,#141,.T.);
#572=ORIENTED_EDGE('',*,*,#123,.T.);
#573=ORIENTED_EDGE('',*,*,#135,.T.);
#574=ORIENTED_EDGE('',*,*,#137,.T.);
#575=ORIENTED_EDGE('',*,*,#153,.T.);
#576=ORIENTED_EDGE('',*,*,#77,.T.);
#577=CARTESIAN_POINT('',(7.025,7.025,0.0));
#578=DIRECTION('',(0.0,0.0,1.0));
#579=DIRECTION('',(1.0,0.0,0.0));
#580=CARTESIAN_POINT('',(1.2000000001,12.8499999999,-5.2));
#581=DIRECTION('',(0.0,0.0,1.0));
#582=DIRECTION('',(-8.33364858602672E-011,1.0,0.0));
#583=SURFACE_STYLE_FILL_AREA(#601);
#584=ORIENTED_EDGE('',*,*,#139,.T.);
#585=ORIENTED_EDGE('',*,*,#161,.F.);
#586=ORIENTED_EDGE('',*,*,#91,.F.);
#587=ORIENTED_EDGE('',*,*,#115,.T.);
#588=CARTESIAN_POINT('',(12.8499999999,1.2000000001,0.0));
#589=DIRECTION('',(-0.0,-0.0,1.0));
#590=DIRECTION('',(8.33318599309982E-011,-1.0,0.0));
#591=FILL_AREA_STYLE('',(#602));
#592=FILL_AREA_STYLE('',(#603));
#593=FILL_AREA_STYLE('',(#604));
#594=FILL_AREA_STYLE('',(#605));
#595=FILL_AREA_STYLE('',(#606));
#596=FILL_AREA_STYLE('',(#607));
#597=FILL_AREA_STYLE('',(#608));
#598=FILL_AREA_STYLE('',(#609));
#599=FILL_AREA_STYLE('',(#610));
#600=FILL_AREA_STYLE('',(#611));
#601=FILL_AREA_STYLE('',(#612));
#602=FILL_AREA_STYLE_COLOUR('',#613);
#603=FILL_AREA_STYLE_COLOUR('',#614);
#604=FILL_AREA_STYLE_COLOUR('',#615);
#605=FILL_AREA_STYLE_COLOUR('',#616);
#606=FILL_AREA_STYLE_COLOUR('',#617);
#607=FILL_AREA_STYLE_COLOUR('',#618);
#608=FILL_AREA_STYLE_COLOUR('',#619);
#609=FILL_AREA_STYLE_COLOUR('',#620);
#610=FILL_AREA_STYLE_COLOUR('',#621);
#611=FILL_AREA_STYLE_COLOUR('',#622);
#612=FILL_AREA_STYLE_COLOUR('',#623);
#613=COLOUR_RGB('',0.800000011920929,0.800000011920929,0.800000011920929);
#614=COLOUR_RGB('',0.800000011920929,0.800000011920929,0.800000011920929);
#615=COLOUR_RGB('',0.800000011920929,0.800000011920929,0.800000011920929);
#616=COLOUR_RGB('',0.800000011920929,0.800000011920929,0.800000011920929);
#617=COLOUR_RGB('',0.800000011920929,0.800000011920929,0.800000011920929);
#618=COLOUR_RGB('',0.800000011920929,0.800000011920929,0.800000011920929);
#619=COLOUR_RGB('',0.800000011920929,0.800000011920929,0.800000011920929);
#620=COLOUR_RGB('',0.800000011920929,0.800000011920929,0.800000011920929);
#621=COLOUR_RGB('',0.800000011920929,0.800000011920929,0.800000011920929);
#622=COLOUR_RGB('',0.800000011920929,0.800000011920929,0.800000011920929);
#623=COLOUR_RGB('',0.800000011920929,0.800000011920929,0.800000011920929);
#624=AXIS2_PLACEMENT_3D('PCS',#625,#626,#627);
#625=CARTESIAN_POINT('',(0.0,0.0,0.0));
#626=DIRECTION('',(0.0,0.0,1.0));
#627=DIRECTION('',(1.0,0.0,0.0));
#628=AXIS2_PLACEMENT_3D('MCS',#629,#630,#631);
#629=CARTESIAN_POINT('',(7.025,7.025,0.0));
#630=DIRECTION('',(0.0,0.0,1.0));
#631=DIRECTION('',(1.0,0.0,0.0));
#632=CONSTRUCTIVE_GEOMETRY_REPRESENTATION_RELATIONSHIP('coordinate systems',$,#65,#633);
#633=CONSTRUCTIVE_GEOMETRY_REPRESENTATION('coordinate systems',(#624,#628),#6);
ENDSEC;
END-ISO-10303-21;
