ISO-10303-21;
HEADER;
FILE_DESCRIPTION(('no description'),'unknown implementation level');
FILE_NAME('solidn1yXA_8nELwQTqH5YrW8JFKLQJ8_1.STP','  ',('CIMSOURCE GmbH'),('CADClick - KiM GmbH - www.kimweb.de'),'unknown preprocess','ACIS','unknown authorization');
FILE_SCHEMA(('automotive_design'));
ENDSEC;
DATA;
#1=MECHANICAL_DESIGN_GEOMETRIC_PRESENTATION_REPRESENTATION(' ',(#10,#11,#12,#13,#14,#15,#16,#17,#18,#19,#20,#21,#22,#23,#24,#25,#26,#27,#28,#29,#30,#31,#32,#33,#34,#35,#36,#37,#38,#39,#40,#41,#42,#43,#44,#45,#46,#47,#48,#49,#50,#51,#52,#53,#54,#55,#56,#57,#58,#59,#60),#6);
#2=PRODUCT_DEFINITION_CONTEXT('',#61,'design');
#3=APPLICATION_PROTOCOL_DEFINITION('INTERNATIONAL STANDARD','automotive_design',1994,#61);
#4=PRODUCT_CATEGORY_RELATIONSHIP('NONE','NONE',#62,#63);
#5=SHAPE_DEFINITION_REPRESENTATION(#64,#65);
#6= (GEOMETRIC_REPRESENTATION_CONTEXT(3)GLOBAL_UNCERTAINTY_ASSIGNED_CONTEXT((#68))GLOBAL_UNIT_ASSIGNED_CONTEXT((#70,#71,#72))REPRESENTATION_CONTEXT('NONE','WORKSPACE'));
#10=STYLED_ITEM('',(#74),#75);
#11=STYLED_ITEM('',(#76),#77);
#12=STYLED_ITEM('',(#78),#79);
#13=STYLED_ITEM('',(#80),#81);
#14=STYLED_ITEM('',(#82),#83);
#15=STYLED_ITEM('',(#84),#85);
#16=STYLED_ITEM('',(#86),#87);
#17=STYLED_ITEM('',(#88),#89);
#18=STYLED_ITEM('',(#90),#91);
#19=STYLED_ITEM('',(#92),#93);
#20=STYLED_ITEM('',(#94),#95);
#21=STYLED_ITEM('',(#96),#97);
#22=STYLED_ITEM('',(#98),#99);
#23=STYLED_ITEM('',(#100),#101);
#24=STYLED_ITEM('',(#102),#103);
#25=STYLED_ITEM('',(#104),#105);
#26=STYLED_ITEM('',(#106),#107);
#27=STYLED_ITEM('',(#108),#109);
#28=STYLED_ITEM('',(#110),#111);
#29=STYLED_ITEM('',(#112),#113);
#30=STYLED_ITEM('',(#114),#115);
#31=STYLED_ITEM('',(#116),#117);
#32=STYLED_ITEM('',(#118),#119);
#33=STYLED_ITEM('',(#120),#121);
#34=STYLED_ITEM('',(#122),#123);
#35=STYLED_ITEM('',(#124),#125);
#36=STYLED_ITEM('',(#126),#127);
#37=STYLED_ITEM('',(#128),#129);
#38=STYLED_ITEM('',(#130),#131);
#39=STYLED_ITEM('',(#132),#133);
#40=STYLED_ITEM('',(#134),#135);
#41=STYLED_ITEM('',(#136),#137);
#42=STYLED_ITEM('',(#138),#139);
#43=STYLED_ITEM('',(#140),#141);
#44=STYLED_ITEM('',(#142),#143);
#45=STYLED_ITEM('',(#144),#145);
#46=STYLED_ITEM('',(#146),#147);
#47=STYLED_ITEM('',(#148),#149);
#48=STYLED_ITEM('',(#150),#151);
#49=STYLED_ITEM('',(#152),#153);
#50=STYLED_ITEM('',(#154),#155);
#51=STYLED_ITEM('',(#156),#157);
#52=STYLED_ITEM('',(#158),#159);
#53=STYLED_ITEM('',(#160),#161);
#54=STYLED_ITEM('',(#162),#163);
#55=STYLED_ITEM('',(#164),#165);
#56=STYLED_ITEM('',(#166),#167);
#57=STYLED_ITEM('',(#168),#169);
#58=STYLED_ITEM('',(#170),#171);
#59=STYLED_ITEM('',(#172),#173);
#60=STYLED_ITEM('',(#174),#175);
#61=APPLICATION_CONTEXT(' ');
#62=PRODUCT_CATEGORY('part','NONE');
#63=PRODUCT_RELATED_PRODUCT_CATEGORY('detail',' ',(#176));
#64=PRODUCT_DEFINITION_SHAPE('NONE','NONE',#177);
#65=ADVANCED_BREP_SHAPE_REPRESENTATION('1',(#87,#178),#6);
#68=UNCERTAINTY_MEASURE_WITH_UNIT(LENGTH_MEASURE(1.0E-006),#70,'','');
#70= (CONVERSION_BASED_UNIT('MILLIMETRE',#181)LENGTH_UNIT()NAMED_UNIT(#184));
#71= (NAMED_UNIT(#186)PLANE_ANGLE_UNIT()SI_UNIT($,.RADIAN.));
#72= (NAMED_UNIT(#186)SOLID_ANGLE_UNIT()SI_UNIT($,.STERADIAN.));
#74=PRESENTATION_STYLE_ASSIGNMENT((#192));
#75=EDGE_CURVE('',#145,#81,#193,.T.);
#76=PRESENTATION_STYLE_ASSIGNMENT((#194));
#77=VERTEX_POINT('',#195);
#78=PRESENTATION_STYLE_ASSIGNMENT((#196));
#79=ADVANCED_FACE('',(#197),#198,.T.);
#80=PRESENTATION_STYLE_ASSIGNMENT((#199));
#81=VERTEX_POINT('',#200);
#82=PRESENTATION_STYLE_ASSIGNMENT((#201));
#83=EDGE_CURVE('',#89,#129,#202,.T.);
#84=PRESENTATION_STYLE_ASSIGNMENT((#203));
#85=EDGE_CURVE('',#113,#109,#204,.T.);
#86=PRESENTATION_STYLE_ASSIGNMENT((#205));
#87=MANIFOLD_SOLID_BREP('1',#206);
#88=PRESENTATION_STYLE_ASSIGNMENT((#207));
#89=VERTEX_POINT('',#208);
#90=PRESENTATION_STYLE_ASSIGNMENT((#209));
#91=EDGE_CURVE('',#173,#145,#210,.T.);
#92=PRESENTATION_STYLE_ASSIGNMENT((#211));
#93=VERTEX_POINT('',#212);
#94=PRESENTATION_STYLE_ASSIGNMENT((#213));
#95=ADVANCED_FACE('',(#214),#215,.T.);
#96=PRESENTATION_STYLE_ASSIGNMENT((#216));
#97=EDGE_CURVE('',#155,#159,#217,.T.);
#98=PRESENTATION_STYLE_ASSIGNMENT((#218));
#99=EDGE_CURVE('',#161,#153,#219,.T.);
#100=PRESENTATION_STYLE_ASSIGNMENT((#220));
#101=VERTEX_POINT('',#221);
#102=PRESENTATION_STYLE_ASSIGNMENT((#222));
#103=EDGE_CURVE('',#169,#101,#223,.T.);
#104=PRESENTATION_STYLE_ASSIGNMENT((#224));
#105=ADVANCED_FACE('',(#225),#226,.T.);
#106=PRESENTATION_STYLE_ASSIGNMENT((#227));
#107=EDGE_CURVE('',#109,#89,#228,.T.);
#108=PRESENTATION_STYLE_ASSIGNMENT((#229));
#109=VERTEX_POINT('',#230);
#110=PRESENTATION_STYLE_ASSIGNMENT((#231));
#111=ADVANCED_FACE('',(#232),#233,.T.);
#112=PRESENTATION_STYLE_ASSIGNMENT((#234));
#113=VERTEX_POINT('',#235);
#114=PRESENTATION_STYLE_ASSIGNMENT((#236));
#115=ADVANCED_FACE('',(#237),#238,.F.);
#116=PRESENTATION_STYLE_ASSIGNMENT((#239));
#117=EDGE_CURVE('',#93,#113,#240,.T.);
#118=PRESENTATION_STYLE_ASSIGNMENT((#241));
#119=EDGE_CURVE('',#113,#159,#242,.T.);
#120=PRESENTATION_STYLE_ASSIGNMENT((#243));
#121=EDGE_CURVE('',#93,#155,#244,.T.);
#122=PRESENTATION_STYLE_ASSIGNMENT((#245));
#123=EDGE_CURVE('',#145,#161,#246,.T.);
#124=PRESENTATION_STYLE_ASSIGNMENT((#247));
#125=EDGE_CURVE('',#153,#101,#248,.T.);
#126=PRESENTATION_STYLE_ASSIGNMENT((#249));
#127=EDGE_CURVE('',#81,#153,#250,.T.);
#128=PRESENTATION_STYLE_ASSIGNMENT((#251));
#129=VERTEX_POINT('',#252);
#130=PRESENTATION_STYLE_ASSIGNMENT((#253));
#131=EDGE_CURVE('',#109,#173,#254,.T.);
#132=PRESENTATION_STYLE_ASSIGNMENT((#255));
#133=EDGE_CURVE('',#81,#169,#256,.T.);
#134=PRESENTATION_STYLE_ASSIGNMENT((#257));
#135=EDGE_CURVE('',#101,#171,#258,.T.);
#136=PRESENTATION_STYLE_ASSIGNMENT((#259));
#137=EDGE_CURVE('',#171,#155,#260,.T.);
#138=PRESENTATION_STYLE_ASSIGNMENT((#261));
#139=EDGE_CURVE('',#77,#93,#262,.T.);
#140=PRESENTATION_STYLE_ASSIGNMENT((#263));
#141=ADVANCED_FACE('',(#264),#265,.T.);
#142=PRESENTATION_STYLE_ASSIGNMENT((#266));
#143=EDGE_CURVE('',#129,#161,#267,.T.);
#144=PRESENTATION_STYLE_ASSIGNMENT((#268));
#145=VERTEX_POINT('',#269);
#146=PRESENTATION_STYLE_ASSIGNMENT((#270));
#147=EDGE_CURVE('',#169,#77,#271,.T.);
#148=PRESENTATION_STYLE_ASSIGNMENT((#272));
#149=ADVANCED_FACE('',(#273),#274,.T.);
#150=PRESENTATION_STYLE_ASSIGNMENT((#275));
#151=ADVANCED_FACE('',(#276),#277,.T.);
#152=PRESENTATION_STYLE_ASSIGNMENT((#278));
#153=VERTEX_POINT('',#279);
#154=PRESENTATION_STYLE_ASSIGNMENT((#280));
#155=VERTEX_POINT('',#281);
#156=PRESENTATION_STYLE_ASSIGNMENT((#282));
#157=ADVANCED_FACE('',(#283),#284,.T.);
#158=PRESENTATION_STYLE_ASSIGNMENT((#285));
#159=VERTEX_POINT('',#286);
#160=PRESENTATION_STYLE_ASSIGNMENT((#287));
#161=VERTEX_POINT('',#288);
#162=PRESENTATION_STYLE_ASSIGNMENT((#289));
#163=ADVANCED_FACE('',(#290),#291,.T.);
#164=PRESENTATION_STYLE_ASSIGNMENT((#292));
#165=EDGE_CURVE('',#173,#129,#293,.T.);
#166=PRESENTATION_STYLE_ASSIGNMENT((#294));
#167=EDGE_CURVE('',#159,#89,#295,.T.);
#168=PRESENTATION_STYLE_ASSIGNMENT((#296));
#169=VERTEX_POINT('',#297);
#170=PRESENTATION_STYLE_ASSIGNMENT((#298));
#171=VERTEX_POINT('',#299);
#172=PRESENTATION_STYLE_ASSIGNMENT((#300));
#173=VERTEX_POINT('',#301);
#174=PRESENTATION_STYLE_ASSIGNMENT((#302));
#175=EDGE_CURVE('',#77,#171,#303,.T.);
#176=PRODUCT('1','1','PART-1-DESC',(#304));
#177=PRODUCT_DEFINITION('NONE','NONE',#305,#2);
#178=AXIS2_PLACEMENT_3D('',#306,#307,#308);
#181=LENGTH_MEASURE_WITH_UNIT(LENGTH_MEASURE(1.0),#309);
#184=DIMENSIONAL_EXPONENTS(1.0,0.0,0.0,0.0,0.0,0.0,0.0);
#186=DIMENSIONAL_EXPONENTS(0.0,0.0,0.0,0.0,0.0,0.0,0.0);
#192=CURVE_STYLE('',#310,POSITIVE_LENGTH_MEASURE(1.0E-006),#311);
#193=CIRCLE('',#312,0.800000000000004);
#194=POINT_STYLE(' ',#313,POSITIVE_LENGTH_MEASURE(1.0E-006),#314);
#195=CARTESIAN_POINT('',(0.8,0.0,0.0));
#196=SURFACE_STYLE_USAGE(.BOTH.,#315);
#197=FACE_OUTER_BOUND('',#316,.T.);
#198=CONICAL_SURFACE('',#317,0.8,0.139626340159547);
#199=POINT_STYLE(' ',#318,POSITIVE_LENGTH_MEASURE(1.0E-006),#319);
#200=CARTESIAN_POINT('',(1.00000341340944E-010,10.09,0.0));
#201=CURVE_STYLE('',#320,POSITIVE_LENGTH_MEASURE(1.0E-006),#321);
#202=CIRCLE('',#322,0.153512160369004);
#203=CURVE_STYLE('',#323,POSITIVE_LENGTH_MEASURE(1.0E-006),#324);
#204=LINE('',#325,#326);
#205=SURFACE_STYLE_USAGE(.BOTH.,#327);
#206=CLOSED_SHELL('',(#79,#157,#105,#111,#149,#95,#163,#151,#115,#141));
#207=POINT_STYLE(' ',#328,POSITIVE_LENGTH_MEASURE(1.0E-006),#329);
#208=CARTESIAN_POINT('',(10.243512160269,10.0899999999192,-4.6));
#209=CURVE_STYLE('',#330,POSITIVE_LENGTH_MEASURE(1.0E-006),#331);
#210=LINE('',#332,#333);
#211=POINT_STYLE(' ',#334,POSITIVE_LENGTH_MEASURE(1.0E-006),#335);
#212=CARTESIAN_POINT('',(10.09,0.0,0.0));
#213=SURFACE_STYLE_USAGE(.BOTH.,#336);
#214=FACE_OUTER_BOUND('',#337,.T.);
#215=PLANE('',#338);
#216=CURVE_STYLE('',#339,POSITIVE_LENGTH_MEASURE(1.0E-006),#340);
#217=CIRCLE('',#341,0.153512160368998);
#218=CURVE_STYLE('',#342,POSITIVE_LENGTH_MEASURE(1.0E-006),#343);
#219=CIRCLE('',#344,0.153512160369002);
#220=POINT_STYLE(' ',#345,POSITIVE_LENGTH_MEASURE(1.0E-006),#346);
#221=CARTESIAN_POINT('',(0.646487839731003,0.800000000080811,-4.6));
#222=CURVE_STYLE('',#347,POSITIVE_LENGTH_MEASURE(1.0E-006),#348);
#223=LINE('',#349,#350);
#224=SURFACE_STYLE_USAGE(.BOTH.,#351);
#225=FACE_OUTER_BOUND('',#352,.T.);
#226=CONICAL_SURFACE('',#353,0.800000000000006,0.139626340159547);
#227=CURVE_STYLE('',#354,POSITIVE_LENGTH_MEASURE(1.0E-006),#355);
#228=LINE('',#356,#357);
#229=POINT_STYLE(' ',#358,POSITIVE_LENGTH_MEASURE(1.0E-006),#359);
#230=CARTESIAN_POINT('',(10.89,10.09,0.0));
#231=SURFACE_STYLE_USAGE(.BOTH.,#360);
#232=FACE_OUTER_BOUND('',#361,.T.);
#233=PLANE('',#362);
#234=POINT_STYLE(' ',#363,POSITIVE_LENGTH_MEASURE(1.0E-006),#364);
#235=CARTESIAN_POINT('',(10.8899999999,0.8,0.0));
#236=SURFACE_STYLE_USAGE(.BOTH.,#365);
#237=FACE_OUTER_BOUND('',#366,.T.);
#238=PLANE('',#367);
#239=CURVE_STYLE('',#368,POSITIVE_LENGTH_MEASURE(1.0E-006),#369);
#240=CIRCLE('',#370,0.8);
#241=CURVE_STYLE('',#371,POSITIVE_LENGTH_MEASURE(1.0E-006),#372);
#242=LINE('',#373,#374);
#243=CURVE_STYLE('',#375,POSITIVE_LENGTH_MEASURE(1.0E-006),#376);
#244=LINE('',#377,#378);
#245=CURVE_STYLE('',#379,POSITIVE_LENGTH_MEASURE(1.0E-006),#380);
#246=LINE('',#381,#382);
#247=CURVE_STYLE('',#383,POSITIVE_LENGTH_MEASURE(1.0E-006),#384);
#248=LINE('',#385,#386);
#249=CURVE_STYLE('',#387,POSITIVE_LENGTH_MEASURE(1.0E-006),#388);
#250=LINE('',#389,#390);
#251=POINT_STYLE(' ',#391,POSITIVE_LENGTH_MEASURE(1.0E-006),#392);
#252=CARTESIAN_POINT('',(10.09,10.243512160369,-4.6));
#253=CURVE_STYLE('',#393,POSITIVE_LENGTH_MEASURE(1.0E-006),#394);
#254=CIRCLE('',#395,0.800000000000006);
#255=CURVE_STYLE('',#396,POSITIVE_LENGTH_MEASURE(1.0E-006),#397);
#256=LINE('',#398,#399);
#257=CURVE_STYLE('',#400,POSITIVE_LENGTH_MEASURE(1.0E-006),#401);
#258=CIRCLE('',#402,0.153512160368997);
#259=CURVE_STYLE('',#403,POSITIVE_LENGTH_MEASURE(1.0E-006),#404);
#260=LINE('',#405,#406);
#261=CURVE_STYLE('',#407,POSITIVE_LENGTH_MEASURE(1.0E-006),#408);
#262=LINE('',#409,#410);
#263=SURFACE_STYLE_USAGE(.BOTH.,#411);
#264=FACE_OUTER_BOUND('',#412,.T.);
#265=PLANE('',#413);
#266=CURVE_STYLE('',#414,POSITIVE_LENGTH_MEASURE(1.0E-006),#415);
#267=LINE('',#416,#417);
#268=POINT_STYLE(' ',#418,POSITIVE_LENGTH_MEASURE(1.0E-006),#419);
#269=CARTESIAN_POINT('',(0.800000000000001,10.89,0.0));
#270=CURVE_STYLE('',#420,POSITIVE_LENGTH_MEASURE(1.0E-006),#421);
#271=CIRCLE('',#422,0.8);
#272=SURFACE_STYLE_USAGE(.BOTH.,#423);
#273=FACE_OUTER_BOUND('',#424,.T.);
#274=CONICAL_SURFACE('',#425,0.800000000000004,0.139626340159547);
#275=SURFACE_STYLE_USAGE(.BOTH.,#426);
#276=FACE_OUTER_BOUND('',#427,.T.);
#277=PLANE('',#428);
#278=POINT_STYLE(' ',#429,POSITIVE_LENGTH_MEASURE(1.0E-006),#430);
#279=CARTESIAN_POINT('',(0.646487839631003,10.09,-4.6));
#280=POINT_STYLE(' ',#431,POSITIVE_LENGTH_MEASURE(1.0E-006),#432);
#281=CARTESIAN_POINT('',(10.0899999999192,0.646487839731003,-4.6));
#282=SURFACE_STYLE_USAGE(.BOTH.,#433);
#283=FACE_OUTER_BOUND('',#434,.T.);
#284=PLANE('',#435);
#285=POINT_STYLE(' ',#436,POSITIVE_LENGTH_MEASURE(1.0E-006),#437);
#286=CARTESIAN_POINT('',(10.243512160369,0.8,-4.6));
#287=POINT_STYLE(' ',#438,POSITIVE_LENGTH_MEASURE(1.0E-006),#439);
#288=CARTESIAN_POINT('',(0.800000000080815,10.243512160269,-4.6));
#289=SURFACE_STYLE_USAGE(.BOTH.,#440);
#290=FACE_OUTER_BOUND('',#441,.T.);
#291=CONICAL_SURFACE('',#442,0.8,0.139626340159547);
#292=CURVE_STYLE('',#443,POSITIVE_LENGTH_MEASURE(1.0E-006),#444);
#293=LINE('',#445,#446);
#294=CURVE_STYLE('',#447,POSITIVE_LENGTH_MEASURE(1.0E-006),#448);
#295=LINE('',#449,#450);
#296=POINT_STYLE(' ',#451,POSITIVE_LENGTH_MEASURE(1.0E-006),#452);
#297=CARTESIAN_POINT('',(0.0,0.800000000000001,0.0));
#298=POINT_STYLE(' ',#453,POSITIVE_LENGTH_MEASURE(1.0E-006),#454);
#299=CARTESIAN_POINT('',(0.8,0.646487839631003,-4.6));
#300=POINT_STYLE(' ',#455,POSITIVE_LENGTH_MEASURE(1.0E-006),#456);
#301=CARTESIAN_POINT('',(10.09,10.8899999999,0.0));
#302=CURVE_STYLE('',#457,POSITIVE_LENGTH_MEASURE(1.0E-006),#458);
#303=LINE('',#459,#460);
#304=PRODUCT_CONTEXT('',#61,'mechanical');
#305=PRODUCT_DEFINITION_FORMATION_WITH_SPECIFIED_SOURCE(' ','NONE',#176,.NOT_KNOWN.);
#306=CARTESIAN_POINT('',(0.0,0.0,0.0));
#307=DIRECTION('',(0.0,0.0,1.0));
#308=DIRECTION('',(1.0,0.0,0.0));
#309= (NAMED_UNIT(#184)LENGTH_UNIT()SI_UNIT(.MILLI.,.METRE.));
#310=DRAUGHTING_PRE_DEFINED_CURVE_FONT('continuous');
#311=COLOUR_RGB('',0.800000011920929,0.800000011920929,0.800000011920929);
#312=AXIS2_PLACEMENT_3D('',#462,#463,#464);
#313=PRE_DEFINED_MARKER('');
#314=COLOUR_RGB('',0.800000011920929,0.800000011920929,0.800000011920929);
#315=SURFACE_SIDE_STYLE('',(#465));
#316=EDGE_LOOP('',(#466,#467,#468,#469));
#317=AXIS2_PLACEMENT_3D('',#470,#471,#472);
#318=PRE_DEFINED_MARKER('');
#319=COLOUR_RGB('',0.800000011920929,0.800000011920929,0.800000011920929);
#320=DRAUGHTING_PRE_DEFINED_CURVE_FONT('continuous');
#321=COLOUR_RGB('',0.800000011920929,0.800000011920929,0.800000011920929);
#322=AXIS2_PLACEMENT_3D('',#473,#474,#475);
#323=DRAUGHTING_PRE_DEFINED_CURVE_FONT('continuous');
#324=COLOUR_RGB('',0.800000011920929,0.800000011920929,0.800000011920929);
#325=CARTESIAN_POINT('',(10.89,0.8,0.0));
#326=VECTOR('',#476,1.0);
#327=SURFACE_SIDE_STYLE('',(#477));
#328=PRE_DEFINED_MARKER('');
#329=COLOUR_RGB('',0.800000011920929,0.800000011920929,0.800000011920929);
#330=DRAUGHTING_PRE_DEFINED_CURVE_FONT('continuous');
#331=COLOUR_RGB('',0.800000011920929,0.800000011920929,0.800000011920929);
#332=CARTESIAN_POINT('',(10.09,10.89,0.0));
#333=VECTOR('',#478,1.0);
#334=PRE_DEFINED_MARKER('');
#335=COLOUR_RGB('',0.800000011920929,0.800000011920929,0.800000011920929);
#336=SURFACE_SIDE_STYLE('',(#479));
#337=EDGE_LOOP('',(#480,#481,#482,#483));
#338=AXIS2_PLACEMENT_3D('',#484,#485,#486);
#339=DRAUGHTING_PRE_DEFINED_CURVE_FONT('continuous');
#340=COLOUR_RGB('',0.800000011920929,0.800000011920929,0.800000011920929);
#341=AXIS2_PLACEMENT_3D('',#487,#488,#489);
#342=DRAUGHTING_PRE_DEFINED_CURVE_FONT('continuous');
#343=COLOUR_RGB('',0.800000011920929,0.800000011920929,0.800000011920929);
#344=AXIS2_PLACEMENT_3D('',#490,#491,#492);
#345=PRE_DEFINED_MARKER('');
#346=COLOUR_RGB('',0.800000011920929,0.800000011920929,0.800000011920929);
#347=DRAUGHTING_PRE_DEFINED_CURVE_FONT('continuous');
#348=COLOUR_RGB('',0.800000011920929,0.800000011920929,0.800000011920929);
#349=CARTESIAN_POINT('',(0.0,0.800000000000001,0.0));
#350=VECTOR('',#493,1.0);
#351=SURFACE_SIDE_STYLE('',(#494));
#352=EDGE_LOOP('',(#495,#496,#497,#498));
#353=AXIS2_PLACEMENT_3D('',#499,#500,#501);
#354=DRAUGHTING_PRE_DEFINED_CURVE_FONT('continuous');
#355=COLOUR_RGB('',0.800000011920929,0.800000011920929,0.800000011920929);
#356=CARTESIAN_POINT('',(10.89,10.09,0.0));
#357=VECTOR('',#502,1.0);
#358=PRE_DEFINED_MARKER('');
#359=COLOUR_RGB('',0.800000011920929,0.800000011920929,0.800000011920929);
#360=SURFACE_SIDE_STYLE('',(#503));
#361=EDGE_LOOP('',(#504,#505,#506,#507));
#362=AXIS2_PLACEMENT_3D('',#508,#509,#510);
#363=PRE_DEFINED_MARKER('');
#364=COLOUR_RGB('',0.800000011920929,0.800000011920929,0.800000011920929);
#365=SURFACE_SIDE_STYLE('',(#511));
#366=EDGE_LOOP('',(#512,#513,#514,#515,#516,#517,#518,#519));
#367=AXIS2_PLACEMENT_3D('',#520,#521,#522);
#368=DRAUGHTING_PRE_DEFINED_CURVE_FONT('continuous');
#369=COLOUR_RGB('',0.800000011920929,0.800000011920929,0.800000011920929);
#370=AXIS2_PLACEMENT_3D('',#523,#524,#525);
#371=DRAUGHTING_PRE_DEFINED_CURVE_FONT('continuous');
#372=COLOUR_RGB('',0.800000011920929,0.800000011920929,0.800000011920929);
#373=CARTESIAN_POINT('',(10.8899999999,0.8,0.0));
#374=VECTOR('',#526,1.0);
#375=DRAUGHTING_PRE_DEFINED_CURVE_FONT('continuous');
#376=COLOUR_RGB('',0.800000011920929,0.800000011920929,0.800000011920929);
#377=CARTESIAN_POINT('',(10.09,0.0,0.0));
#378=VECTOR('',#527,1.0);
#379=DRAUGHTING_PRE_DEFINED_CURVE_FONT('continuous');
#380=COLOUR_RGB('',0.800000011920929,0.800000011920929,0.800000011920929);
#381=CARTESIAN_POINT('',(0.800000000000001,10.89,0.0));
#382=VECTOR('',#528,1.0);
#383=DRAUGHTING_PRE_DEFINED_CURVE_FONT('continuous');
#384=COLOUR_RGB('',0.800000011920929,0.800000011920929,0.800000011920929);
#385=CARTESIAN_POINT('',(0.646487839631003,10.09,-4.6));
#386=VECTOR('',#529,1.0);
#387=DRAUGHTING_PRE_DEFINED_CURVE_FONT('continuous');
#388=COLOUR_RGB('',0.800000011920929,0.800000011920929,0.800000011920929);
#389=CARTESIAN_POINT('',(1.00000341340944E-010,10.09,0.0));
#390=VECTOR('',#530,1.0);
#391=PRE_DEFINED_MARKER('');
#392=COLOUR_RGB('',0.800000011920929,0.800000011920929,0.800000011920929);
#393=DRAUGHTING_PRE_DEFINED_CURVE_FONT('continuous');
#394=COLOUR_RGB('',0.800000011920929,0.800000011920929,0.800000011920929);
#395=AXIS2_PLACEMENT_3D('',#531,#532,#533);
#396=DRAUGHTING_PRE_DEFINED_CURVE_FONT('continuous');
#397=COLOUR_RGB('',0.800000011920929,0.800000011920929,0.800000011920929);
#398=CARTESIAN_POINT('',(0.0,10.09,0.0));
#399=VECTOR('',#534,1.0);
#400=DRAUGHTING_PRE_DEFINED_CURVE_FONT('continuous');
#401=COLOUR_RGB('',0.800000011920929,0.800000011920929,0.800000011920929);
#402=AXIS2_PLACEMENT_3D('',#535,#536,#537);
#403=DRAUGHTING_PRE_DEFINED_CURVE_FONT('continuous');
#404=COLOUR_RGB('',0.800000011920929,0.800000011920929,0.800000011920929);
#405=CARTESIAN_POINT('',(0.8,0.646487839631003,-4.6));
#406=VECTOR('',#538,1.0);
#407=DRAUGHTING_PRE_DEFINED_CURVE_FONT('continuous');
#408=COLOUR_RGB('',0.800000011920929,0.800000011920929,0.800000011920929);
#409=CARTESIAN_POINT('',(0.8,0.0,0.0));
#410=VECTOR('',#539,1.0);
#411=SURFACE_SIDE_STYLE('',(#540));
#412=EDGE_LOOP('',(#541,#542,#543,#544,#545,#546,#547,#548));
#413=AXIS2_PLACEMENT_3D('',#549,#550,#551);
#414=DRAUGHTING_PRE_DEFINED_CURVE_FONT('continuous');
#415=COLOUR_RGB('',0.800000011920929,0.800000011920929,0.800000011920929);
#416=CARTESIAN_POINT('',(10.09,10.243512160369,-4.6));
#417=VECTOR('',#552,1.0);
#418=PRE_DEFINED_MARKER('');
#419=COLOUR_RGB('',0.800000011920929,0.800000011920929,0.800000011920929);
#420=DRAUGHTING_PRE_DEFINED_CURVE_FONT('continuous');
#421=COLOUR_RGB('',0.800000011920929,0.800000011920929,0.800000011920929);
#422=AXIS2_PLACEMENT_3D('',#553,#554,#555);
#423=SURFACE_SIDE_STYLE('',(#556));
#424=EDGE_LOOP('',(#557,#558,#559,#560));
#425=AXIS2_PLACEMENT_3D('',#561,#562,#563);
#426=SURFACE_SIDE_STYLE('',(#564));
#427=EDGE_LOOP('',(#565,#566,#567,#568));
#428=AXIS2_PLACEMENT_3D('',#569,#570,#571);
#429=PRE_DEFINED_MARKER('');
#430=COLOUR_RGB('',0.800000011920929,0.800000011920929,0.800000011920929);
#431=PRE_DEFINED_MARKER('');
#432=COLOUR_RGB('',0.800000011920929,0.800000011920929,0.800000011920929);
#433=SURFACE_SIDE_STYLE('',(#572));
#434=EDGE_LOOP('',(#573,#574,#575,#576));
#435=AXIS2_PLACEMENT_3D('',#577,#578,#579);
#436=PRE_DEFINED_MARKER('');
#437=COLOUR_RGB('',0.800000011920929,0.800000011920929,0.800000011920929);
#438=PRE_DEFINED_MARKER('');
#439=COLOUR_RGB('',0.800000011920929,0.800000011920929,0.800000011920929);
#440=SURFACE_SIDE_STYLE('',(#580));
#441=EDGE_LOOP('',(#581,#582,#583,#584));
#442=AXIS2_PLACEMENT_3D('',#585,#586,#587);
#443=DRAUGHTING_PRE_DEFINED_CURVE_FONT('continuous');
#444=COLOUR_RGB('',0.800000011920929,0.800000011920929,0.800000011920929);
#445=CARTESIAN_POINT('',(10.09,10.8899999999,0.0));
#446=VECTOR('',#588,1.0);
#447=DRAUGHTING_PRE_DEFINED_CURVE_FONT('continuous');
#448=COLOUR_RGB('',0.800000011920929,0.800000011920929,0.800000011920929);
#449=CARTESIAN_POINT('',(10.243512160369,0.8,-4.6));
#450=VECTOR('',#589,1.0);
#451=PRE_DEFINED_MARKER('');
#452=COLOUR_RGB('',0.800000011920929,0.800000011920929,0.800000011920929);
#453=PRE_DEFINED_MARKER('');
#454=COLOUR_RGB('',0.800000011920929,0.800000011920929,0.800000011920929);
#455=PRE_DEFINED_MARKER('');
#456=COLOUR_RGB('',0.800000011920929,0.800000011920929,0.800000011920929);
#457=DRAUGHTING_PRE_DEFINED_CURVE_FONT('continuous');
#458=COLOUR_RGB('',0.800000011920929,0.800000011920929,0.800000011920929);
#459=CARTESIAN_POINT('',(0.8,0.0,0.0));
#460=VECTOR('',#590,1.0);
#462=CARTESIAN_POINT('',(0.800000000100005,10.0899999999,0.0));
#463=DIRECTION('',(0.0,0.0,1.0));
#464=DIRECTION('',(-1.25005977791303E-010,1.0,0.0));
#465=SURFACE_STYLE_FILL_AREA(#591);
#466=ORIENTED_EDGE('',*,*,#97,.T.);
#467=ORIENTED_EDGE('',*,*,#119,.F.);
#468=ORIENTED_EDGE('',*,*,#117,.F.);
#469=ORIENTED_EDGE('',*,*,#121,.T.);
#470=CARTESIAN_POINT('',(10.0899999999,0.800000000100001,0.0));
#471=DIRECTION('',(-0.0,-0.0,1.0));
#472=DIRECTION('',(1.25000010342546E-010,-1.0,0.0));
#473=CARTESIAN_POINT('',(10.0899999999,10.0899999999,-4.6));
#474=DIRECTION('',(0.0,-0.0,1.0));
#475=DIRECTION('',(1.0,1.25004451234644E-010,0.0));
#476=DIRECTION('',(0.0,1.0,0.0));
#477=SURFACE_STYLE_FILL_AREA(#592);
#478=DIRECTION('',(-1.0,0.0,0.0));
#479=SURFACE_STYLE_FILL_AREA(#593);
#480=ORIENTED_EDGE('',*,*,#125,.T.);
#481=ORIENTED_EDGE('',*,*,#103,.F.);
#482=ORIENTED_EDGE('',*,*,#133,.F.);
#483=ORIENTED_EDGE('',*,*,#127,.T.);
#484=CARTESIAN_POINT('',(1.00000341340944E-010,10.09,0.0));
#485=DIRECTION('',(-0.990268068744537,0.0,-0.139173100938955));
#486=DIRECTION('',(0.0,1.0,0.0));
#487=CARTESIAN_POINT('',(10.0899999999,0.800000000100001,-4.6));
#488=DIRECTION('',(0.0,0.0,1.0));
#489=DIRECTION('',(1.25000010342546E-010,-1.0,0.0));
#490=CARTESIAN_POINT('',(0.800000000100005,10.0899999999,-4.6));
#491=DIRECTION('',(0.0,0.0,1.0));
#492=DIRECTION('',(-1.25005977791303E-010,1.0,0.0));
#493=DIRECTION('',(0.139173100981176,1.73964560147861E-011,-0.990268068738603));
#494=SURFACE_STYLE_FILL_AREA(#594);
#495=ORIENTED_EDGE('',*,*,#83,.T.);
#496=ORIENTED_EDGE('',*,*,#165,.F.);
#497=ORIENTED_EDGE('',*,*,#131,.F.);
#498=ORIENTED_EDGE('',*,*,#107,.T.);
#499=CARTESIAN_POINT('',(10.0899999999,10.0899999999,0.0));
#500=DIRECTION('',(-0.0,-0.0,1.0));
#501=DIRECTION('',(1.0,1.25004451234644E-010,0.0));
#502=DIRECTION('',(-0.139173100981176,-1.73971969271932E-011,-0.990268068738603));
#503=SURFACE_STYLE_FILL_AREA(#595);
#504=ORIENTED_EDGE('',*,*,#143,.T.);
#505=ORIENTED_EDGE('',*,*,#123,.F.);
#506=ORIENTED_EDGE('',*,*,#91,.F.);
#507=ORIENTED_EDGE('',*,*,#165,.T.);
#508=CARTESIAN_POINT('',(10.09,10.8899999999,0.0));
#509=DIRECTION('',(0.0,0.990268068744537,-0.139173100938956));
#510=DIRECTION('',(1.0,-0.0,0.0));
#511=SURFACE_STYLE_FILL_AREA(#596);
#512=ORIENTED_EDGE('',*,*,#97,.F.);
#513=ORIENTED_EDGE('',*,*,#137,.F.);
#514=ORIENTED_EDGE('',*,*,#135,.F.);
#515=ORIENTED_EDGE('',*,*,#125,.F.);
#516=ORIENTED_EDGE('',*,*,#99,.F.);
#517=ORIENTED_EDGE('',*,*,#143,.F.);
#518=ORIENTED_EDGE('',*,*,#83,.F.);
#519=ORIENTED_EDGE('',*,*,#167,.F.);
#520=CARTESIAN_POINT('',(5.445,5.445,-4.6));
#521=DIRECTION('',(0.0,0.0,1.0));
#522=DIRECTION('',(1.0,0.0,0.0));
#523=CARTESIAN_POINT('',(10.0899999999,0.800000000100001,0.0));
#524=DIRECTION('',(0.0,0.0,1.0));
#525=DIRECTION('',(1.25000010342546E-010,-1.0,0.0));
#526=DIRECTION('',(-0.139173100938955,0.0,-0.990268068744537));
#527=DIRECTION('',(-1.73968145207895E-011,0.139173100981176,-0.990268068738603));
#528=DIRECTION('',(1.73973164291943E-011,-0.139173100981176,-0.990268068738603));
#529=DIRECTION('',(0.0,-1.0,0.0));
#530=DIRECTION('',(0.139173100938955,0.0,-0.990268068744537));
#531=CARTESIAN_POINT('',(10.0899999999,10.0899999999,0.0));
#532=DIRECTION('',(0.0,-0.0,1.0));
#533=DIRECTION('',(1.0,1.25004451234644E-010,0.0));
#534=DIRECTION('',(0.0,-1.0,0.0));
#535=CARTESIAN_POINT('',(0.8000000001,0.8000000001,-4.6));
#536=DIRECTION('',(0.0,0.0,1.0));
#537=DIRECTION('',(-1.0,-1.24999455231034E-010,0.0));
#538=DIRECTION('',(1.0,0.0,0.0));
#539=DIRECTION('',(1.0,0.0,0.0));
#540=SURFACE_STYLE_FILL_AREA(#597);
#541=ORIENTED_EDGE('',*,*,#139,.T.);
#542=ORIENTED_EDGE('',*,*,#117,.T.);
#543=ORIENTED_EDGE('',*,*,#85,.T.);
#544=ORIENTED_EDGE('',*,*,#131,.T.);
#545=ORIENTED_EDGE('',*,*,#91,.T.);
#546=ORIENTED_EDGE('',*,*,#75,.T.);
#547=ORIENTED_EDGE('',*,*,#133,.T.);
#548=ORIENTED_EDGE('',*,*,#147,.T.);
#549=CARTESIAN_POINT('',(5.445,5.445,0.0));
#550=DIRECTION('',(0.0,0.0,1.0));
#551=DIRECTION('',(1.0,0.0,0.0));
#552=DIRECTION('',(-1.0,0.0,0.0));
#553=CARTESIAN_POINT('',(0.8000000001,0.8000000001,0.0));
#554=DIRECTION('',(0.0,0.0,1.0));
#555=DIRECTION('',(-1.0,-1.24999455231034E-010,0.0));
#556=SURFACE_STYLE_FILL_AREA(#598);
#557=ORIENTED_EDGE('',*,*,#99,.T.);
#558=ORIENTED_EDGE('',*,*,#127,.F.);
#559=ORIENTED_EDGE('',*,*,#75,.F.);
#560=ORIENTED_EDGE('',*,*,#123,.T.);
#561=CARTESIAN_POINT('',(0.800000000100005,10.0899999999,0.0));
#562=DIRECTION('',(-0.0,-0.0,1.0));
#563=DIRECTION('',(-1.25005977791303E-010,1.0,0.0));
#564=SURFACE_STYLE_FILL_AREA(#599);
#565=ORIENTED_EDGE('',*,*,#137,.T.);
#566=ORIENTED_EDGE('',*,*,#121,.F.);
#567=ORIENTED_EDGE('',*,*,#139,.F.);
#568=ORIENTED_EDGE('',*,*,#175,.T.);
#569=CARTESIAN_POINT('',(0.8,0.0,0.0));
#570=DIRECTION('',(-0.0,-0.99026806874157,-0.139173100960066));
#571=DIRECTION('',(-1.0,0.0,0.0));
#572=SURFACE_STYLE_FILL_AREA(#600);
#573=ORIENTED_EDGE('',*,*,#167,.T.);
#574=ORIENTED_EDGE('',*,*,#107,.F.);
#575=ORIENTED_EDGE('',*,*,#85,.F.);
#576=ORIENTED_EDGE('',*,*,#119,.T.);
#577=CARTESIAN_POINT('',(10.8899999999,0.8,0.0));
#578=DIRECTION('',(0.990268068744537,-0.0,-0.139173100938955));
#579=DIRECTION('',(-0.0,-1.0,0.0));
#580=SURFACE_STYLE_FILL_AREA(#601);
#581=ORIENTED_EDGE('',*,*,#135,.T.);
#582=ORIENTED_EDGE('',*,*,#175,.F.);
#583=ORIENTED_EDGE('',*,*,#147,.F.);
#584=ORIENTED_EDGE('',*,*,#103,.T.);
#585=CARTESIAN_POINT('',(0.8000000001,0.8000000001,0.0));
#586=DIRECTION('',(0.0,-0.0,1.0));
#587=DIRECTION('',(-1.0,-1.24999455231034E-010,0.0));
#588=DIRECTION('',(0.0,-0.139173100938956,-0.990268068744537));
#589=DIRECTION('',(0.0,1.0,0.0));
#590=DIRECTION('',(0.0,0.139173100960066,-0.99026806874157));
#591=FILL_AREA_STYLE('',(#602));
#592=FILL_AREA_STYLE('',(#603));
#593=FILL_AREA_STYLE('',(#604));
#594=FILL_AREA_STYLE('',(#605));
#595=FILL_AREA_STYLE('',(#606));
#596=FILL_AREA_STYLE('',(#607));
#597=FILL_AREA_STYLE('',(#608));
#598=FILL_AREA_STYLE('',(#609));
#599=FILL_AREA_STYLE('',(#610));
#600=FILL_AREA_STYLE('',(#611));
#601=FILL_AREA_STYLE('',(#612));
#602=FILL_AREA_STYLE_COLOUR('',#613);
#603=FILL_AREA_STYLE_COLOUR('',#614);
#604=FILL_AREA_STYLE_COLOUR('',#615);
#605=FILL_AREA_STYLE_COLOUR('',#616);
#606=FILL_AREA_STYLE_COLOUR('',#617);
#607=FILL_AREA_STYLE_COLOUR('',#618);
#608=FILL_AREA_STYLE_COLOUR('',#619);
#609=FILL_AREA_STYLE_COLOUR('',#620);
#610=FILL_AREA_STYLE_COLOUR('',#621);
#611=FILL_AREA_STYLE_COLOUR('',#622);
#612=FILL_AREA_STYLE_COLOUR('',#623);
#613=COLOUR_RGB('',0.800000011920929,0.800000011920929,0.800000011920929);
#614=COLOUR_RGB('',0.800000011920929,0.800000011920929,0.800000011920929);
#615=COLOUR_RGB('',0.800000011920929,0.800000011920929,0.800000011920929);
#616=COLOUR_RGB('',0.800000011920929,0.800000011920929,0.800000011920929);
#617=COLOUR_RGB('',0.800000011920929,0.800000011920929,0.800000011920929);
#618=COLOUR_RGB('',0.800000011920929,0.800000011920929,0.800000011920929);
#619=COLOUR_RGB('',0.800000011920929,0.800000011920929,0.800000011920929);
#620=COLOUR_RGB('',0.800000011920929,0.800000011920929,0.800000011920929);
#621=COLOUR_RGB('',0.800000011920929,0.800000011920929,0.800000011920929);
#622=COLOUR_RGB('',0.800000011920929,0.800000011920929,0.800000011920929);
#623=COLOUR_RGB('',0.800000011920929,0.800000011920929,0.800000011920929);
#624=AXIS2_PLACEMENT_3D('PCS',#625,#626,#627);
#625=CARTESIAN_POINT('',(0.0,0.0,0.0));
#626=DIRECTION('',(0.0,0.0,1.0));
#627=DIRECTION('',(1.0,0.0,0.0));
#628=AXIS2_PLACEMENT_3D('MCS',#629,#630,#631);
#629=CARTESIAN_POINT('',(5.445,5.445,0.0));
#630=DIRECTION('',(0.0,0.0,1.0));
#631=DIRECTION('',(1.0,0.0,0.0));
#632=CONSTRUCTIVE_GEOMETRY_REPRESENTATION_RELATIONSHIP('coordinate systems',$,#65,#633);
#633=CONSTRUCTIVE_GEOMETRY_REPRESENTATION('coordinate systems',(#624,#628),#6);
ENDSEC;
END-ISO-10303-21;
