ISO-10303-21;
HEADER;
FILE_DESCRIPTION(('no description'),'unknown implementation level');
FILE_NAME('solidgMHcVb8Y5F_dWjg_05EGwkYvPfQ_1.STP','  ',('CIMSOURCE GmbH'),('CADClick - KiM GmbH - www.kimweb.de'),'unknown preprocess','ACIS','unknown authorization');
FILE_SCHEMA(('automotive_design'));
ENDSEC;
DATA;
#1=MECHANICAL_DESIGN_GEOMETRIC_PRESENTATION_REPRESENTATION(' ',(#10,#11,#12,#13,#14,#15,#16,#17,#18,#19,#20,#21,#22,#23,#24,#25,#26,#27,#28,#29,#30,#31,#32,#33,#34,#35,#36,#37,#38,#39,#40,#41,#42,#43,#44,#45,#46,#47,#48,#49,#50,#51,#52,#53,#54,#55,#56,#57,#58,#59,#60),#6);
#2=PRODUCT_DEFINITION_CONTEXT('',#61,'design');
#3=APPLICATION_PROTOCOL_DEFINITION('INTERNATIONAL STANDARD','automotive_design',1994,#61);
#4=PRODUCT_CATEGORY_RELATIONSHIP('NONE','NONE',#62,#63);
#5=SHAPE_DEFINITION_REPRESENTATION(#64,#65);
#6= (GEOMETRIC_REPRESENTATION_CONTEXT(3)GLOBAL_UNCERTAINTY_ASSIGNED_CONTEXT((#68))GLOBAL_UNIT_ASSIGNED_CONTEXT((#70,#71,#72))REPRESENTATION_CONTEXT('NONE','WORKSPACE'));
#10=STYLED_ITEM('',(#74),#75);
#11=STYLED_ITEM('',(#76),#77);
#12=STYLED_ITEM('',(#78),#79);
#13=STYLED_ITEM('',(#80),#81);
#14=STYLED_ITEM('',(#82),#83);
#15=STYLED_ITEM('',(#84),#85);
#16=STYLED_ITEM('',(#86),#87);
#17=STYLED_ITEM('',(#88),#89);
#18=STYLED_ITEM('',(#90),#91);
#19=STYLED_ITEM('',(#92),#93);
#20=STYLED_ITEM('',(#94),#95);
#21=STYLED_ITEM('',(#96),#97);
#22=STYLED_ITEM('',(#98),#99);
#23=STYLED_ITEM('',(#100),#101);
#24=STYLED_ITEM('',(#102),#103);
#25=STYLED_ITEM('',(#104),#105);
#26=STYLED_ITEM('',(#106),#107);
#27=STYLED_ITEM('',(#108),#109);
#28=STYLED_ITEM('',(#110),#111);
#29=STYLED_ITEM('',(#112),#113);
#30=STYLED_ITEM('',(#114),#115);
#31=STYLED_ITEM('',(#116),#117);
#32=STYLED_ITEM('',(#118),#119);
#33=STYLED_ITEM('',(#120),#121);
#34=STYLED_ITEM('',(#122),#123);
#35=STYLED_ITEM('',(#124),#125);
#36=STYLED_ITEM('',(#126),#127);
#37=STYLED_ITEM('',(#128),#129);
#38=STYLED_ITEM('',(#130),#131);
#39=STYLED_ITEM('',(#132),#133);
#40=STYLED_ITEM('',(#134),#135);
#41=STYLED_ITEM('',(#136),#137);
#42=STYLED_ITEM('',(#138),#139);
#43=STYLED_ITEM('',(#140),#141);
#44=STYLED_ITEM('',(#142),#143);
#45=STYLED_ITEM('',(#144),#145);
#46=STYLED_ITEM('',(#146),#147);
#47=STYLED_ITEM('',(#148),#149);
#48=STYLED_ITEM('',(#150),#151);
#49=STYLED_ITEM('',(#152),#153);
#50=STYLED_ITEM('',(#154),#155);
#51=STYLED_ITEM('',(#156),#157);
#52=STYLED_ITEM('',(#158),#159);
#53=STYLED_ITEM('',(#160),#161);
#54=STYLED_ITEM('',(#162),#163);
#55=STYLED_ITEM('',(#164),#165);
#56=STYLED_ITEM('',(#166),#167);
#57=STYLED_ITEM('',(#168),#169);
#58=STYLED_ITEM('',(#170),#171);
#59=STYLED_ITEM('',(#172),#173);
#60=STYLED_ITEM('',(#174),#175);
#61=APPLICATION_CONTEXT(' ');
#62=PRODUCT_CATEGORY('part','NONE');
#63=PRODUCT_RELATED_PRODUCT_CATEGORY('detail',' ',(#176));
#64=PRODUCT_DEFINITION_SHAPE('NONE','NONE',#177);
#65=ADVANCED_BREP_SHAPE_REPRESENTATION('1',(#89,#178),#6);
#68=UNCERTAINTY_MEASURE_WITH_UNIT(LENGTH_MEASURE(1.0E-006),#70,'','');
#70= (CONVERSION_BASED_UNIT('MILLIMETRE',#181)LENGTH_UNIT()NAMED_UNIT(#184));
#71= (NAMED_UNIT(#186)PLANE_ANGLE_UNIT()SI_UNIT($,.RADIAN.));
#72= (NAMED_UNIT(#186)SOLID_ANGLE_UNIT()SI_UNIT($,.STERADIAN.));
#74=PRESENTATION_STYLE_ASSIGNMENT((#192));
#75=EDGE_CURVE('',#155,#145,#193,.T.);
#76=PRESENTATION_STYLE_ASSIGNMENT((#194));
#77=ADVANCED_FACE('',(#195),#196,.T.);
#78=PRESENTATION_STYLE_ASSIGNMENT((#197));
#79=VERTEX_POINT('',#198);
#80=PRESENTATION_STYLE_ASSIGNMENT((#199));
#81=EDGE_CURVE('',#87,#171,#200,.T.);
#82=PRESENTATION_STYLE_ASSIGNMENT((#201));
#83=EDGE_CURVE('',#133,#147,#202,.T.);
#84=PRESENTATION_STYLE_ASSIGNMENT((#203));
#85=VERTEX_POINT('',#204);
#86=PRESENTATION_STYLE_ASSIGNMENT((#205));
#87=VERTEX_POINT('',#206);
#88=PRESENTATION_STYLE_ASSIGNMENT((#207));
#89=MANIFOLD_SOLID_BREP('1',#208);
#90=PRESENTATION_STYLE_ASSIGNMENT((#209));
#91=EDGE_CURVE('',#145,#87,#210,.T.);
#92=PRESENTATION_STYLE_ASSIGNMENT((#211));
#93=EDGE_CURVE('',#109,#87,#212,.T.);
#94=PRESENTATION_STYLE_ASSIGNMENT((#213));
#95=ADVANCED_FACE('',(#214),#215,.T.);
#96=PRESENTATION_STYLE_ASSIGNMENT((#216));
#97=EDGE_CURVE('',#147,#143,#217,.T.);
#98=PRESENTATION_STYLE_ASSIGNMENT((#218));
#99=EDGE_CURVE('',#79,#155,#219,.T.);
#100=PRESENTATION_STYLE_ASSIGNMENT((#220));
#101=EDGE_CURVE('',#147,#169,#221,.T.);
#102=PRESENTATION_STYLE_ASSIGNMENT((#222));
#103=EDGE_CURVE('',#85,#145,#223,.T.);
#104=PRESENTATION_STYLE_ASSIGNMENT((#224));
#105=EDGE_CURVE('',#133,#163,#225,.T.);
#106=PRESENTATION_STYLE_ASSIGNMENT((#226));
#107=ADVANCED_FACE('',(#227),#228,.T.);
#108=PRESENTATION_STYLE_ASSIGNMENT((#229));
#109=VERTEX_POINT('',#230);
#110=PRESENTATION_STYLE_ASSIGNMENT((#231));
#111=EDGE_CURVE('',#129,#85,#232,.T.);
#112=PRESENTATION_STYLE_ASSIGNMENT((#233));
#113=EDGE_CURVE('',#85,#109,#234,.T.);
#114=PRESENTATION_STYLE_ASSIGNMENT((#235));
#115=ADVANCED_FACE('',(#236),#237,.T.);
#116=PRESENTATION_STYLE_ASSIGNMENT((#238));
#117=ADVANCED_FACE('',(#239),#240,.T.);
#118=PRESENTATION_STYLE_ASSIGNMENT((#241));
#119=EDGE_CURVE('',#163,#143,#242,.T.);
#120=PRESENTATION_STYLE_ASSIGNMENT((#243));
#121=EDGE_CURVE('',#169,#159,#244,.T.);
#122=PRESENTATION_STYLE_ASSIGNMENT((#245));
#123=VERTEX_POINT('',#246);
#124=PRESENTATION_STYLE_ASSIGNMENT((#247));
#125=ADVANCED_FACE('',(#248),#249,.T.);
#126=PRESENTATION_STYLE_ASSIGNMENT((#250));
#127=EDGE_CURVE('',#123,#79,#251,.T.);
#128=PRESENTATION_STYLE_ASSIGNMENT((#252));
#129=VERTEX_POINT('',#253);
#130=PRESENTATION_STYLE_ASSIGNMENT((#254));
#131=ADVANCED_FACE('',(#255),#256,.T.);
#132=PRESENTATION_STYLE_ASSIGNMENT((#257));
#133=VERTEX_POINT('',#258);
#134=PRESENTATION_STYLE_ASSIGNMENT((#259));
#135=EDGE_CURVE('',#129,#155,#260,.T.);
#136=PRESENTATION_STYLE_ASSIGNMENT((#261));
#137=EDGE_CURVE('',#149,#171,#262,.T.);
#138=PRESENTATION_STYLE_ASSIGNMENT((#263));
#139=EDGE_CURVE('',#159,#79,#264,.T.);
#140=PRESENTATION_STYLE_ASSIGNMENT((#265));
#141=EDGE_CURVE('',#169,#123,#266,.T.);
#142=PRESENTATION_STYLE_ASSIGNMENT((#267));
#143=VERTEX_POINT('',#268);
#144=PRESENTATION_STYLE_ASSIGNMENT((#269));
#145=VERTEX_POINT('',#270);
#146=PRESENTATION_STYLE_ASSIGNMENT((#271));
#147=VERTEX_POINT('',#272);
#148=PRESENTATION_STYLE_ASSIGNMENT((#273));
#149=VERTEX_POINT('',#274);
#150=PRESENTATION_STYLE_ASSIGNMENT((#275));
#151=ADVANCED_FACE('',(#276),#277,.T.);
#152=PRESENTATION_STYLE_ASSIGNMENT((#278));
#153=ADVANCED_FACE('',(#279),#280,.T.);
#154=PRESENTATION_STYLE_ASSIGNMENT((#281));
#155=VERTEX_POINT('',#282);
#156=PRESENTATION_STYLE_ASSIGNMENT((#283));
#157=EDGE_CURVE('',#109,#149,#284,.T.);
#158=PRESENTATION_STYLE_ASSIGNMENT((#285));
#159=VERTEX_POINT('',#286);
#160=PRESENTATION_STYLE_ASSIGNMENT((#287));
#161=EDGE_CURVE('',#149,#133,#288,.T.);
#162=PRESENTATION_STYLE_ASSIGNMENT((#289));
#163=VERTEX_POINT('',#290);
#164=PRESENTATION_STYLE_ASSIGNMENT((#291));
#165=EDGE_CURVE('',#171,#163,#292,.T.);
#166=PRESENTATION_STYLE_ASSIGNMENT((#293));
#167=EDGE_CURVE('',#143,#123,#294,.T.);
#168=PRESENTATION_STYLE_ASSIGNMENT((#295));
#169=VERTEX_POINT('',#296);
#170=PRESENTATION_STYLE_ASSIGNMENT((#297));
#171=VERTEX_POINT('',#298);
#172=PRESENTATION_STYLE_ASSIGNMENT((#299));
#173=EDGE_CURVE('',#159,#129,#300,.T.);
#174=PRESENTATION_STYLE_ASSIGNMENT((#301));
#175=ADVANCED_FACE('',(#302),#303,.F.);
#176=PRODUCT('1','1','PART-1-DESC',(#304));
#177=PRODUCT_DEFINITION('NONE','NONE',#305,#2);
#178=AXIS2_PLACEMENT_3D('',#306,#307,#308);
#181=LENGTH_MEASURE_WITH_UNIT(LENGTH_MEASURE(1.0),#309);
#184=DIMENSIONAL_EXPONENTS(1.0,0.0,0.0,0.0,0.0,0.0,0.0);
#186=DIMENSIONAL_EXPONENTS(0.0,0.0,0.0,0.0,0.0,0.0,0.0);
#192=CURVE_STYLE('',#310,POSITIVE_LENGTH_MEASURE(1.0E-006),#311);
#193=CIRCLE('',#312,0.0627019967142607);
#194=SURFACE_STYLE_USAGE(.BOTH.,#313);
#195=FACE_OUTER_BOUND('',#314,.T.);
#196=CONICAL_SURFACE('',#315,0.400000000000001,0.139626340159547);
#197=POINT_STYLE(' ',#316,POSITIVE_LENGTH_MEASURE(1.0E-006),#317);
#198=CARTESIAN_POINT('',(5.49270199671426,0.4,-2.4));
#199=CURVE_STYLE('',#318,POSITIVE_LENGTH_MEASURE(1.0E-006),#319);
#200=CIRCLE('',#320,0.0627019967142607);
#201=CURVE_STYLE('',#321,POSITIVE_LENGTH_MEASURE(1.0E-006),#322);
#202=CIRCLE('',#323,0.4);
#203=POINT_STYLE(' ',#324,POSITIVE_LENGTH_MEASURE(1.0E-006),#325);
#204=CARTESIAN_POINT('',(5.43,5.8299999999,0.0));
#205=POINT_STYLE(' ',#326,POSITIVE_LENGTH_MEASURE(1.0E-006),#327);
#206=CARTESIAN_POINT('',(0.400000000084325,5.49270199661426,-2.4));
#207=SURFACE_STYLE_USAGE(.BOTH.,#328);
#208=CLOSED_SHELL('',(#151,#95,#115,#131,#77,#153,#107,#125,#175,#117));
#209=CURVE_STYLE('',#329,POSITIVE_LENGTH_MEASURE(1.0E-006),#330);
#210=LINE('',#331,#332);
#211=CURVE_STYLE('',#333,POSITIVE_LENGTH_MEASURE(1.0E-006),#334);
#212=LINE('',#335,#336);
#213=SURFACE_STYLE_USAGE(.BOTH.,#337);
#214=FACE_OUTER_BOUND('',#338,.T.);
#215=PLANE('',#339);
#216=CURVE_STYLE('',#340,POSITIVE_LENGTH_MEASURE(1.0E-006),#341);
#217=LINE('',#342,#343);
#218=CURVE_STYLE('',#344,POSITIVE_LENGTH_MEASURE(1.0E-006),#345);
#219=LINE('',#346,#347);
#220=CURVE_STYLE('',#348,POSITIVE_LENGTH_MEASURE(1.0E-006),#349);
#221=LINE('',#350,#351);
#222=CURVE_STYLE('',#352,POSITIVE_LENGTH_MEASURE(1.0E-006),#353);
#223=LINE('',#354,#355);
#224=CURVE_STYLE('',#356,POSITIVE_LENGTH_MEASURE(1.0E-006),#357);
#225=LINE('',#358,#359);
#226=SURFACE_STYLE_USAGE(.BOTH.,#360);
#227=FACE_OUTER_BOUND('',#361,.T.);
#228=CONICAL_SURFACE('',#362,0.4,0.139626340159547);
#229=POINT_STYLE(' ',#363,POSITIVE_LENGTH_MEASURE(1.0E-006),#364);
#230=CARTESIAN_POINT('',(0.4,5.83,0.0));
#231=CURVE_STYLE('',#365,POSITIVE_LENGTH_MEASURE(1.0E-006),#366);
#232=CIRCLE('',#367,0.400000000000001);
#233=CURVE_STYLE('',#368,POSITIVE_LENGTH_MEASURE(1.0E-006),#369);
#234=LINE('',#370,#371);
#235=SURFACE_STYLE_USAGE(.BOTH.,#372);
#236=FACE_OUTER_BOUND('',#373,.T.);
#237=CONICAL_SURFACE('',#374,0.400000000000001,0.139626340159547);
#238=SURFACE_STYLE_USAGE(.BOTH.,#375);
#239=FACE_OUTER_BOUND('',#376,.T.);
#240=PLANE('',#377);
#241=CURVE_STYLE('',#378,POSITIVE_LENGTH_MEASURE(1.0E-006),#379);
#242=CIRCLE('',#380,0.0627019967142597);
#243=CURVE_STYLE('',#381,POSITIVE_LENGTH_MEASURE(1.0E-006),#382);
#244=CIRCLE('',#383,0.4);
#245=POINT_STYLE(' ',#384,POSITIVE_LENGTH_MEASURE(1.0E-006),#385);
#246=CARTESIAN_POINT('',(5.42999999991568,0.33729800338574,-2.4));
#247=SURFACE_STYLE_USAGE(.BOTH.,#386);
#248=FACE_OUTER_BOUND('',#387,.T.);
#249=PLANE('',#388);
#250=CURVE_STYLE('',#389,POSITIVE_LENGTH_MEASURE(1.0E-006),#390);
#251=CIRCLE('',#391,0.0627019967142595);
#252=POINT_STYLE(' ',#392,POSITIVE_LENGTH_MEASURE(1.0E-006),#393);
#253=CARTESIAN_POINT('',(5.83,5.43,0.0));
#254=SURFACE_STYLE_USAGE(.BOTH.,#394);
#255=FACE_OUTER_BOUND('',#395,.T.);
#256=PLANE('',#396);
#257=POINT_STYLE(' ',#397,POSITIVE_LENGTH_MEASURE(1.0E-006),#398);
#258=CARTESIAN_POINT('',(0.0,0.4,0.0));
#259=CURVE_STYLE('',#399,POSITIVE_LENGTH_MEASURE(1.0E-006),#400);
#260=LINE('',#401,#402);
#261=CURVE_STYLE('',#403,POSITIVE_LENGTH_MEASURE(1.0E-006),#404);
#262=LINE('',#405,#406);
#263=CURVE_STYLE('',#407,POSITIVE_LENGTH_MEASURE(1.0E-006),#408);
#264=LINE('',#409,#410);
#265=CURVE_STYLE('',#411,POSITIVE_LENGTH_MEASURE(1.0E-006),#412);
#266=LINE('',#413,#414);
#267=POINT_STYLE(' ',#415,POSITIVE_LENGTH_MEASURE(1.0E-006),#416);
#268=CARTESIAN_POINT('',(0.4,0.337298003285741,-2.4));
#269=POINT_STYLE(' ',#417,POSITIVE_LENGTH_MEASURE(1.0E-006),#418);
#270=CARTESIAN_POINT('',(5.43,5.49270199671426,-2.4));
#271=POINT_STYLE(' ',#419,POSITIVE_LENGTH_MEASURE(1.0E-006),#420);
#272=CARTESIAN_POINT('',(0.4,0.0,0.0));
#273=POINT_STYLE(' ',#421,POSITIVE_LENGTH_MEASURE(1.0E-006),#422);
#274=CARTESIAN_POINT('',(9.99991200956174E-011,5.43,0.0));
#275=SURFACE_STYLE_USAGE(.BOTH.,#423);
#276=FACE_OUTER_BOUND('',#424,.T.);
#277=CONICAL_SURFACE('',#425,0.4,0.139626340159547);
#278=SURFACE_STYLE_USAGE(.BOTH.,#426);
#279=FACE_OUTER_BOUND('',#427,.T.);
#280=PLANE('',#428);
#281=POINT_STYLE(' ',#429,POSITIVE_LENGTH_MEASURE(1.0E-006),#430);
#282=CARTESIAN_POINT('',(5.49270199661426,5.42999999991567,-2.4));
#283=CURVE_STYLE('',#431,POSITIVE_LENGTH_MEASURE(1.0E-006),#432);
#284=CIRCLE('',#433,0.400000000000001);
#285=POINT_STYLE(' ',#434,POSITIVE_LENGTH_MEASURE(1.0E-006),#435);
#286=CARTESIAN_POINT('',(5.8299999999,0.4,0.0));
#287=CURVE_STYLE('',#436,POSITIVE_LENGTH_MEASURE(1.0E-006),#437);
#288=LINE('',#438,#439);
#289=POINT_STYLE(' ',#440,POSITIVE_LENGTH_MEASURE(1.0E-006),#441);
#290=CARTESIAN_POINT('',(0.33729800338574,0.400000000084325,-2.4));
#291=CURVE_STYLE('',#442,POSITIVE_LENGTH_MEASURE(1.0E-006),#443);
#292=LINE('',#444,#445);
#293=CURVE_STYLE('',#446,POSITIVE_LENGTH_MEASURE(1.0E-006),#447);
#294=LINE('',#448,#449);
#295=POINT_STYLE(' ',#450,POSITIVE_LENGTH_MEASURE(1.0E-006),#451);
#296=CARTESIAN_POINT('',(5.43,0.0,0.0));
#297=POINT_STYLE(' ',#452,POSITIVE_LENGTH_MEASURE(1.0E-006),#453);
#298=CARTESIAN_POINT('',(0.337298003285741,5.43,-2.4));
#299=CURVE_STYLE('',#454,POSITIVE_LENGTH_MEASURE(1.0E-006),#455);
#300=LINE('',#456,#457);
#301=SURFACE_STYLE_USAGE(.BOTH.,#458);
#302=FACE_OUTER_BOUND('',#459,.T.);
#303=PLANE('',#460);
#304=PRODUCT_CONTEXT('',#61,'mechanical');
#305=PRODUCT_DEFINITION_FORMATION_WITH_SPECIFIED_SOURCE(' ','NONE',#176,.NOT_KNOWN.);
#306=CARTESIAN_POINT('',(0.0,0.0,0.0));
#307=DIRECTION('',(0.0,0.0,1.0));
#308=DIRECTION('',(1.0,0.0,0.0));
#309= (NAMED_UNIT(#184)LENGTH_UNIT()SI_UNIT(.MILLI.,.METRE.));
#310=DRAUGHTING_PRE_DEFINED_CURVE_FONT('continuous');
#311=COLOUR_RGB('',0.800000011920929,0.800000011920929,0.800000011920929);
#312=AXIS2_PLACEMENT_3D('',#462,#463,#464);
#313=SURFACE_SIDE_STYLE('',(#465));
#314=EDGE_LOOP('',(#466,#467,#468,#469));
#315=AXIS2_PLACEMENT_3D('',#470,#471,#472);
#316=PRE_DEFINED_MARKER('');
#317=COLOUR_RGB('',0.800000011920929,0.800000011920929,0.800000011920929);
#318=DRAUGHTING_PRE_DEFINED_CURVE_FONT('continuous');
#319=COLOUR_RGB('',0.800000011920929,0.800000011920929,0.800000011920929);
#320=AXIS2_PLACEMENT_3D('',#473,#474,#475);
#321=DRAUGHTING_PRE_DEFINED_CURVE_FONT('continuous');
#322=COLOUR_RGB('',0.800000011920929,0.800000011920929,0.800000011920929);
#323=AXIS2_PLACEMENT_3D('',#476,#477,#478);
#324=PRE_DEFINED_MARKER('');
#325=COLOUR_RGB('',0.800000011920929,0.800000011920929,0.800000011920929);
#326=PRE_DEFINED_MARKER('');
#327=COLOUR_RGB('',0.800000011920929,0.800000011920929,0.800000011920929);
#328=SURFACE_SIDE_STYLE('',(#479));
#329=DRAUGHTING_PRE_DEFINED_CURVE_FONT('continuous');
#330=COLOUR_RGB('',0.800000011920929,0.800000011920929,0.800000011920929);
#331=CARTESIAN_POINT('',(5.43,5.49270199671426,-2.4));
#332=VECTOR('',#480,1.0);
#333=DRAUGHTING_PRE_DEFINED_CURVE_FONT('continuous');
#334=COLOUR_RGB('',0.800000011920929,0.800000011920929,0.800000011920929);
#335=CARTESIAN_POINT('',(0.4,5.83,0.0));
#336=VECTOR('',#481,1.0);
#337=SURFACE_SIDE_STYLE('',(#482));
#338=EDGE_LOOP('',(#483,#484,#485,#486));
#339=AXIS2_PLACEMENT_3D('',#487,#488,#489);
#340=DRAUGHTING_PRE_DEFINED_CURVE_FONT('continuous');
#341=COLOUR_RGB('',0.800000011920929,0.800000011920929,0.800000011920929);
#342=CARTESIAN_POINT('',(0.4,0.0,0.0));
#343=VECTOR('',#490,1.0);
#344=DRAUGHTING_PRE_DEFINED_CURVE_FONT('continuous');
#345=COLOUR_RGB('',0.800000011920929,0.800000011920929,0.800000011920929);
#346=CARTESIAN_POINT('',(5.49270199671426,0.4,-2.4));
#347=VECTOR('',#491,1.0);
#348=DRAUGHTING_PRE_DEFINED_CURVE_FONT('continuous');
#349=COLOUR_RGB('',0.800000011920929,0.800000011920929,0.800000011920929);
#350=CARTESIAN_POINT('',(0.4,0.0,0.0));
#351=VECTOR('',#492,1.0);
#352=DRAUGHTING_PRE_DEFINED_CURVE_FONT('continuous');
#353=COLOUR_RGB('',0.800000011920929,0.800000011920929,0.800000011920929);
#354=CARTESIAN_POINT('',(5.43,5.8299999999,0.0));
#355=VECTOR('',#493,1.0);
#356=DRAUGHTING_PRE_DEFINED_CURVE_FONT('continuous');
#357=COLOUR_RGB('',0.800000011920929,0.800000011920929,0.800000011920929);
#358=CARTESIAN_POINT('',(0.0,0.4,0.0));
#359=VECTOR('',#494,1.0);
#360=SURFACE_SIDE_STYLE('',(#495));
#361=EDGE_LOOP('',(#496,#497,#498,#499));
#362=AXIS2_PLACEMENT_3D('',#500,#501,#502);
#363=PRE_DEFINED_MARKER('');
#364=COLOUR_RGB('',0.800000011920929,0.800000011920929,0.800000011920929);
#365=DRAUGHTING_PRE_DEFINED_CURVE_FONT('continuous');
#366=COLOUR_RGB('',0.800000011920929,0.800000011920929,0.800000011920929);
#367=AXIS2_PLACEMENT_3D('',#503,#504,#505);
#368=DRAUGHTING_PRE_DEFINED_CURVE_FONT('continuous');
#369=COLOUR_RGB('',0.800000011920929,0.800000011920929,0.800000011920929);
#370=CARTESIAN_POINT('',(5.43,5.83,0.0));
#371=VECTOR('',#506,1.0);
#372=SURFACE_SIDE_STYLE('',(#507));
#373=EDGE_LOOP('',(#508,#509,#510,#511));
#374=AXIS2_PLACEMENT_3D('',#512,#513,#514);
#375=SURFACE_SIDE_STYLE('',(#515));
#376=EDGE_LOOP('',(#516,#517,#518,#519,#520,#521,#522,#523));
#377=AXIS2_PLACEMENT_3D('',#524,#525,#526);
#378=DRAUGHTING_PRE_DEFINED_CURVE_FONT('continuous');
#379=COLOUR_RGB('',0.800000011920929,0.800000011920929,0.800000011920929);
#380=AXIS2_PLACEMENT_3D('',#527,#528,#529);
#381=DRAUGHTING_PRE_DEFINED_CURVE_FONT('continuous');
#382=COLOUR_RGB('',0.800000011920929,0.800000011920929,0.800000011920929);
#383=AXIS2_PLACEMENT_3D('',#530,#531,#532);
#384=PRE_DEFINED_MARKER('');
#385=COLOUR_RGB('',0.800000011920929,0.800000011920929,0.800000011920929);
#386=SURFACE_SIDE_STYLE('',(#533));
#387=EDGE_LOOP('',(#534,#535,#536,#537));
#388=AXIS2_PLACEMENT_3D('',#538,#539,#540);
#389=DRAUGHTING_PRE_DEFINED_CURVE_FONT('continuous');
#390=COLOUR_RGB('',0.800000011920929,0.800000011920929,0.800000011920929);
#391=AXIS2_PLACEMENT_3D('',#541,#542,#543);
#392=PRE_DEFINED_MARKER('');
#393=COLOUR_RGB('',0.800000011920929,0.800000011920929,0.800000011920929);
#394=SURFACE_SIDE_STYLE('',(#544));
#395=EDGE_LOOP('',(#545,#546,#547,#548));
#396=AXIS2_PLACEMENT_3D('',#549,#550,#551);
#397=PRE_DEFINED_MARKER('');
#398=COLOUR_RGB('',0.800000011920929,0.800000011920929,0.800000011920929);
#399=DRAUGHTING_PRE_DEFINED_CURVE_FONT('continuous');
#400=COLOUR_RGB('',0.800000011920929,0.800000011920929,0.800000011920929);
#401=CARTESIAN_POINT('',(5.83,5.43,0.0));
#402=VECTOR('',#552,1.0);
#403=DRAUGHTING_PRE_DEFINED_CURVE_FONT('continuous');
#404=COLOUR_RGB('',0.800000011920929,0.800000011920929,0.800000011920929);
#405=CARTESIAN_POINT('',(9.99991200956174E-011,5.43,0.0));
#406=VECTOR('',#553,1.0);
#407=DRAUGHTING_PRE_DEFINED_CURVE_FONT('continuous');
#408=COLOUR_RGB('',0.800000011920929,0.800000011920929,0.800000011920929);
#409=CARTESIAN_POINT('',(5.8299999999,0.4,0.0));
#410=VECTOR('',#554,1.0);
#411=DRAUGHTING_PRE_DEFINED_CURVE_FONT('continuous');
#412=COLOUR_RGB('',0.800000011920929,0.800000011920929,0.800000011920929);
#413=CARTESIAN_POINT('',(5.43,0.0,0.0));
#414=VECTOR('',#555,1.0);
#415=PRE_DEFINED_MARKER('');
#416=COLOUR_RGB('',0.800000011920929,0.800000011920929,0.800000011920929);
#417=PRE_DEFINED_MARKER('');
#418=COLOUR_RGB('',0.800000011920929,0.800000011920929,0.800000011920929);
#419=PRE_DEFINED_MARKER('');
#420=COLOUR_RGB('',0.800000011920929,0.800000011920929,0.800000011920929);
#421=PRE_DEFINED_MARKER('');
#422=COLOUR_RGB('',0.800000011920929,0.800000011920929,0.800000011920929);
#423=SURFACE_SIDE_STYLE('',(#556));
#424=EDGE_LOOP('',(#557,#558,#559,#560));
#425=AXIS2_PLACEMENT_3D('',#561,#562,#563);
#426=SURFACE_SIDE_STYLE('',(#564));
#427=EDGE_LOOP('',(#565,#566,#567,#568));
#428=AXIS2_PLACEMENT_3D('',#569,#570,#571);
#429=PRE_DEFINED_MARKER('');
#430=COLOUR_RGB('',0.800000011920929,0.800000011920929,0.800000011920929);
#431=DRAUGHTING_PRE_DEFINED_CURVE_FONT('continuous');
#432=COLOUR_RGB('',0.800000011920929,0.800000011920929,0.800000011920929);
#433=AXIS2_PLACEMENT_3D('',#572,#573,#574);
#434=PRE_DEFINED_MARKER('');
#435=COLOUR_RGB('',0.800000011920929,0.800000011920929,0.800000011920929);
#436=DRAUGHTING_PRE_DEFINED_CURVE_FONT('continuous');
#437=COLOUR_RGB('',0.800000011920929,0.800000011920929,0.800000011920929);
#438=CARTESIAN_POINT('',(0.0,5.43,0.0));
#439=VECTOR('',#575,1.0);
#440=PRE_DEFINED_MARKER('');
#441=COLOUR_RGB('',0.800000011920929,0.800000011920929,0.800000011920929);
#442=DRAUGHTING_PRE_DEFINED_CURVE_FONT('continuous');
#443=COLOUR_RGB('',0.800000011920929,0.800000011920929,0.800000011920929);
#444=CARTESIAN_POINT('',(0.337298003285741,5.43,-2.4));
#445=VECTOR('',#576,1.0);
#446=DRAUGHTING_PRE_DEFINED_CURVE_FONT('continuous');
#447=COLOUR_RGB('',0.800000011920929,0.800000011920929,0.800000011920929);
#448=CARTESIAN_POINT('',(0.4,0.337298003285741,-2.4));
#449=VECTOR('',#577,1.0);
#450=PRE_DEFINED_MARKER('');
#451=COLOUR_RGB('',0.800000011920929,0.800000011920929,0.800000011920929);
#452=PRE_DEFINED_MARKER('');
#453=COLOUR_RGB('',0.800000011920929,0.800000011920929,0.800000011920929);
#454=DRAUGHTING_PRE_DEFINED_CURVE_FONT('continuous');
#455=COLOUR_RGB('',0.800000011920929,0.800000011920929,0.800000011920929);
#456=CARTESIAN_POINT('',(5.83,0.4,0.0));
#457=VECTOR('',#578,1.0);
#458=SURFACE_SIDE_STYLE('',(#579));
#459=EDGE_LOOP('',(#580,#581,#582,#583,#584,#585,#586,#587));
#460=AXIS2_PLACEMENT_3D('',#588,#589,#590);
#462=CARTESIAN_POINT('',(5.4299999999,5.4299999999,-2.4));
#463=DIRECTION('',(0.0,-0.0,1.0));
#464=DIRECTION('',(1.0,2.50002241131141E-010,0.0));
#465=SURFACE_STYLE_FILL_AREA(#591);
#466=ORIENTED_EDGE('',*,*,#81,.T.);
#467=ORIENTED_EDGE('',*,*,#137,.F.);
#468=ORIENTED_EDGE('',*,*,#157,.F.);
#469=ORIENTED_EDGE('',*,*,#93,.T.);
#470=CARTESIAN_POINT('',(0.4000000001,5.4299999999,0.0));
#471=DIRECTION('',(-0.0,-0.0,1.0));
#472=DIRECTION('',(-2.50001269685995E-010,1.0,0.0));
#473=CARTESIAN_POINT('',(0.4000000001,5.4299999999,-2.4));
#474=DIRECTION('',(0.0,0.0,1.0));
#475=DIRECTION('',(-2.50001269685995E-010,1.0,0.0));
#476=CARTESIAN_POINT('',(0.4000000001,0.4000000001,0.0));
#477=DIRECTION('',(0.0,0.0,1.0));
#478=DIRECTION('',(-1.0,-2.49998494128434E-010,0.0));
#479=SURFACE_STYLE_FILL_AREA(#592);
#480=DIRECTION('',(-1.0,0.0,0.0));
#481=DIRECTION('',(3.47932715313301E-011,-0.139173101000528,-0.990268068735884));
#482=SURFACE_STYLE_FILL_AREA(#593);
#483=ORIENTED_EDGE('',*,*,#99,.T.);
#484=ORIENTED_EDGE('',*,*,#135,.F.);
#485=ORIENTED_EDGE('',*,*,#173,.F.);
#486=ORIENTED_EDGE('',*,*,#139,.T.);
#487=CARTESIAN_POINT('',(5.8299999999,0.4,0.0));
#488=DIRECTION('',(0.990268068747257,-0.0,-0.139173100919604));
#489=DIRECTION('',(-0.0,-1.0,0.0));
#490=DIRECTION('',(0.0,0.139173100960066,-0.99026806874157));
#491=DIRECTION('',(0.0,1.0,0.0));
#492=DIRECTION('',(1.0,0.0,0.0));
#493=DIRECTION('',(0.0,-0.139173100919604,-0.990268068747257));
#494=DIRECTION('',(0.139173101000528,3.47931341040288E-011,-0.990268068735884));
#495=SURFACE_STYLE_FILL_AREA(#594);
#496=ORIENTED_EDGE('',*,*,#119,.T.);
#497=ORIENTED_EDGE('',*,*,#97,.F.);
#498=ORIENTED_EDGE('',*,*,#83,.F.);
#499=ORIENTED_EDGE('',*,*,#105,.T.);
#500=CARTESIAN_POINT('',(0.4000000001,0.4000000001,0.0));
#501=DIRECTION('',(0.0,-0.0,1.0));
#502=DIRECTION('',(-1.0,-2.49998494128434E-010,0.0));
#503=CARTESIAN_POINT('',(5.4299999999,5.4299999999,0.0));
#504=DIRECTION('',(0.0,-0.0,1.0));
#505=DIRECTION('',(1.0,2.50002241131141E-010,0.0));
#506=DIRECTION('',(-1.0,0.0,0.0));
#507=SURFACE_STYLE_FILL_AREA(#595);
#508=ORIENTED_EDGE('',*,*,#75,.T.);
#509=ORIENTED_EDGE('',*,*,#103,.F.);
#510=ORIENTED_EDGE('',*,*,#111,.F.);
#511=ORIENTED_EDGE('',*,*,#135,.T.);
#512=CARTESIAN_POINT('',(5.4299999999,5.4299999999,0.0));
#513=DIRECTION('',(-0.0,-0.0,1.0));
#514=DIRECTION('',(1.0,2.50002241131141E-010,0.0));
#515=SURFACE_STYLE_FILL_AREA(#596);
#516=ORIENTED_EDGE('',*,*,#101,.T.);
#517=ORIENTED_EDGE('',*,*,#121,.T.);
#518=ORIENTED_EDGE('',*,*,#173,.T.);
#519=ORIENTED_EDGE('',*,*,#111,.T.);
#520=ORIENTED_EDGE('',*,*,#113,.T.);
#521=ORIENTED_EDGE('',*,*,#157,.T.);
#522=ORIENTED_EDGE('',*,*,#161,.T.);
#523=ORIENTED_EDGE('',*,*,#83,.T.);
#524=CARTESIAN_POINT('',(2.915,2.915,0.0));
#525=DIRECTION('',(0.0,0.0,1.0));
#526=DIRECTION('',(1.0,0.0,0.0));
#527=CARTESIAN_POINT('',(0.4000000001,0.4000000001,-2.4));
#528=DIRECTION('',(0.0,0.0,1.0));
#529=DIRECTION('',(-1.0,-2.49998494128434E-010,0.0));
#530=CARTESIAN_POINT('',(5.4299999999,0.4000000001,0.0));
#531=DIRECTION('',(0.0,0.0,1.0));
#532=DIRECTION('',(2.50000020685093E-010,-1.0,0.0));
#533=SURFACE_STYLE_FILL_AREA(#597);
#534=ORIENTED_EDGE('',*,*,#167,.T.);
#535=ORIENTED_EDGE('',*,*,#141,.F.);
#536=ORIENTED_EDGE('',*,*,#101,.F.);
#537=ORIENTED_EDGE('',*,*,#97,.T.);
#538=CARTESIAN_POINT('',(0.4,0.0,0.0));
#539=DIRECTION('',(-0.0,-0.99026806874157,-0.139173100960066));
#540=DIRECTION('',(-1.0,0.0,0.0));
#541=CARTESIAN_POINT('',(5.4299999999,0.4000000001,-2.4));
#542=DIRECTION('',(0.0,0.0,1.0));
#543=DIRECTION('',(2.50000020685093E-010,-1.0,0.0));
#544=SURFACE_STYLE_FILL_AREA(#598);
#545=ORIENTED_EDGE('',*,*,#91,.T.);
#546=ORIENTED_EDGE('',*,*,#93,.F.);
#547=ORIENTED_EDGE('',*,*,#113,.F.);
#548=ORIENTED_EDGE('',*,*,#103,.T.);
#549=CARTESIAN_POINT('',(5.43,5.8299999999,0.0));
#550=DIRECTION('',(0.0,0.990268068747257,-0.139173100919604));
#551=DIRECTION('',(1.0,-0.0,0.0));
#552=DIRECTION('',(-0.139173101000528,-3.47936609086838E-011,-0.990268068735884));
#553=DIRECTION('',(0.139173100919604,0.0,-0.990268068747257));
#554=DIRECTION('',(-0.139173100919604,0.0,-0.990268068747257));
#555=DIRECTION('',(-3.47929279630768E-011,0.139173101000528,-0.990268068735884));
#556=SURFACE_STYLE_FILL_AREA(#599);
#557=ORIENTED_EDGE('',*,*,#127,.T.);
#558=ORIENTED_EDGE('',*,*,#139,.F.);
#559=ORIENTED_EDGE('',*,*,#121,.F.);
#560=ORIENTED_EDGE('',*,*,#141,.T.);
#561=CARTESIAN_POINT('',(5.4299999999,0.4000000001,0.0));
#562=DIRECTION('',(-0.0,-0.0,1.0));
#563=DIRECTION('',(2.50000020685093E-010,-1.0,0.0));
#564=SURFACE_STYLE_FILL_AREA(#600);
#565=ORIENTED_EDGE('',*,*,#165,.T.);
#566=ORIENTED_EDGE('',*,*,#105,.F.);
#567=ORIENTED_EDGE('',*,*,#161,.F.);
#568=ORIENTED_EDGE('',*,*,#137,.T.);
#569=CARTESIAN_POINT('',(9.99991200956174E-011,5.43,0.0));
#570=DIRECTION('',(-0.990268068747257,0.0,-0.139173100919604));
#571=DIRECTION('',(0.0,1.0,0.0));
#572=CARTESIAN_POINT('',(0.4000000001,5.4299999999,0.0));
#573=DIRECTION('',(0.0,0.0,1.0));
#574=DIRECTION('',(-2.50001269685995E-010,1.0,0.0));
#575=DIRECTION('',(0.0,-1.0,0.0));
#576=DIRECTION('',(0.0,-1.0,0.0));
#577=DIRECTION('',(1.0,0.0,0.0));
#578=DIRECTION('',(0.0,1.0,0.0));
#579=SURFACE_STYLE_FILL_AREA(#601);
#580=ORIENTED_EDGE('',*,*,#127,.F.);
#581=ORIENTED_EDGE('',*,*,#167,.F.);
#582=ORIENTED_EDGE('',*,*,#119,.F.);
#583=ORIENTED_EDGE('',*,*,#165,.F.);
#584=ORIENTED_EDGE('',*,*,#81,.F.);
#585=ORIENTED_EDGE('',*,*,#91,.F.);
#586=ORIENTED_EDGE('',*,*,#75,.F.);
#587=ORIENTED_EDGE('',*,*,#99,.F.);
#588=CARTESIAN_POINT('',(2.915,2.915,-2.4));
#589=DIRECTION('',(0.0,0.0,1.0));
#590=DIRECTION('',(1.0,0.0,0.0));
#591=FILL_AREA_STYLE('',(#602));
#592=FILL_AREA_STYLE('',(#603));
#593=FILL_AREA_STYLE('',(#604));
#594=FILL_AREA_STYLE('',(#605));
#595=FILL_AREA_STYLE('',(#606));
#596=FILL_AREA_STYLE('',(#607));
#597=FILL_AREA_STYLE('',(#608));
#598=FILL_AREA_STYLE('',(#609));
#599=FILL_AREA_STYLE('',(#610));
#600=FILL_AREA_STYLE('',(#611));
#601=FILL_AREA_STYLE('',(#612));
#602=FILL_AREA_STYLE_COLOUR('',#613);
#603=FILL_AREA_STYLE_COLOUR('',#614);
#604=FILL_AREA_STYLE_COLOUR('',#615);
#605=FILL_AREA_STYLE_COLOUR('',#616);
#606=FILL_AREA_STYLE_COLOUR('',#617);
#607=FILL_AREA_STYLE_COLOUR('',#618);
#608=FILL_AREA_STYLE_COLOUR('',#619);
#609=FILL_AREA_STYLE_COLOUR('',#620);
#610=FILL_AREA_STYLE_COLOUR('',#621);
#611=FILL_AREA_STYLE_COLOUR('',#622);
#612=FILL_AREA_STYLE_COLOUR('',#623);
#613=COLOUR_RGB('',0.800000011920929,0.800000011920929,0.800000011920929);
#614=COLOUR_RGB('',0.800000011920929,0.800000011920929,0.800000011920929);
#615=COLOUR_RGB('',0.800000011920929,0.800000011920929,0.800000011920929);
#616=COLOUR_RGB('',0.800000011920929,0.800000011920929,0.800000011920929);
#617=COLOUR_RGB('',0.800000011920929,0.800000011920929,0.800000011920929);
#618=COLOUR_RGB('',0.800000011920929,0.800000011920929,0.800000011920929);
#619=COLOUR_RGB('',0.800000011920929,0.800000011920929,0.800000011920929);
#620=COLOUR_RGB('',0.800000011920929,0.800000011920929,0.800000011920929);
#621=COLOUR_RGB('',0.800000011920929,0.800000011920929,0.800000011920929);
#622=COLOUR_RGB('',0.800000011920929,0.800000011920929,0.800000011920929);
#623=COLOUR_RGB('',0.800000011920929,0.800000011920929,0.800000011920929);
#624=AXIS2_PLACEMENT_3D('PCS',#625,#626,#627);
#625=CARTESIAN_POINT('',(0.0,0.0,0.0));
#626=DIRECTION('',(0.0,0.0,1.0));
#627=DIRECTION('',(1.0,0.0,0.0));
#628=AXIS2_PLACEMENT_3D('MCS',#629,#630,#631);
#629=CARTESIAN_POINT('',(2.915,2.915,0.0));
#630=DIRECTION('',(0.0,0.0,1.0));
#631=DIRECTION('',(1.0,0.0,0.0));
#632=CONSTRUCTIVE_GEOMETRY_REPRESENTATION_RELATIONSHIP('coordinate systems',$,#65,#633);
#633=CONSTRUCTIVE_GEOMETRY_REPRESENTATION('coordinate systems',(#624,#628),#6);
ENDSEC;
END-ISO-10303-21;
