ISO-10303-21;
HEADER;
FILE_DESCRIPTION(('no description'),'unknown implementation level');
FILE_NAME('solidBsnZEqPefrf4SXvUWOr74hYondA_1.STP','  ',('CIMSOURCE GmbH'),('CADClick - KiM GmbH - www.kimweb.de'),'unknown preprocess','ACIS','unknown authorization');
FILE_SCHEMA(('automotive_design'));
ENDSEC;
DATA;
#1=MECHANICAL_DESIGN_GEOMETRIC_PRESENTATION_REPRESENTATION(' ',(#10,#11,#12,#13,#14,#15,#16,#17,#18,#19,#20,#21,#22,#23,#24,#25,#26,#27,#28,#29,#30,#31,#32,#33,#34,#35,#36,#37,#38,#39,#40,#41,#42,#43,#44,#45,#46,#47,#48,#49,#50,#51,#52,#53,#54,#55,#56,#57,#58,#59,#60),#6);
#2=PRODUCT_DEFINITION_CONTEXT('',#61,'design');
#3=APPLICATION_PROTOCOL_DEFINITION('INTERNATIONAL STANDARD','automotive_design',1994,#61);
#4=PRODUCT_CATEGORY_RELATIONSHIP('NONE','NONE',#62,#63);
#5=SHAPE_DEFINITION_REPRESENTATION(#64,#65);
#6= (GEOMETRIC_REPRESENTATION_CONTEXT(3)GLOBAL_UNCERTAINTY_ASSIGNED_CONTEXT((#68))GLOBAL_UNIT_ASSIGNED_CONTEXT((#70,#71,#72))REPRESENTATION_CONTEXT('NONE','WORKSPACE'));
#10=STYLED_ITEM('',(#74),#75);
#11=STYLED_ITEM('',(#76),#77);
#12=STYLED_ITEM('',(#78),#79);
#13=STYLED_ITEM('',(#80),#81);
#14=STYLED_ITEM('',(#82),#83);
#15=STYLED_ITEM('',(#84),#85);
#16=STYLED_ITEM('',(#86),#87);
#17=STYLED_ITEM('',(#88),#89);
#18=STYLED_ITEM('',(#90),#91);
#19=STYLED_ITEM('',(#92),#93);
#20=STYLED_ITEM('',(#94),#95);
#21=STYLED_ITEM('',(#96),#97);
#22=STYLED_ITEM('',(#98),#99);
#23=STYLED_ITEM('',(#100),#101);
#24=STYLED_ITEM('',(#102),#103);
#25=STYLED_ITEM('',(#104),#105);
#26=STYLED_ITEM('',(#106),#107);
#27=STYLED_ITEM('',(#108),#109);
#28=STYLED_ITEM('',(#110),#111);
#29=STYLED_ITEM('',(#112),#113);
#30=STYLED_ITEM('',(#114),#115);
#31=STYLED_ITEM('',(#116),#117);
#32=STYLED_ITEM('',(#118),#119);
#33=STYLED_ITEM('',(#120),#121);
#34=STYLED_ITEM('',(#122),#123);
#35=STYLED_ITEM('',(#124),#125);
#36=STYLED_ITEM('',(#126),#127);
#37=STYLED_ITEM('',(#128),#129);
#38=STYLED_ITEM('',(#130),#131);
#39=STYLED_ITEM('',(#132),#133);
#40=STYLED_ITEM('',(#134),#135);
#41=STYLED_ITEM('',(#136),#137);
#42=STYLED_ITEM('',(#138),#139);
#43=STYLED_ITEM('',(#140),#141);
#44=STYLED_ITEM('',(#142),#143);
#45=STYLED_ITEM('',(#144),#145);
#46=STYLED_ITEM('',(#146),#147);
#47=STYLED_ITEM('',(#148),#149);
#48=STYLED_ITEM('',(#150),#151);
#49=STYLED_ITEM('',(#152),#153);
#50=STYLED_ITEM('',(#154),#155);
#51=STYLED_ITEM('',(#156),#157);
#52=STYLED_ITEM('',(#158),#159);
#53=STYLED_ITEM('',(#160),#161);
#54=STYLED_ITEM('',(#162),#163);
#55=STYLED_ITEM('',(#164),#165);
#56=STYLED_ITEM('',(#166),#167);
#57=STYLED_ITEM('',(#168),#169);
#58=STYLED_ITEM('',(#170),#171);
#59=STYLED_ITEM('',(#172),#173);
#60=STYLED_ITEM('',(#174),#175);
#61=APPLICATION_CONTEXT(' ');
#62=PRODUCT_CATEGORY('part','NONE');
#63=PRODUCT_RELATED_PRODUCT_CATEGORY('detail',' ',(#176));
#64=PRODUCT_DEFINITION_SHAPE('NONE','NONE',#177);
#65=ADVANCED_BREP_SHAPE_REPRESENTATION('1',(#153,#178),#6);
#68=UNCERTAINTY_MEASURE_WITH_UNIT(LENGTH_MEASURE(1.0E-006),#70,'','');
#70= (CONVERSION_BASED_UNIT('MILLIMETRE',#181)LENGTH_UNIT()NAMED_UNIT(#184));
#71= (NAMED_UNIT(#186)PLANE_ANGLE_UNIT()SI_UNIT($,.RADIAN.));
#72= (NAMED_UNIT(#186)SOLID_ANGLE_UNIT()SI_UNIT($,.STERADIAN.));
#74=PRESENTATION_STYLE_ASSIGNMENT((#192));
#75=EDGE_CURVE('',#119,#79,#193,.T.);
#76=PRESENTATION_STYLE_ASSIGNMENT((#194));
#77=EDGE_CURVE('',#173,#139,#195,.T.);
#78=PRESENTATION_STYLE_ASSIGNMENT((#196));
#79=VERTEX_POINT('',#197);
#80=PRESENTATION_STYLE_ASSIGNMENT((#198));
#81=VERTEX_POINT('',#199);
#82=PRESENTATION_STYLE_ASSIGNMENT((#200));
#83=EDGE_CURVE('',#135,#149,#201,.T.);
#84=PRESENTATION_STYLE_ASSIGNMENT((#202));
#85=ADVANCED_FACE('',(#203),#204,.T.);
#86=PRESENTATION_STYLE_ASSIGNMENT((#205));
#87=VERTEX_POINT('',#206);
#88=PRESENTATION_STYLE_ASSIGNMENT((#207));
#89=EDGE_CURVE('',#159,#105,#208,.T.);
#90=PRESENTATION_STYLE_ASSIGNMENT((#209));
#91=VERTEX_POINT('',#210);
#92=PRESENTATION_STYLE_ASSIGNMENT((#211));
#93=ADVANCED_FACE('',(#212),#213,.T.);
#94=PRESENTATION_STYLE_ASSIGNMENT((#214));
#95=EDGE_CURVE('',#149,#105,#215,.T.);
#96=PRESENTATION_STYLE_ASSIGNMENT((#216));
#97=EDGE_CURVE('',#165,#143,#217,.T.);
#98=PRESENTATION_STYLE_ASSIGNMENT((#218));
#99=EDGE_CURVE('',#87,#79,#219,.T.);
#100=PRESENTATION_STYLE_ASSIGNMENT((#220));
#101=VERTEX_POINT('',#221);
#102=PRESENTATION_STYLE_ASSIGNMENT((#222));
#103=VERTEX_POINT('',#223);
#104=PRESENTATION_STYLE_ASSIGNMENT((#224));
#105=VERTEX_POINT('',#225);
#106=PRESENTATION_STYLE_ASSIGNMENT((#226));
#107=ADVANCED_FACE('',(#227),#228,.F.);
#108=PRESENTATION_STYLE_ASSIGNMENT((#229));
#109=ADVANCED_FACE('',(#230),#231,.T.);
#110=PRESENTATION_STYLE_ASSIGNMENT((#232));
#111=ADVANCED_FACE('',(#233),#234,.T.);
#112=PRESENTATION_STYLE_ASSIGNMENT((#235));
#113=ADVANCED_FACE('',(#236),#237,.T.);
#114=PRESENTATION_STYLE_ASSIGNMENT((#238));
#115=ADVANCED_FACE('',(#239),#240,.T.);
#116=PRESENTATION_STYLE_ASSIGNMENT((#241));
#117=ADVANCED_FACE('',(#242),#243,.T.);
#118=PRESENTATION_STYLE_ASSIGNMENT((#244));
#119=VERTEX_POINT('',#245);
#120=PRESENTATION_STYLE_ASSIGNMENT((#246));
#121=EDGE_CURVE('',#79,#151,#247,.T.);
#122=PRESENTATION_STYLE_ASSIGNMENT((#248));
#123=EDGE_CURVE('',#119,#81,#249,.T.);
#124=PRESENTATION_STYLE_ASSIGNMENT((#250));
#125=EDGE_CURVE('',#103,#165,#251,.T.);
#126=PRESENTATION_STYLE_ASSIGNMENT((#252));
#127=EDGE_CURVE('',#91,#119,#253,.T.);
#128=PRESENTATION_STYLE_ASSIGNMENT((#254));
#129=EDGE_CURVE('',#81,#151,#255,.T.);
#130=PRESENTATION_STYLE_ASSIGNMENT((#256));
#131=EDGE_CURVE('',#91,#87,#257,.T.);
#132=PRESENTATION_STYLE_ASSIGNMENT((#258));
#133=EDGE_CURVE('',#103,#101,#259,.T.);
#134=PRESENTATION_STYLE_ASSIGNMENT((#260));
#135=VERTEX_POINT('',#261);
#136=PRESENTATION_STYLE_ASSIGNMENT((#262));
#137=EDGE_CURVE('',#139,#87,#263,.T.);
#138=PRESENTATION_STYLE_ASSIGNMENT((#264));
#139=VERTEX_POINT('',#265);
#140=PRESENTATION_STYLE_ASSIGNMENT((#266));
#141=EDGE_CURVE('',#151,#165,#267,.T.);
#142=PRESENTATION_STYLE_ASSIGNMENT((#268));
#143=VERTEX_POINT('',#269);
#144=PRESENTATION_STYLE_ASSIGNMENT((#270));
#145=EDGE_CURVE('',#101,#135,#271,.T.);
#146=PRESENTATION_STYLE_ASSIGNMENT((#272));
#147=EDGE_CURVE('',#135,#159,#273,.T.);
#148=PRESENTATION_STYLE_ASSIGNMENT((#274));
#149=VERTEX_POINT('',#275);
#150=PRESENTATION_STYLE_ASSIGNMENT((#276));
#151=VERTEX_POINT('',#277);
#152=PRESENTATION_STYLE_ASSIGNMENT((#278));
#153=MANIFOLD_SOLID_BREP('1',#279);
#154=PRESENTATION_STYLE_ASSIGNMENT((#280));
#155=EDGE_CURVE('',#159,#173,#281,.T.);
#156=PRESENTATION_STYLE_ASSIGNMENT((#282));
#157=ADVANCED_FACE('',(#283),#284,.T.);
#158=PRESENTATION_STYLE_ASSIGNMENT((#285));
#159=VERTEX_POINT('',#286);
#160=PRESENTATION_STYLE_ASSIGNMENT((#287));
#161=EDGE_CURVE('',#81,#103,#288,.T.);
#162=PRESENTATION_STYLE_ASSIGNMENT((#289));
#163=EDGE_CURVE('',#143,#149,#290,.T.);
#164=PRESENTATION_STYLE_ASSIGNMENT((#291));
#165=VERTEX_POINT('',#292);
#166=PRESENTATION_STYLE_ASSIGNMENT((#293));
#167=EDGE_CURVE('',#101,#143,#294,.T.);
#168=PRESENTATION_STYLE_ASSIGNMENT((#295));
#169=EDGE_CURVE('',#105,#139,#296,.T.);
#170=PRESENTATION_STYLE_ASSIGNMENT((#297));
#171=EDGE_CURVE('',#173,#91,#298,.T.);
#172=PRESENTATION_STYLE_ASSIGNMENT((#299));
#173=VERTEX_POINT('',#300);
#174=PRESENTATION_STYLE_ASSIGNMENT((#301));
#175=ADVANCED_FACE('',(#302),#303,.T.);
#176=PRODUCT('1','1','PART-1-DESC',(#304));
#177=PRODUCT_DEFINITION('NONE','NONE',#305,#2);
#178=AXIS2_PLACEMENT_3D('',#306,#307,#308);
#181=LENGTH_MEASURE_WITH_UNIT(LENGTH_MEASURE(1.0),#309);
#184=DIMENSIONAL_EXPONENTS(1.0,0.0,0.0,0.0,0.0,0.0,0.0);
#186=DIMENSIONAL_EXPONENTS(0.0,0.0,0.0,0.0,0.0,0.0,0.0);
#192=CURVE_STYLE('',#310,POSITIVE_LENGTH_MEASURE(1.0E-006),#311);
#193=LINE('',#312,#313);
#194=CURVE_STYLE('',#314,POSITIVE_LENGTH_MEASURE(1.0E-006),#315);
#195=LINE('',#316,#317);
#196=POINT_STYLE(' ',#318,POSITIVE_LENGTH_MEASURE(1.0E-006),#319);
#197=CARTESIAN_POINT('',(0.600000000072613,6.67432341232258,-3.1));
#198=POINT_STYLE(' ',#320,POSITIVE_LENGTH_MEASURE(1.0E-006),#321);
#199=CARTESIAN_POINT('',(1.00000452363247E-010,6.51,0.0));
#200=CURVE_STYLE('',#322,POSITIVE_LENGTH_MEASURE(1.0E-006),#323);
#201=LINE('',#324,#325);
#202=SURFACE_STYLE_USAGE(.BOTH.,#326);
#203=FACE_OUTER_BOUND('',#327,.T.);
#204=PLANE('',#328);
#205=POINT_STYLE(' ',#329,POSITIVE_LENGTH_MEASURE(1.0E-006),#330);
#206=CARTESIAN_POINT('',(6.51,6.67432341242259,-3.1));
#207=CURVE_STYLE('',#331,POSITIVE_LENGTH_MEASURE(1.0E-006),#332);
#208=LINE('',#333,#334);
#209=POINT_STYLE(' ',#335,POSITIVE_LENGTH_MEASURE(1.0E-006),#336);
#210=CARTESIAN_POINT('',(6.51,7.1099999999,0.0));
#211=SURFACE_STYLE_USAGE(.BOTH.,#337);
#212=FACE_OUTER_BOUND('',#338,.T.);
#213=PLANE('',#339);
#214=CURVE_STYLE('',#340,POSITIVE_LENGTH_MEASURE(1.0E-006),#341);
#215=CIRCLE('',#342,0.164323412422585);
#216=CURVE_STYLE('',#343,POSITIVE_LENGTH_MEASURE(1.0E-006),#344);
#217=CIRCLE('',#345,0.164323412422585);
#218=CURVE_STYLE('',#346,POSITIVE_LENGTH_MEASURE(1.0E-006),#347);
#219=LINE('',#348,#349);
#220=POINT_STYLE(' ',#350,POSITIVE_LENGTH_MEASURE(1.0E-006),#351);
#221=CARTESIAN_POINT('',(0.6,0.0,0.0));
#222=POINT_STYLE(' ',#352,POSITIVE_LENGTH_MEASURE(1.0E-006),#353);
#223=CARTESIAN_POINT('',(0.0,0.600000000000001,0.0));
#224=POINT_STYLE(' ',#354,POSITIVE_LENGTH_MEASURE(1.0E-006),#355);
#225=CARTESIAN_POINT('',(6.67432341242259,0.6,-3.1));
#226=SURFACE_STYLE_USAGE(.BOTH.,#356);
#227=FACE_OUTER_BOUND('',#357,.T.);
#228=PLANE('',#358);
#229=SURFACE_STYLE_USAGE(.BOTH.,#359);
#230=FACE_OUTER_BOUND('',#360,.T.);
#231=PLANE('',#361);
#232=SURFACE_STYLE_USAGE(.BOTH.,#362);
#233=FACE_OUTER_BOUND('',#363,.T.);
#234=PLANE('',#364);
#235=SURFACE_STYLE_USAGE(.BOTH.,#365);
#236=FACE_OUTER_BOUND('',#366,.T.);
#237=CONICAL_SURFACE('',#367,0.6,0.139626340159547);
#238=SURFACE_STYLE_USAGE(.BOTH.,#368);
#239=FACE_OUTER_BOUND('',#369,.T.);
#240=PLANE('',#370);
#241=SURFACE_STYLE_USAGE(.BOTH.,#371);
#242=FACE_OUTER_BOUND('',#372,.T.);
#243=CONICAL_SURFACE('',#373,0.6,0.139626340159547);
#244=POINT_STYLE(' ',#374,POSITIVE_LENGTH_MEASURE(1.0E-006),#375);
#245=CARTESIAN_POINT('',(0.6,7.11,0.0));
#246=CURVE_STYLE('',#376,POSITIVE_LENGTH_MEASURE(1.0E-006),#377);
#247=CIRCLE('',#378,0.164323412422585);
#248=CURVE_STYLE('',#379,POSITIVE_LENGTH_MEASURE(1.0E-006),#380);
#249=CIRCLE('',#381,0.6);
#250=CURVE_STYLE('',#382,POSITIVE_LENGTH_MEASURE(1.0E-006),#383);
#251=LINE('',#384,#385);
#252=CURVE_STYLE('',#386,POSITIVE_LENGTH_MEASURE(1.0E-006),#387);
#253=LINE('',#388,#389);
#254=CURVE_STYLE('',#390,POSITIVE_LENGTH_MEASURE(1.0E-006),#391);
#255=LINE('',#392,#393);
#256=CURVE_STYLE('',#394,POSITIVE_LENGTH_MEASURE(1.0E-006),#395);
#257=LINE('',#396,#397);
#258=CURVE_STYLE('',#398,POSITIVE_LENGTH_MEASURE(1.0E-006),#399);
#259=CIRCLE('',#400,0.6);
#260=POINT_STYLE(' ',#401,POSITIVE_LENGTH_MEASURE(1.0E-006),#402);
#261=CARTESIAN_POINT('',(6.51,0.0,0.0));
#262=CURVE_STYLE('',#403,POSITIVE_LENGTH_MEASURE(1.0E-006),#404);
#263=CIRCLE('',#405,0.164323412422586);
#264=POINT_STYLE(' ',#406,POSITIVE_LENGTH_MEASURE(1.0E-006),#407);
#265=CARTESIAN_POINT('',(6.67432341232259,6.50999999992739,-3.1));
#266=CURVE_STYLE('',#408,POSITIVE_LENGTH_MEASURE(1.0E-006),#409);
#267=LINE('',#410,#411);
#268=POINT_STYLE(' ',#412,POSITIVE_LENGTH_MEASURE(1.0E-006),#413);
#269=CARTESIAN_POINT('',(0.6,0.435676587577415,-3.1));
#270=CURVE_STYLE('',#414,POSITIVE_LENGTH_MEASURE(1.0E-006),#415);
#271=LINE('',#416,#417);
#272=CURVE_STYLE('',#418,POSITIVE_LENGTH_MEASURE(1.0E-006),#419);
#273=CIRCLE('',#420,0.6);
#274=POINT_STYLE(' ',#421,POSITIVE_LENGTH_MEASURE(1.0E-006),#422);
#275=CARTESIAN_POINT('',(6.50999999992739,0.435676587677415,-3.1));
#276=POINT_STYLE(' ',#423,POSITIVE_LENGTH_MEASURE(1.0E-006),#424);
#277=CARTESIAN_POINT('',(0.435676587577415,6.51,-3.1));
#278=SURFACE_STYLE_USAGE(.BOTH.,#425);
#279=CLOSED_SHELL('',(#157,#109,#175,#115,#117,#111,#113,#85,#107,#93));
#280=CURVE_STYLE('',#426,POSITIVE_LENGTH_MEASURE(1.0E-006),#427);
#281=LINE('',#428,#429);
#282=SURFACE_STYLE_USAGE(.BOTH.,#430);
#283=FACE_OUTER_BOUND('',#431,.T.);
#284=CONICAL_SURFACE('',#432,0.6,0.139626340159547);
#285=POINT_STYLE(' ',#433,POSITIVE_LENGTH_MEASURE(1.0E-006),#434);
#286=CARTESIAN_POINT('',(7.1099999999,0.6,0.0));
#287=CURVE_STYLE('',#435,POSITIVE_LENGTH_MEASURE(1.0E-006),#436);
#288=LINE('',#437,#438);
#289=CURVE_STYLE('',#439,POSITIVE_LENGTH_MEASURE(1.0E-006),#440);
#290=LINE('',#441,#442);
#291=POINT_STYLE(' ',#443,POSITIVE_LENGTH_MEASURE(1.0E-006),#444);
#292=CARTESIAN_POINT('',(0.435676587677415,0.600000000072613,-3.1));
#293=CURVE_STYLE('',#445,POSITIVE_LENGTH_MEASURE(1.0E-006),#446);
#294=LINE('',#447,#448);
#295=CURVE_STYLE('',#449,POSITIVE_LENGTH_MEASURE(1.0E-006),#450);
#296=LINE('',#451,#452);
#297=CURVE_STYLE('',#453,POSITIVE_LENGTH_MEASURE(1.0E-006),#454);
#298=CIRCLE('',#455,0.600000000000001);
#299=POINT_STYLE(' ',#456,POSITIVE_LENGTH_MEASURE(1.0E-006),#457);
#300=CARTESIAN_POINT('',(7.11,6.51,0.0));
#301=SURFACE_STYLE_USAGE(.BOTH.,#458);
#302=FACE_OUTER_BOUND('',#459,.T.);
#303=CONICAL_SURFACE('',#460,0.600000000000001,0.139626340159547);
#304=PRODUCT_CONTEXT('',#61,'mechanical');
#305=PRODUCT_DEFINITION_FORMATION_WITH_SPECIFIED_SOURCE(' ','NONE',#176,.NOT_KNOWN.);
#306=CARTESIAN_POINT('',(0.0,0.0,0.0));
#307=DIRECTION('',(0.0,0.0,1.0));
#308=DIRECTION('',(1.0,0.0,0.0));
#309= (NAMED_UNIT(#184)LENGTH_UNIT()SI_UNIT(.MILLI.,.METRE.));
#310=DRAUGHTING_PRE_DEFINED_CURVE_FONT('continuous');
#311=COLOUR_RGB('',0.800000011920929,0.800000011920929,0.800000011920929);
#312=CARTESIAN_POINT('',(0.6,7.11,0.0));
#313=VECTOR('',#462,1.0);
#314=DRAUGHTING_PRE_DEFINED_CURVE_FONT('continuous');
#315=COLOUR_RGB('',0.800000011920929,0.800000011920929,0.800000011920929);
#316=CARTESIAN_POINT('',(7.11,6.51,0.0));
#317=VECTOR('',#463,1.0);
#318=PRE_DEFINED_MARKER('');
#319=COLOUR_RGB('',0.800000011920929,0.800000011920929,0.800000011920929);
#320=PRE_DEFINED_MARKER('');
#321=COLOUR_RGB('',0.800000011920929,0.800000011920929,0.800000011920929);
#322=DRAUGHTING_PRE_DEFINED_CURVE_FONT('continuous');
#323=COLOUR_RGB('',0.800000011920929,0.800000011920929,0.800000011920929);
#324=CARTESIAN_POINT('',(6.51,0.0,0.0));
#325=VECTOR('',#464,1.0);
#326=SURFACE_SIDE_STYLE('',(#465));
#327=EDGE_LOOP('',(#466,#467,#468,#469));
#328=AXIS2_PLACEMENT_3D('',#470,#471,#472);
#329=PRE_DEFINED_MARKER('');
#330=COLOUR_RGB('',0.800000011920929,0.800000011920929,0.800000011920929);
#331=DRAUGHTING_PRE_DEFINED_CURVE_FONT('continuous');
#332=COLOUR_RGB('',0.800000011920929,0.800000011920929,0.800000011920929);
#333=CARTESIAN_POINT('',(7.1099999999,0.6,0.0));
#334=VECTOR('',#473,1.0);
#335=PRE_DEFINED_MARKER('');
#336=COLOUR_RGB('',0.800000011920929,0.800000011920929,0.800000011920929);
#337=SURFACE_SIDE_STYLE('',(#474));
#338=EDGE_LOOP('',(#475,#476,#477,#478,#479,#480,#481,#482));
#339=AXIS2_PLACEMENT_3D('',#483,#484,#485);
#340=DRAUGHTING_PRE_DEFINED_CURVE_FONT('continuous');
#341=COLOUR_RGB('',0.800000011920929,0.800000011920929,0.800000011920929);
#342=AXIS2_PLACEMENT_3D('',#486,#487,#488);
#343=DRAUGHTING_PRE_DEFINED_CURVE_FONT('continuous');
#344=COLOUR_RGB('',0.800000011920929,0.800000011920929,0.800000011920929);
#345=AXIS2_PLACEMENT_3D('',#489,#490,#491);
#346=DRAUGHTING_PRE_DEFINED_CURVE_FONT('continuous');
#347=COLOUR_RGB('',0.800000011920929,0.800000011920929,0.800000011920929);
#348=CARTESIAN_POINT('',(6.51,6.67432341242259,-3.1));
#349=VECTOR('',#492,1.0);
#350=PRE_DEFINED_MARKER('');
#351=COLOUR_RGB('',0.800000011920929,0.800000011920929,0.800000011920929);
#352=PRE_DEFINED_MARKER('');
#353=COLOUR_RGB('',0.800000011920929,0.800000011920929,0.800000011920929);
#354=PRE_DEFINED_MARKER('');
#355=COLOUR_RGB('',0.800000011920929,0.800000011920929,0.800000011920929);
#356=SURFACE_SIDE_STYLE('',(#493));
#357=EDGE_LOOP('',(#494,#495,#496,#497,#498,#499,#500,#501));
#358=AXIS2_PLACEMENT_3D('',#502,#503,#504);
#359=SURFACE_SIDE_STYLE('',(#505));
#360=EDGE_LOOP('',(#506,#507,#508,#509));
#361=AXIS2_PLACEMENT_3D('',#510,#511,#512);
#362=SURFACE_SIDE_STYLE('',(#513));
#363=EDGE_LOOP('',(#514,#515,#516,#517));
#364=AXIS2_PLACEMENT_3D('',#518,#519,#520);
#365=SURFACE_SIDE_STYLE('',(#521));
#366=EDGE_LOOP('',(#522,#523,#524,#525));
#367=AXIS2_PLACEMENT_3D('',#526,#527,#528);
#368=SURFACE_SIDE_STYLE('',(#529));
#369=EDGE_LOOP('',(#530,#531,#532,#533));
#370=AXIS2_PLACEMENT_3D('',#534,#535,#536);
#371=SURFACE_SIDE_STYLE('',(#537));
#372=EDGE_LOOP('',(#538,#539,#540,#541));
#373=AXIS2_PLACEMENT_3D('',#542,#543,#544);
#374=PRE_DEFINED_MARKER('');
#375=COLOUR_RGB('',0.800000011920929,0.800000011920929,0.800000011920929);
#376=DRAUGHTING_PRE_DEFINED_CURVE_FONT('continuous');
#377=COLOUR_RGB('',0.800000011920929,0.800000011920929,0.800000011920929);
#378=AXIS2_PLACEMENT_3D('',#545,#546,#547);
#379=DRAUGHTING_PRE_DEFINED_CURVE_FONT('continuous');
#380=COLOUR_RGB('',0.800000011920929,0.800000011920929,0.800000011920929);
#381=AXIS2_PLACEMENT_3D('',#548,#549,#550);
#382=DRAUGHTING_PRE_DEFINED_CURVE_FONT('continuous');
#383=COLOUR_RGB('',0.800000011920929,0.800000011920929,0.800000011920929);
#384=CARTESIAN_POINT('',(0.0,0.600000000000001,0.0));
#385=VECTOR('',#551,1.0);
#386=DRAUGHTING_PRE_DEFINED_CURVE_FONT('continuous');
#387=COLOUR_RGB('',0.800000011920929,0.800000011920929,0.800000011920929);
#388=CARTESIAN_POINT('',(6.51,7.11,0.0));
#389=VECTOR('',#552,1.0);
#390=DRAUGHTING_PRE_DEFINED_CURVE_FONT('continuous');
#391=COLOUR_RGB('',0.800000011920929,0.800000011920929,0.800000011920929);
#392=CARTESIAN_POINT('',(1.00000452363247E-010,6.51,0.0));
#393=VECTOR('',#553,1.0);
#394=DRAUGHTING_PRE_DEFINED_CURVE_FONT('continuous');
#395=COLOUR_RGB('',0.800000011920929,0.800000011920929,0.800000011920929);
#396=CARTESIAN_POINT('',(6.51,7.1099999999,0.0));
#397=VECTOR('',#554,1.0);
#398=DRAUGHTING_PRE_DEFINED_CURVE_FONT('continuous');
#399=COLOUR_RGB('',0.800000011920929,0.800000011920929,0.800000011920929);
#400=AXIS2_PLACEMENT_3D('',#555,#556,#557);
#401=PRE_DEFINED_MARKER('');
#402=COLOUR_RGB('',0.800000011920929,0.800000011920929,0.800000011920929);
#403=DRAUGHTING_PRE_DEFINED_CURVE_FONT('continuous');
#404=COLOUR_RGB('',0.800000011920929,0.800000011920929,0.800000011920929);
#405=AXIS2_PLACEMENT_3D('',#558,#559,#560);
#406=PRE_DEFINED_MARKER('');
#407=COLOUR_RGB('',0.800000011920929,0.800000011920929,0.800000011920929);
#408=DRAUGHTING_PRE_DEFINED_CURVE_FONT('continuous');
#409=COLOUR_RGB('',0.800000011920929,0.800000011920929,0.800000011920929);
#410=CARTESIAN_POINT('',(0.435676587577415,6.51,-3.1));
#411=VECTOR('',#561,1.0);
#412=PRE_DEFINED_MARKER('');
#413=COLOUR_RGB('',0.800000011920929,0.800000011920929,0.800000011920929);
#414=DRAUGHTING_PRE_DEFINED_CURVE_FONT('continuous');
#415=COLOUR_RGB('',0.800000011920929,0.800000011920929,0.800000011920929);
#416=CARTESIAN_POINT('',(0.6,0.0,0.0));
#417=VECTOR('',#562,1.0);
#418=DRAUGHTING_PRE_DEFINED_CURVE_FONT('continuous');
#419=COLOUR_RGB('',0.800000011920929,0.800000011920929,0.800000011920929);
#420=AXIS2_PLACEMENT_3D('',#563,#564,#565);
#421=PRE_DEFINED_MARKER('');
#422=COLOUR_RGB('',0.800000011920929,0.800000011920929,0.800000011920929);
#423=PRE_DEFINED_MARKER('');
#424=COLOUR_RGB('',0.800000011920929,0.800000011920929,0.800000011920929);
#425=SURFACE_SIDE_STYLE('',(#566));
#426=DRAUGHTING_PRE_DEFINED_CURVE_FONT('continuous');
#427=COLOUR_RGB('',0.800000011920929,0.800000011920929,0.800000011920929);
#428=CARTESIAN_POINT('',(7.11,0.6,0.0));
#429=VECTOR('',#567,1.0);
#430=SURFACE_SIDE_STYLE('',(#568));
#431=EDGE_LOOP('',(#569,#570,#571,#572));
#432=AXIS2_PLACEMENT_3D('',#573,#574,#575);
#433=PRE_DEFINED_MARKER('');
#434=COLOUR_RGB('',0.800000011920929,0.800000011920929,0.800000011920929);
#435=DRAUGHTING_PRE_DEFINED_CURVE_FONT('continuous');
#436=COLOUR_RGB('',0.800000011920929,0.800000011920929,0.800000011920929);
#437=CARTESIAN_POINT('',(0.0,6.51,0.0));
#438=VECTOR('',#576,1.0);
#439=DRAUGHTING_PRE_DEFINED_CURVE_FONT('continuous');
#440=COLOUR_RGB('',0.800000011920929,0.800000011920929,0.800000011920929);
#441=CARTESIAN_POINT('',(0.6,0.435676587577415,-3.1));
#442=VECTOR('',#577,1.0);
#443=PRE_DEFINED_MARKER('');
#444=COLOUR_RGB('',0.800000011920929,0.800000011920929,0.800000011920929);
#445=DRAUGHTING_PRE_DEFINED_CURVE_FONT('continuous');
#446=COLOUR_RGB('',0.800000011920929,0.800000011920929,0.800000011920929);
#447=CARTESIAN_POINT('',(0.6,0.0,0.0));
#448=VECTOR('',#578,1.0);
#449=DRAUGHTING_PRE_DEFINED_CURVE_FONT('continuous');
#450=COLOUR_RGB('',0.800000011920929,0.800000011920929,0.800000011920929);
#451=CARTESIAN_POINT('',(6.67432341242259,0.6,-3.1));
#452=VECTOR('',#579,1.0);
#453=DRAUGHTING_PRE_DEFINED_CURVE_FONT('continuous');
#454=COLOUR_RGB('',0.800000011920929,0.800000011920929,0.800000011920929);
#455=AXIS2_PLACEMENT_3D('',#580,#581,#582);
#456=PRE_DEFINED_MARKER('');
#457=COLOUR_RGB('',0.800000011920929,0.800000011920929,0.800000011920929);
#458=SURFACE_SIDE_STYLE('',(#583));
#459=EDGE_LOOP('',(#584,#585,#586,#587));
#460=AXIS2_PLACEMENT_3D('',#588,#589,#590);
#462=DIRECTION('',(2.31956005541703E-011,-0.139173100991392,-0.990268068737168));
#463=DIRECTION('',(-0.139173100991391,-2.31956005541703E-011,-0.990268068737168));
#464=DIRECTION('',(-2.31953168332902E-011,0.139173100991391,-0.990268068737168));
#465=SURFACE_STYLE_FILL_AREA(#591);
#466=ORIENTED_EDGE('',*,*,#163,.T.);
#467=ORIENTED_EDGE('',*,*,#83,.F.);
#468=ORIENTED_EDGE('',*,*,#145,.F.);
#469=ORIENTED_EDGE('',*,*,#167,.T.);
#470=CARTESIAN_POINT('',(0.6,0.0,0.0));
#471=DIRECTION('',(-0.0,-0.99026806874157,-0.139173100960066));
#472=DIRECTION('',(-1.0,0.0,0.0));
#473=DIRECTION('',(-0.139173100928741,0.0,-0.990268068745973));
#474=SURFACE_STYLE_FILL_AREA(#592);
#475=ORIENTED_EDGE('',*,*,#145,.T.);
#476=ORIENTED_EDGE('',*,*,#147,.T.);
#477=ORIENTED_EDGE('',*,*,#155,.T.);
#478=ORIENTED_EDGE('',*,*,#171,.T.);
#479=ORIENTED_EDGE('',*,*,#127,.T.);
#480=ORIENTED_EDGE('',*,*,#123,.T.);
#481=ORIENTED_EDGE('',*,*,#161,.T.);
#482=ORIENTED_EDGE('',*,*,#133,.T.);
#483=CARTESIAN_POINT('',(3.555,3.555,0.0));
#484=DIRECTION('',(0.0,0.0,1.0));
#485=DIRECTION('',(1.0,0.0,0.0));
#486=CARTESIAN_POINT('',(6.5099999999,0.6000000001,-3.1));
#487=DIRECTION('',(0.0,0.0,1.0));
#488=DIRECTION('',(1.66666680456729E-010,-1.0,0.0));
#489=CARTESIAN_POINT('',(0.6000000001,0.6000000001,-3.1));
#490=DIRECTION('',(0.0,0.0,1.0));
#491=DIRECTION('',(-1.0,-1.66666310382387E-010,0.0));
#492=DIRECTION('',(-1.0,0.0,0.0));
#493=SURFACE_STYLE_FILL_AREA(#593);
#494=ORIENTED_EDGE('',*,*,#95,.F.);
#495=ORIENTED_EDGE('',*,*,#163,.F.);
#496=ORIENTED_EDGE('',*,*,#97,.F.);
#497=ORIENTED_EDGE('',*,*,#141,.F.);
#498=ORIENTED_EDGE('',*,*,#121,.F.);
#499=ORIENTED_EDGE('',*,*,#99,.F.);
#500=ORIENTED_EDGE('',*,*,#137,.F.);
#501=ORIENTED_EDGE('',*,*,#169,.F.);
#502=CARTESIAN_POINT('',(3.555,3.555,-3.1));
#503=DIRECTION('',(0.0,0.0,1.0));
#504=DIRECTION('',(1.0,0.0,0.0));
#505=SURFACE_STYLE_FILL_AREA(#594);
#506=ORIENTED_EDGE('',*,*,#169,.T.);
#507=ORIENTED_EDGE('',*,*,#77,.F.);
#508=ORIENTED_EDGE('',*,*,#155,.F.);
#509=ORIENTED_EDGE('',*,*,#89,.T.);
#510=CARTESIAN_POINT('',(7.1099999999,0.6,0.0));
#511=DIRECTION('',(0.990268068745973,-0.0,-0.139173100928741));
#512=DIRECTION('',(-0.0,-1.0,0.0));
#513=SURFACE_STYLE_FILL_AREA(#595);
#514=ORIENTED_EDGE('',*,*,#141,.T.);
#515=ORIENTED_EDGE('',*,*,#125,.F.);
#516=ORIENTED_EDGE('',*,*,#161,.F.);
#517=ORIENTED_EDGE('',*,*,#129,.T.);
#518=CARTESIAN_POINT('',(1.00000452363247E-010,6.51,0.0));
#519=DIRECTION('',(-0.990268068745973,0.0,-0.13917310092874));
#520=DIRECTION('',(0.0,1.0,0.0));
#521=SURFACE_STYLE_FILL_AREA(#596);
#522=ORIENTED_EDGE('',*,*,#97,.T.);
#523=ORIENTED_EDGE('',*,*,#167,.F.);
#524=ORIENTED_EDGE('',*,*,#133,.F.);
#525=ORIENTED_EDGE('',*,*,#125,.T.);
#526=CARTESIAN_POINT('',(0.6000000001,0.6000000001,0.0));
#527=DIRECTION('',(0.0,-0.0,1.0));
#528=DIRECTION('',(-1.0,-1.66666310382387E-010,0.0));
#529=SURFACE_STYLE_FILL_AREA(#597);
#530=ORIENTED_EDGE('',*,*,#99,.T.);
#531=ORIENTED_EDGE('',*,*,#75,.F.);
#532=ORIENTED_EDGE('',*,*,#127,.F.);
#533=ORIENTED_EDGE('',*,*,#131,.T.);
#534=CARTESIAN_POINT('',(6.51,7.1099999999,0.0));
#535=DIRECTION('',(0.0,0.990268068745973,-0.139173100928741));
#536=DIRECTION('',(1.0,-0.0,0.0));
#537=SURFACE_STYLE_FILL_AREA(#598);
#538=ORIENTED_EDGE('',*,*,#121,.T.);
#539=ORIENTED_EDGE('',*,*,#129,.F.);
#540=ORIENTED_EDGE('',*,*,#123,.F.);
#541=ORIENTED_EDGE('',*,*,#75,.T.);
#542=CARTESIAN_POINT('',(0.6000000001,6.5099999999,0.0));
#543=DIRECTION('',(-0.0,-0.0,1.0));
#544=DIRECTION('',(-1.6666705053107E-010,1.0,0.0));
#545=CARTESIAN_POINT('',(0.6000000001,6.5099999999,-3.1));
#546=DIRECTION('',(0.0,0.0,1.0));
#547=DIRECTION('',(-1.6666705053107E-010,1.0,0.0));
#548=CARTESIAN_POINT('',(0.6000000001,6.5099999999,0.0));
#549=DIRECTION('',(0.0,0.0,1.0));
#550=DIRECTION('',(-1.6666705053107E-010,1.0,0.0));
#551=DIRECTION('',(0.139173100991391,2.31954232286202E-011,-0.990268068737168));
#552=DIRECTION('',(-1.0,0.0,0.0));
#553=DIRECTION('',(0.13917310092874,0.0,-0.990268068745973));
#554=DIRECTION('',(0.0,-0.139173100928741,-0.990268068745973));
#555=CARTESIAN_POINT('',(0.6000000001,0.6000000001,0.0));
#556=DIRECTION('',(0.0,0.0,1.0));
#557=DIRECTION('',(-1.0,-1.66666310382387E-010,0.0));
#558=CARTESIAN_POINT('',(6.5099999999,6.5099999999,-3.1));
#559=DIRECTION('',(0.0,-0.0,1.0));
#560=DIRECTION('',(1.0,1.66666680456728E-010,0.0));
#561=DIRECTION('',(0.0,-1.0,0.0));
#562=DIRECTION('',(1.0,0.0,0.0));
#563=CARTESIAN_POINT('',(6.5099999999,0.6000000001,0.0));
#564=DIRECTION('',(0.0,0.0,1.0));
#565=DIRECTION('',(1.66666680456729E-010,-1.0,0.0));
#566=SURFACE_STYLE_FILL_AREA(#599);
#567=DIRECTION('',(0.0,1.0,0.0));
#568=SURFACE_STYLE_FILL_AREA(#600);
#569=ORIENTED_EDGE('',*,*,#95,.T.);
#570=ORIENTED_EDGE('',*,*,#89,.F.);
#571=ORIENTED_EDGE('',*,*,#147,.F.);
#572=ORIENTED_EDGE('',*,*,#83,.T.);
#573=CARTESIAN_POINT('',(6.5099999999,0.6000000001,0.0));
#574=DIRECTION('',(-0.0,-0.0,1.0));
#575=DIRECTION('',(1.66666680456729E-010,-1.0,0.0));
#576=DIRECTION('',(0.0,-1.0,0.0));
#577=DIRECTION('',(1.0,0.0,0.0));
#578=DIRECTION('',(0.0,0.139173100960066,-0.99026806874157));
#579=DIRECTION('',(0.0,1.0,0.0));
#580=CARTESIAN_POINT('',(6.5099999999,6.5099999999,0.0));
#581=DIRECTION('',(0.0,-0.0,1.0));
#582=DIRECTION('',(1.0,1.66666680456728E-010,0.0));
#583=SURFACE_STYLE_FILL_AREA(#601);
#584=ORIENTED_EDGE('',*,*,#137,.T.);
#585=ORIENTED_EDGE('',*,*,#131,.F.);
#586=ORIENTED_EDGE('',*,*,#171,.F.);
#587=ORIENTED_EDGE('',*,*,#77,.T.);
#588=CARTESIAN_POINT('',(6.5099999999,6.5099999999,0.0));
#589=DIRECTION('',(-0.0,-0.0,1.0));
#590=DIRECTION('',(1.0,1.66666680456728E-010,0.0));
#591=FILL_AREA_STYLE('',(#602));
#592=FILL_AREA_STYLE('',(#603));
#593=FILL_AREA_STYLE('',(#604));
#594=FILL_AREA_STYLE('',(#605));
#595=FILL_AREA_STYLE('',(#606));
#596=FILL_AREA_STYLE('',(#607));
#597=FILL_AREA_STYLE('',(#608));
#598=FILL_AREA_STYLE('',(#609));
#599=FILL_AREA_STYLE('',(#610));
#600=FILL_AREA_STYLE('',(#611));
#601=FILL_AREA_STYLE('',(#612));
#602=FILL_AREA_STYLE_COLOUR('',#613);
#603=FILL_AREA_STYLE_COLOUR('',#614);
#604=FILL_AREA_STYLE_COLOUR('',#615);
#605=FILL_AREA_STYLE_COLOUR('',#616);
#606=FILL_AREA_STYLE_COLOUR('',#617);
#607=FILL_AREA_STYLE_COLOUR('',#618);
#608=FILL_AREA_STYLE_COLOUR('',#619);
#609=FILL_AREA_STYLE_COLOUR('',#620);
#610=FILL_AREA_STYLE_COLOUR('',#621);
#611=FILL_AREA_STYLE_COLOUR('',#622);
#612=FILL_AREA_STYLE_COLOUR('',#623);
#613=COLOUR_RGB('',0.800000011920929,0.800000011920929,0.800000011920929);
#614=COLOUR_RGB('',0.800000011920929,0.800000011920929,0.800000011920929);
#615=COLOUR_RGB('',0.800000011920929,0.800000011920929,0.800000011920929);
#616=COLOUR_RGB('',0.800000011920929,0.800000011920929,0.800000011920929);
#617=COLOUR_RGB('',0.800000011920929,0.800000011920929,0.800000011920929);
#618=COLOUR_RGB('',0.800000011920929,0.800000011920929,0.800000011920929);
#619=COLOUR_RGB('',0.800000011920929,0.800000011920929,0.800000011920929);
#620=COLOUR_RGB('',0.800000011920929,0.800000011920929,0.800000011920929);
#621=COLOUR_RGB('',0.800000011920929,0.800000011920929,0.800000011920929);
#622=COLOUR_RGB('',0.800000011920929,0.800000011920929,0.800000011920929);
#623=COLOUR_RGB('',0.800000011920929,0.800000011920929,0.800000011920929);
#624=AXIS2_PLACEMENT_3D('PCS',#625,#626,#627);
#625=CARTESIAN_POINT('',(0.0,0.0,0.0));
#626=DIRECTION('',(0.0,0.0,1.0));
#627=DIRECTION('',(1.0,0.0,0.0));
#628=AXIS2_PLACEMENT_3D('MCS',#629,#630,#631);
#629=CARTESIAN_POINT('',(3.555,3.555,0.0));
#630=DIRECTION('',(0.0,0.0,1.0));
#631=DIRECTION('',(1.0,0.0,0.0));
#632=CONSTRUCTIVE_GEOMETRY_REPRESENTATION_RELATIONSHIP('coordinate systems',$,#65,#633);
#633=CONSTRUCTIVE_GEOMETRY_REPRESENTATION('coordinate systems',(#624,#628),#6);
ENDSEC;
END-ISO-10303-21;
