ISO-10303-21;
HEADER;
FILE_DESCRIPTION(('no description'),'unknown implementation level');
FILE_NAME('solidR6vjc7_td2CArukZs4Qh_RrN_1I_1.STP','  ',('CIMSOURCE GmbH'),('CADClick - KiM GmbH - www.kimweb.de'),'unknown preprocess','ACIS','unknown authorization');
FILE_SCHEMA(('automotive_design'));
ENDSEC;
DATA;
#1=MECHANICAL_DESIGN_GEOMETRIC_PRESENTATION_REPRESENTATION(' ',(#10,#11,#12,#13,#14,#15,#16,#17,#18,#19,#20,#21,#22,#23,#24,#25,#26,#27,#28,#29,#30,#31,#32,#33,#34,#35,#36,#37,#38,#39,#40,#41,#42,#43,#44,#45,#46,#47,#48,#49,#50,#51,#52,#53,#54,#55,#56,#57,#58,#59,#60),#6);
#2=PRODUCT_DEFINITION_CONTEXT('',#61,'design');
#3=APPLICATION_PROTOCOL_DEFINITION('INTERNATIONAL STANDARD','automotive_design',1994,#61);
#4=PRODUCT_CATEGORY_RELATIONSHIP('NONE','NONE',#62,#63);
#5=SHAPE_DEFINITION_REPRESENTATION(#64,#65);
#6= (GEOMETRIC_REPRESENTATION_CONTEXT(3)GLOBAL_UNCERTAINTY_ASSIGNED_CONTEXT((#68))GLOBAL_UNIT_ASSIGNED_CONTEXT((#70,#71,#72))REPRESENTATION_CONTEXT('NONE','WORKSPACE'));
#10=STYLED_ITEM('',(#74),#75);
#11=STYLED_ITEM('',(#76),#77);
#12=STYLED_ITEM('',(#78),#79);
#13=STYLED_ITEM('',(#80),#81);
#14=STYLED_ITEM('',(#82),#83);
#15=STYLED_ITEM('',(#84),#85);
#16=STYLED_ITEM('',(#86),#87);
#17=STYLED_ITEM('',(#88),#89);
#18=STYLED_ITEM('',(#90),#91);
#19=STYLED_ITEM('',(#92),#93);
#20=STYLED_ITEM('',(#94),#95);
#21=STYLED_ITEM('',(#96),#97);
#22=STYLED_ITEM('',(#98),#99);
#23=STYLED_ITEM('',(#100),#101);
#24=STYLED_ITEM('',(#102),#103);
#25=STYLED_ITEM('',(#104),#105);
#26=STYLED_ITEM('',(#106),#107);
#27=STYLED_ITEM('',(#108),#109);
#28=STYLED_ITEM('',(#110),#111);
#29=STYLED_ITEM('',(#112),#113);
#30=STYLED_ITEM('',(#114),#115);
#31=STYLED_ITEM('',(#116),#117);
#32=STYLED_ITEM('',(#118),#119);
#33=STYLED_ITEM('',(#120),#121);
#34=STYLED_ITEM('',(#122),#123);
#35=STYLED_ITEM('',(#124),#125);
#36=STYLED_ITEM('',(#126),#127);
#37=STYLED_ITEM('',(#128),#129);
#38=STYLED_ITEM('',(#130),#131);
#39=STYLED_ITEM('',(#132),#133);
#40=STYLED_ITEM('',(#134),#135);
#41=STYLED_ITEM('',(#136),#137);
#42=STYLED_ITEM('',(#138),#139);
#43=STYLED_ITEM('',(#140),#141);
#44=STYLED_ITEM('',(#142),#143);
#45=STYLED_ITEM('',(#144),#145);
#46=STYLED_ITEM('',(#146),#147);
#47=STYLED_ITEM('',(#148),#149);
#48=STYLED_ITEM('',(#150),#151);
#49=STYLED_ITEM('',(#152),#153);
#50=STYLED_ITEM('',(#154),#155);
#51=STYLED_ITEM('',(#156),#157);
#52=STYLED_ITEM('',(#158),#159);
#53=STYLED_ITEM('',(#160),#161);
#54=STYLED_ITEM('',(#162),#163);
#55=STYLED_ITEM('',(#164),#165);
#56=STYLED_ITEM('',(#166),#167);
#57=STYLED_ITEM('',(#168),#169);
#58=STYLED_ITEM('',(#170),#171);
#59=STYLED_ITEM('',(#172),#173);
#60=STYLED_ITEM('',(#174),#175);
#61=APPLICATION_CONTEXT(' ');
#62=PRODUCT_CATEGORY('part','NONE');
#63=PRODUCT_RELATED_PRODUCT_CATEGORY('detail',' ',(#176));
#64=PRODUCT_DEFINITION_SHAPE('NONE','NONE',#177);
#65=ADVANCED_BREP_SHAPE_REPRESENTATION('1',(#115,#178),#6);
#68=UNCERTAINTY_MEASURE_WITH_UNIT(LENGTH_MEASURE(1.0E-006),#70,'','');
#70= (CONVERSION_BASED_UNIT('MILLIMETRE',#181)LENGTH_UNIT()NAMED_UNIT(#184));
#71= (NAMED_UNIT(#186)PLANE_ANGLE_UNIT()SI_UNIT($,.RADIAN.));
#72= (NAMED_UNIT(#186)SOLID_ANGLE_UNIT()SI_UNIT($,.STERADIAN.));
#74=PRESENTATION_STYLE_ASSIGNMENT((#192));
#75=VERTEX_POINT('',#193);
#76=PRESENTATION_STYLE_ASSIGNMENT((#194));
#77=ADVANCED_FACE('',(#195),#196,.T.);
#78=PRESENTATION_STYLE_ASSIGNMENT((#197));
#79=ADVANCED_FACE('',(#198),#199,.T.);
#80=PRESENTATION_STYLE_ASSIGNMENT((#200));
#81=EDGE_CURVE('',#123,#107,#201,.T.);
#82=PRESENTATION_STYLE_ASSIGNMENT((#202));
#83=VERTEX_POINT('',#203);
#84=PRESENTATION_STYLE_ASSIGNMENT((#204));
#85=EDGE_CURVE('',#121,#165,#205,.T.);
#86=PRESENTATION_STYLE_ASSIGNMENT((#206));
#87=VERTEX_POINT('',#207);
#88=PRESENTATION_STYLE_ASSIGNMENT((#208));
#89=EDGE_CURVE('',#135,#75,#209,.T.);
#90=PRESENTATION_STYLE_ASSIGNMENT((#210));
#91=VERTEX_POINT('',#211);
#92=PRESENTATION_STYLE_ASSIGNMENT((#212));
#93=EDGE_CURVE('',#175,#171,#213,.T.);
#94=PRESENTATION_STYLE_ASSIGNMENT((#214));
#95=EDGE_CURVE('',#169,#121,#215,.T.);
#96=PRESENTATION_STYLE_ASSIGNMENT((#216));
#97=EDGE_CURVE('',#165,#117,#217,.T.);
#98=PRESENTATION_STYLE_ASSIGNMENT((#218));
#99=VERTEX_POINT('',#219);
#100=PRESENTATION_STYLE_ASSIGNMENT((#220));
#101=EDGE_CURVE('',#107,#99,#221,.T.);
#102=PRESENTATION_STYLE_ASSIGNMENT((#222));
#103=ADVANCED_FACE('',(#223),#224,.T.);
#104=PRESENTATION_STYLE_ASSIGNMENT((#225));
#105=ADVANCED_FACE('',(#226),#227,.T.);
#106=PRESENTATION_STYLE_ASSIGNMENT((#228));
#107=VERTEX_POINT('',#229);
#108=PRESENTATION_STYLE_ASSIGNMENT((#230));
#109=EDGE_CURVE('',#87,#99,#231,.T.);
#110=PRESENTATION_STYLE_ASSIGNMENT((#232));
#111=EDGE_CURVE('',#169,#161,#233,.T.);
#112=PRESENTATION_STYLE_ASSIGNMENT((#234));
#113=EDGE_CURVE('',#75,#91,#235,.T.);
#114=PRESENTATION_STYLE_ASSIGNMENT((#236));
#115=MANIFOLD_SOLID_BREP('1',#237);
#116=PRESENTATION_STYLE_ASSIGNMENT((#238));
#117=VERTEX_POINT('',#239);
#118=PRESENTATION_STYLE_ASSIGNMENT((#240));
#119=EDGE_CURVE('',#99,#159,#241,.T.);
#120=PRESENTATION_STYLE_ASSIGNMENT((#242));
#121=VERTEX_POINT('',#243);
#122=PRESENTATION_STYLE_ASSIGNMENT((#244));
#123=VERTEX_POINT('',#245);
#124=PRESENTATION_STYLE_ASSIGNMENT((#246));
#125=ADVANCED_FACE('',(#247),#248,.T.);
#126=PRESENTATION_STYLE_ASSIGNMENT((#249));
#127=EDGE_CURVE('',#161,#83,#250,.T.);
#128=PRESENTATION_STYLE_ASSIGNMENT((#251));
#129=EDGE_CURVE('',#83,#117,#252,.T.);
#130=PRESENTATION_STYLE_ASSIGNMENT((#253));
#131=EDGE_CURVE('',#123,#87,#254,.T.);
#132=PRESENTATION_STYLE_ASSIGNMENT((#255));
#133=ADVANCED_FACE('',(#256),#257,.T.);
#134=PRESENTATION_STYLE_ASSIGNMENT((#258));
#135=VERTEX_POINT('',#259);
#136=PRESENTATION_STYLE_ASSIGNMENT((#260));
#137=EDGE_CURVE('',#135,#159,#261,.T.);
#138=PRESENTATION_STYLE_ASSIGNMENT((#262));
#139=EDGE_CURVE('',#75,#175,#263,.T.);
#140=PRESENTATION_STYLE_ASSIGNMENT((#264));
#141=EDGE_CURVE('',#171,#161,#265,.T.);
#142=PRESENTATION_STYLE_ASSIGNMENT((#266));
#143=EDGE_CURVE('',#91,#171,#267,.T.);
#144=PRESENTATION_STYLE_ASSIGNMENT((#268));
#145=EDGE_CURVE('',#175,#169,#269,.T.);
#146=PRESENTATION_STYLE_ASSIGNMENT((#270));
#147=EDGE_CURVE('',#121,#83,#271,.T.);
#148=PRESENTATION_STYLE_ASSIGNMENT((#272));
#149=ADVANCED_FACE('',(#273),#274,.T.);
#150=PRESENTATION_STYLE_ASSIGNMENT((#275));
#151=EDGE_CURVE('',#165,#123,#276,.T.);
#152=PRESENTATION_STYLE_ASSIGNMENT((#277));
#153=EDGE_CURVE('',#87,#135,#278,.T.);
#154=PRESENTATION_STYLE_ASSIGNMENT((#279));
#155=ADVANCED_FACE('',(#280),#281,.T.);
#156=PRESENTATION_STYLE_ASSIGNMENT((#282));
#157=ADVANCED_FACE('',(#283),#284,.T.);
#158=PRESENTATION_STYLE_ASSIGNMENT((#285));
#159=VERTEX_POINT('',#286);
#160=PRESENTATION_STYLE_ASSIGNMENT((#287));
#161=VERTEX_POINT('',#288);
#162=PRESENTATION_STYLE_ASSIGNMENT((#289));
#163=ADVANCED_FACE('',(#290),#291,.F.);
#164=PRESENTATION_STYLE_ASSIGNMENT((#292));
#165=VERTEX_POINT('',#293);
#166=PRESENTATION_STYLE_ASSIGNMENT((#294));
#167=EDGE_CURVE('',#117,#107,#295,.T.);
#168=PRESENTATION_STYLE_ASSIGNMENT((#296));
#169=VERTEX_POINT('',#297);
#170=PRESENTATION_STYLE_ASSIGNMENT((#298));
#171=VERTEX_POINT('',#299);
#172=PRESENTATION_STYLE_ASSIGNMENT((#300));
#173=EDGE_CURVE('',#159,#91,#301,.T.);
#174=PRESENTATION_STYLE_ASSIGNMENT((#302));
#175=VERTEX_POINT('',#303);
#176=PRODUCT('1','1','PART-1-DESC',(#304));
#177=PRODUCT_DEFINITION('NONE','NONE',#305,#2);
#178=AXIS2_PLACEMENT_3D('',#306,#307,#308);
#181=LENGTH_MEASURE_WITH_UNIT(LENGTH_MEASURE(1.0),#309);
#184=DIMENSIONAL_EXPONENTS(1.0,0.0,0.0,0.0,0.0,0.0,0.0);
#186=DIMENSIONAL_EXPONENTS(0.0,0.0,0.0,0.0,0.0,0.0,0.0);
#192=POINT_STYLE(' ',#310,POSITIVE_LENGTH_MEASURE(1.0E-006),#311);
#193=CARTESIAN_POINT('',(0.0,0.8,0.0));
#194=SURFACE_STYLE_USAGE(.BOTH.,#312);
#195=FACE_OUTER_BOUND('',#313,.T.);
#196=PLANE('',#314);
#197=SURFACE_STYLE_USAGE(.BOTH.,#315);
#198=FACE_OUTER_BOUND('',#316,.T.);
#199=PLANE('',#317);
#200=CURVE_STYLE('',#318,POSITIVE_LENGTH_MEASURE(1.0E-006),#319);
#201=LINE('',#320,#321);
#202=POINT_STYLE(' ',#322,POSITIVE_LENGTH_MEASURE(1.0E-006),#323);
#203=CARTESIAN_POINT('',(7.86810707854163,0.8,-3.5));
#204=CURVE_STYLE('',#324,POSITIVE_LENGTH_MEASURE(1.0E-006),#325);
#205=LINE('',#326,#327);
#206=POINT_STYLE(' ',#328,POSITIVE_LENGTH_MEASURE(1.0E-006),#329);
#207=CARTESIAN_POINT('',(0.8,8.36,0.0));
#208=CURVE_STYLE('',#330,POSITIVE_LENGTH_MEASURE(1.0E-006),#331);
#209=LINE('',#332,#333);
#210=POINT_STYLE(' ',#334,POSITIVE_LENGTH_MEASURE(1.0E-006),#335);
#211=CARTESIAN_POINT('',(0.491892921558372,0.800000000061486,-3.5));
#212=CURVE_STYLE('',#336,POSITIVE_LENGTH_MEASURE(1.0E-006),#337);
#213=LINE('',#338,#339);
#214=CURVE_STYLE('',#340,POSITIVE_LENGTH_MEASURE(1.0E-006),#341);
#215=CIRCLE('',#342,0.8);
#216=CURVE_STYLE('',#343,POSITIVE_LENGTH_MEASURE(1.0E-006),#344);
#217=LINE('',#345,#346);
#218=POINT_STYLE(' ',#347,POSITIVE_LENGTH_MEASURE(1.0E-006),#348);
#219=CARTESIAN_POINT('',(0.800000000061489,7.86810707844163,-3.5));
#220=CURVE_STYLE('',#349,POSITIVE_LENGTH_MEASURE(1.0E-006),#350);
#221=LINE('',#351,#352);
#222=SURFACE_STYLE_USAGE(.BOTH.,#353);
#223=FACE_OUTER_BOUND('',#354,.T.);
#224=PLANE('',#355);
#225=SURFACE_STYLE_USAGE(.BOTH.,#356);
#226=FACE_OUTER_BOUND('',#357,.T.);
#227=CONICAL_SURFACE('',#358,0.800000000000004,0.139626340159547);
#228=POINT_STYLE(' ',#359,POSITIVE_LENGTH_MEASURE(1.0E-006),#360);
#229=CARTESIAN_POINT('',(7.56,7.86810707854163,-3.5));
#230=CURVE_STYLE('',#361,POSITIVE_LENGTH_MEASURE(1.0E-006),#362);
#231=LINE('',#363,#364);
#232=CURVE_STYLE('',#365,POSITIVE_LENGTH_MEASURE(1.0E-006),#366);
#233=LINE('',#367,#368);
#234=CURVE_STYLE('',#369,POSITIVE_LENGTH_MEASURE(1.0E-006),#370);
#235=LINE('',#371,#372);
#236=SURFACE_STYLE_USAGE(.BOTH.,#373);
#237=CLOSED_SHELL('',(#155,#149,#133,#103,#105,#79,#157,#125,#163,#77));
#238=POINT_STYLE(' ',#374,POSITIVE_LENGTH_MEASURE(1.0E-006),#375);
#239=CARTESIAN_POINT('',(7.86810707844163,7.55999999993851,-3.5));
#240=CURVE_STYLE('',#376,POSITIVE_LENGTH_MEASURE(1.0E-006),#377);
#241=CIRCLE('',#378,0.308107078541633);
#242=POINT_STYLE(' ',#379,POSITIVE_LENGTH_MEASURE(1.0E-006),#380);
#243=CARTESIAN_POINT('',(8.3599999999,0.8,0.0));
#244=POINT_STYLE(' ',#381,POSITIVE_LENGTH_MEASURE(1.0E-006),#382);
#245=CARTESIAN_POINT('',(7.56,8.3599999999,0.0));
#246=SURFACE_STYLE_USAGE(.BOTH.,#383);
#247=FACE_OUTER_BOUND('',#384,.T.);
#248=PLANE('',#385);
#249=CURVE_STYLE('',#386,POSITIVE_LENGTH_MEASURE(1.0E-006),#387);
#250=CIRCLE('',#388,0.308107078541629);
#251=CURVE_STYLE('',#389,POSITIVE_LENGTH_MEASURE(1.0E-006),#390);
#252=LINE('',#391,#392);
#253=CURVE_STYLE('',#393,POSITIVE_LENGTH_MEASURE(1.0E-006),#394);
#254=LINE('',#395,#396);
#255=SURFACE_STYLE_USAGE(.BOTH.,#397);
#256=FACE_OUTER_BOUND('',#398,.T.);
#257=CONICAL_SURFACE('',#399,0.800000000000004,0.139626340159547);
#258=POINT_STYLE(' ',#400,POSITIVE_LENGTH_MEASURE(1.0E-006),#401);
#259=CARTESIAN_POINT('',(1.00000230318642E-010,7.56,0.0));
#260=CURVE_STYLE('',#402,POSITIVE_LENGTH_MEASURE(1.0E-006),#403);
#261=LINE('',#404,#405);
#262=CURVE_STYLE('',#406,POSITIVE_LENGTH_MEASURE(1.0E-006),#407);
#263=CIRCLE('',#408,0.8);
#264=CURVE_STYLE('',#409,POSITIVE_LENGTH_MEASURE(1.0E-006),#410);
#265=LINE('',#411,#412);
#266=CURVE_STYLE('',#413,POSITIVE_LENGTH_MEASURE(1.0E-006),#414);
#267=CIRCLE('',#415,0.308107078541628);
#268=CURVE_STYLE('',#416,POSITIVE_LENGTH_MEASURE(1.0E-006),#417);
#269=LINE('',#418,#419);
#270=CURVE_STYLE('',#420,POSITIVE_LENGTH_MEASURE(1.0E-006),#421);
#271=LINE('',#422,#423);
#272=SURFACE_STYLE_USAGE(.BOTH.,#424);
#273=FACE_OUTER_BOUND('',#425,.T.);
#274=PLANE('',#426);
#275=CURVE_STYLE('',#427,POSITIVE_LENGTH_MEASURE(1.0E-006),#428);
#276=CIRCLE('',#429,0.800000000000004);
#277=CURVE_STYLE('',#430,POSITIVE_LENGTH_MEASURE(1.0E-006),#431);
#278=CIRCLE('',#432,0.800000000000004);
#279=SURFACE_STYLE_USAGE(.BOTH.,#433);
#280=FACE_OUTER_BOUND('',#434,.T.);
#281=CONICAL_SURFACE('',#435,0.8,0.139626340159547);
#282=SURFACE_STYLE_USAGE(.BOTH.,#436);
#283=FACE_OUTER_BOUND('',#437,.T.);
#284=CONICAL_SURFACE('',#438,0.8,0.139626340159547);
#285=POINT_STYLE(' ',#439,POSITIVE_LENGTH_MEASURE(1.0E-006),#440);
#286=CARTESIAN_POINT('',(0.491892921458372,7.56,-3.5));
#287=POINT_STYLE(' ',#441,POSITIVE_LENGTH_MEASURE(1.0E-006),#442);
#288=CARTESIAN_POINT('',(7.55999999993851,0.491892921558372,-3.5));
#289=SURFACE_STYLE_USAGE(.BOTH.,#443);
#290=FACE_OUTER_BOUND('',#444,.T.);
#291=PLANE('',#445);
#292=POINT_STYLE(' ',#446,POSITIVE_LENGTH_MEASURE(1.0E-006),#447);
#293=CARTESIAN_POINT('',(8.36,7.56,0.0));
#294=CURVE_STYLE('',#448,POSITIVE_LENGTH_MEASURE(1.0E-006),#449);
#295=CIRCLE('',#450,0.308107078541633);
#296=POINT_STYLE(' ',#451,POSITIVE_LENGTH_MEASURE(1.0E-006),#452);
#297=CARTESIAN_POINT('',(7.56,0.0,0.0));
#298=POINT_STYLE(' ',#453,POSITIVE_LENGTH_MEASURE(1.0E-006),#454);
#299=CARTESIAN_POINT('',(0.8,0.491892921458372,-3.5));
#300=CURVE_STYLE('',#455,POSITIVE_LENGTH_MEASURE(1.0E-006),#456);
#301=LINE('',#457,#458);
#302=POINT_STYLE(' ',#459,POSITIVE_LENGTH_MEASURE(1.0E-006),#460);
#303=CARTESIAN_POINT('',(0.8,0.0,0.0));
#304=PRODUCT_CONTEXT('',#61,'mechanical');
#305=PRODUCT_DEFINITION_FORMATION_WITH_SPECIFIED_SOURCE(' ','NONE',#176,.NOT_KNOWN.);
#306=CARTESIAN_POINT('',(0.0,0.0,0.0));
#307=DIRECTION('',(0.0,0.0,1.0));
#308=DIRECTION('',(1.0,0.0,0.0));
#309= (NAMED_UNIT(#184)LENGTH_UNIT()SI_UNIT(.MILLI.,.METRE.));
#310=PRE_DEFINED_MARKER('');
#311=COLOUR_RGB('',0.800000011920929,0.800000011920929,0.800000011920929);
#312=SURFACE_SIDE_STYLE('',(#462));
#313=EDGE_LOOP('',(#463,#464,#465,#466,#467,#468,#469,#470));
#314=AXIS2_PLACEMENT_3D('',#471,#472,#473);
#315=SURFACE_SIDE_STYLE('',(#474));
#316=EDGE_LOOP('',(#475,#476,#477,#478));
#317=AXIS2_PLACEMENT_3D('',#479,#480,#481);
#318=DRAUGHTING_PRE_DEFINED_CURVE_FONT('continuous');
#319=COLOUR_RGB('',0.800000011920929,0.800000011920929,0.800000011920929);
#320=CARTESIAN_POINT('',(7.56,8.3599999999,0.0));
#321=VECTOR('',#482,1.0);
#322=PRE_DEFINED_MARKER('');
#323=COLOUR_RGB('',0.800000011920929,0.800000011920929,0.800000011920929);
#324=DRAUGHTING_PRE_DEFINED_CURVE_FONT('continuous');
#325=COLOUR_RGB('',0.800000011920929,0.800000011920929,0.800000011920929);
#326=CARTESIAN_POINT('',(8.36,0.8,0.0));
#327=VECTOR('',#483,1.0);
#328=PRE_DEFINED_MARKER('');
#329=COLOUR_RGB('',0.800000011920929,0.800000011920929,0.800000011920929);
#330=DRAUGHTING_PRE_DEFINED_CURVE_FONT('continuous');
#331=COLOUR_RGB('',0.800000011920929,0.800000011920929,0.800000011920929);
#332=CARTESIAN_POINT('',(0.0,7.56,0.0));
#333=VECTOR('',#484,1.0);
#334=PRE_DEFINED_MARKER('');
#335=COLOUR_RGB('',0.800000011920929,0.800000011920929,0.800000011920929);
#336=DRAUGHTING_PRE_DEFINED_CURVE_FONT('continuous');
#337=COLOUR_RGB('',0.800000011920929,0.800000011920929,0.800000011920929);
#338=CARTESIAN_POINT('',(0.8,0.0,0.0));
#339=VECTOR('',#485,1.0);
#340=DRAUGHTING_PRE_DEFINED_CURVE_FONT('continuous');
#341=COLOUR_RGB('',0.800000011920929,0.800000011920929,0.800000011920929);
#342=AXIS2_PLACEMENT_3D('',#486,#487,#488);
#343=DRAUGHTING_PRE_DEFINED_CURVE_FONT('continuous');
#344=COLOUR_RGB('',0.800000011920929,0.800000011920929,0.800000011920929);
#345=CARTESIAN_POINT('',(8.36,7.56,0.0));
#346=VECTOR('',#489,1.0);
#347=PRE_DEFINED_MARKER('');
#348=COLOUR_RGB('',0.800000011920929,0.800000011920929,0.800000011920929);
#349=DRAUGHTING_PRE_DEFINED_CURVE_FONT('continuous');
#350=COLOUR_RGB('',0.800000011920929,0.800000011920929,0.800000011920929);
#351=CARTESIAN_POINT('',(7.56,7.86810707854163,-3.5));
#352=VECTOR('',#490,1.0);
#353=SURFACE_SIDE_STYLE('',(#491));
#354=EDGE_LOOP('',(#492,#493,#494,#495));
#355=AXIS2_PLACEMENT_3D('',#496,#497,#498);
#356=SURFACE_SIDE_STYLE('',(#499));
#357=EDGE_LOOP('',(#500,#501,#502,#503));
#358=AXIS2_PLACEMENT_3D('',#504,#505,#506);
#359=PRE_DEFINED_MARKER('');
#360=COLOUR_RGB('',0.800000011920929,0.800000011920929,0.800000011920929);
#361=DRAUGHTING_PRE_DEFINED_CURVE_FONT('continuous');
#362=COLOUR_RGB('',0.800000011920929,0.800000011920929,0.800000011920929);
#363=CARTESIAN_POINT('',(0.8,8.36,0.0));
#364=VECTOR('',#507,1.0);
#365=DRAUGHTING_PRE_DEFINED_CURVE_FONT('continuous');
#366=COLOUR_RGB('',0.800000011920929,0.800000011920929,0.800000011920929);
#367=CARTESIAN_POINT('',(7.56,0.0,0.0));
#368=VECTOR('',#508,1.0);
#369=DRAUGHTING_PRE_DEFINED_CURVE_FONT('continuous');
#370=COLOUR_RGB('',0.800000011920929,0.800000011920929,0.800000011920929);
#371=CARTESIAN_POINT('',(0.0,0.8,0.0));
#372=VECTOR('',#509,1.0);
#373=SURFACE_SIDE_STYLE('',(#510));
#374=PRE_DEFINED_MARKER('');
#375=COLOUR_RGB('',0.800000011920929,0.800000011920929,0.800000011920929);
#376=DRAUGHTING_PRE_DEFINED_CURVE_FONT('continuous');
#377=COLOUR_RGB('',0.800000011920929,0.800000011920929,0.800000011920929);
#378=AXIS2_PLACEMENT_3D('',#511,#512,#513);
#379=PRE_DEFINED_MARKER('');
#380=COLOUR_RGB('',0.800000011920929,0.800000011920929,0.800000011920929);
#381=PRE_DEFINED_MARKER('');
#382=COLOUR_RGB('',0.800000011920929,0.800000011920929,0.800000011920929);
#383=SURFACE_SIDE_STYLE('',(#514));
#384=EDGE_LOOP('',(#515,#516,#517,#518));
#385=AXIS2_PLACEMENT_3D('',#519,#520,#521);
#386=DRAUGHTING_PRE_DEFINED_CURVE_FONT('continuous');
#387=COLOUR_RGB('',0.800000011920929,0.800000011920929,0.800000011920929);
#388=AXIS2_PLACEMENT_3D('',#522,#523,#524);
#389=DRAUGHTING_PRE_DEFINED_CURVE_FONT('continuous');
#390=COLOUR_RGB('',0.800000011920929,0.800000011920929,0.800000011920929);
#391=CARTESIAN_POINT('',(7.86810707854163,0.8,-3.5));
#392=VECTOR('',#525,1.0);
#393=DRAUGHTING_PRE_DEFINED_CURVE_FONT('continuous');
#394=COLOUR_RGB('',0.800000011920929,0.800000011920929,0.800000011920929);
#395=CARTESIAN_POINT('',(7.56,8.36,0.0));
#396=VECTOR('',#526,1.0);
#397=SURFACE_SIDE_STYLE('',(#527));
#398=EDGE_LOOP('',(#528,#529,#530,#531));
#399=AXIS2_PLACEMENT_3D('',#532,#533,#534);
#400=PRE_DEFINED_MARKER('');
#401=COLOUR_RGB('',0.800000011920929,0.800000011920929,0.800000011920929);
#402=DRAUGHTING_PRE_DEFINED_CURVE_FONT('continuous');
#403=COLOUR_RGB('',0.800000011920929,0.800000011920929,0.800000011920929);
#404=CARTESIAN_POINT('',(1.00000230318642E-010,7.56,0.0));
#405=VECTOR('',#535,1.0);
#406=DRAUGHTING_PRE_DEFINED_CURVE_FONT('continuous');
#407=COLOUR_RGB('',0.800000011920929,0.800000011920929,0.800000011920929);
#408=AXIS2_PLACEMENT_3D('',#536,#537,#538);
#409=DRAUGHTING_PRE_DEFINED_CURVE_FONT('continuous');
#410=COLOUR_RGB('',0.800000011920929,0.800000011920929,0.800000011920929);
#411=CARTESIAN_POINT('',(0.8,0.491892921458372,-3.5));
#412=VECTOR('',#539,1.0);
#413=DRAUGHTING_PRE_DEFINED_CURVE_FONT('continuous');
#414=COLOUR_RGB('',0.800000011920929,0.800000011920929,0.800000011920929);
#415=AXIS2_PLACEMENT_3D('',#540,#541,#542);
#416=DRAUGHTING_PRE_DEFINED_CURVE_FONT('continuous');
#417=COLOUR_RGB('',0.800000011920929,0.800000011920929,0.800000011920929);
#418=CARTESIAN_POINT('',(0.8,0.0,0.0));
#419=VECTOR('',#543,1.0);
#420=DRAUGHTING_PRE_DEFINED_CURVE_FONT('continuous');
#421=COLOUR_RGB('',0.800000011920929,0.800000011920929,0.800000011920929);
#422=CARTESIAN_POINT('',(8.3599999999,0.8,0.0));
#423=VECTOR('',#544,1.0);
#424=SURFACE_SIDE_STYLE('',(#545));
#425=EDGE_LOOP('',(#546,#547,#548,#549));
#426=AXIS2_PLACEMENT_3D('',#550,#551,#552);
#427=DRAUGHTING_PRE_DEFINED_CURVE_FONT('continuous');
#428=COLOUR_RGB('',0.800000011920929,0.800000011920929,0.800000011920929);
#429=AXIS2_PLACEMENT_3D('',#553,#554,#555);
#430=DRAUGHTING_PRE_DEFINED_CURVE_FONT('continuous');
#431=COLOUR_RGB('',0.800000011920929,0.800000011920929,0.800000011920929);
#432=AXIS2_PLACEMENT_3D('',#556,#557,#558);
#433=SURFACE_SIDE_STYLE('',(#559));
#434=EDGE_LOOP('',(#560,#561,#562,#563));
#435=AXIS2_PLACEMENT_3D('',#564,#565,#566);
#436=SURFACE_SIDE_STYLE('',(#567));
#437=EDGE_LOOP('',(#568,#569,#570,#571));
#438=AXIS2_PLACEMENT_3D('',#572,#573,#574);
#439=PRE_DEFINED_MARKER('');
#440=COLOUR_RGB('',0.800000011920929,0.800000011920929,0.800000011920929);
#441=PRE_DEFINED_MARKER('');
#442=COLOUR_RGB('',0.800000011920929,0.800000011920929,0.800000011920929);
#443=SURFACE_SIDE_STYLE('',(#575));
#444=EDGE_LOOP('',(#576,#577,#578,#579,#580,#581,#582,#583));
#445=AXIS2_PLACEMENT_3D('',#584,#585,#586);
#446=PRE_DEFINED_MARKER('');
#447=COLOUR_RGB('',0.800000011920929,0.800000011920929,0.800000011920929);
#448=DRAUGHTING_PRE_DEFINED_CURVE_FONT('continuous');
#449=COLOUR_RGB('',0.800000011920929,0.800000011920929,0.800000011920929);
#450=AXIS2_PLACEMENT_3D('',#587,#588,#589);
#451=PRE_DEFINED_MARKER('');
#452=COLOUR_RGB('',0.800000011920929,0.800000011920929,0.800000011920929);
#453=PRE_DEFINED_MARKER('');
#454=COLOUR_RGB('',0.800000011920929,0.800000011920929,0.800000011920929);
#455=DRAUGHTING_PRE_DEFINED_CURVE_FONT('continuous');
#456=COLOUR_RGB('',0.800000011920929,0.800000011920929,0.800000011920929);
#457=CARTESIAN_POINT('',(0.491892921458372,7.56,-3.5));
#458=VECTOR('',#590,1.0);
#459=PRE_DEFINED_MARKER('');
#460=COLOUR_RGB('',0.800000011920929,0.800000011920929,0.800000011920929);
#462=SURFACE_STYLE_FILL_AREA(#591);
#463=ORIENTED_EDGE('',*,*,#145,.T.);
#464=ORIENTED_EDGE('',*,*,#95,.T.);
#465=ORIENTED_EDGE('',*,*,#85,.T.);
#466=ORIENTED_EDGE('',*,*,#151,.T.);
#467=ORIENTED_EDGE('',*,*,#131,.T.);
#468=ORIENTED_EDGE('',*,*,#153,.T.);
#469=ORIENTED_EDGE('',*,*,#89,.T.);
#470=ORIENTED_EDGE('',*,*,#139,.T.);
#471=CARTESIAN_POINT('',(4.18,4.18,0.0));
#472=DIRECTION('',(0.0,0.0,1.0));
#473=DIRECTION('',(1.0,0.0,0.0));
#474=SURFACE_STYLE_FILL_AREA(#592);
#475=ORIENTED_EDGE('',*,*,#173,.T.);
#476=ORIENTED_EDGE('',*,*,#113,.F.);
#477=ORIENTED_EDGE('',*,*,#89,.F.);
#478=ORIENTED_EDGE('',*,*,#137,.T.);
#479=CARTESIAN_POINT('',(1.00000230318642E-010,7.56,0.0));
#480=DIRECTION('',(-0.99026806874547,0.0,-0.13917310093232));
#481=DIRECTION('',(0.0,1.0,0.0));
#482=DIRECTION('',(0.0,-0.139173100932321,-0.99026806874547));
#483=DIRECTION('',(0.0,1.0,0.0));
#484=DIRECTION('',(0.0,-1.0,0.0));
#485=DIRECTION('',(0.0,0.139173100960066,-0.99026806874157));
#486=CARTESIAN_POINT('',(7.5599999999,0.8000000001,0.0));
#487=DIRECTION('',(0.0,0.0,1.0));
#488=DIRECTION('',(1.25002230788596E-010,-1.0,0.0));
#489=DIRECTION('',(-0.139173100987811,-1.73974482228135E-011,-0.990268068737671));
#490=DIRECTION('',(-1.0,0.0,0.0));
#491=SURFACE_STYLE_FILL_AREA(#593);
#492=ORIENTED_EDGE('',*,*,#101,.T.);
#493=ORIENTED_EDGE('',*,*,#109,.F.);
#494=ORIENTED_EDGE('',*,*,#131,.F.);
#495=ORIENTED_EDGE('',*,*,#81,.T.);
#496=CARTESIAN_POINT('',(7.56,8.3599999999,0.0));
#497=DIRECTION('',(0.0,0.99026806874547,-0.139173100932321));
#498=DIRECTION('',(1.0,-0.0,0.0));
#499=SURFACE_STYLE_FILL_AREA(#594);
#500=ORIENTED_EDGE('',*,*,#119,.T.);
#501=ORIENTED_EDGE('',*,*,#137,.F.);
#502=ORIENTED_EDGE('',*,*,#153,.F.);
#503=ORIENTED_EDGE('',*,*,#109,.T.);
#504=CARTESIAN_POINT('',(0.800000000100004,7.5599999999,0.0));
#505=DIRECTION('',(-0.0,-0.0,1.0));
#506=DIRECTION('',(-1.25005700235547E-010,1.0,0.0));
#507=DIRECTION('',(1.73974482228135E-011,-0.139173100987811,-0.990268068737671));
#508=DIRECTION('',(-1.73966943359034E-011,0.139173100987811,-0.990268068737671));
#509=DIRECTION('',(0.139173100987811,1.73966315119943E-011,-0.990268068737671));
#510=SURFACE_STYLE_FILL_AREA(#595);
#511=CARTESIAN_POINT('',(0.800000000100004,7.5599999999,-3.5));
#512=DIRECTION('',(0.0,0.0,1.0));
#513=DIRECTION('',(-1.25005700235547E-010,1.0,0.0));
#514=SURFACE_STYLE_FILL_AREA(#596);
#515=ORIENTED_EDGE('',*,*,#141,.T.);
#516=ORIENTED_EDGE('',*,*,#111,.F.);
#517=ORIENTED_EDGE('',*,*,#145,.F.);
#518=ORIENTED_EDGE('',*,*,#93,.T.);
#519=CARTESIAN_POINT('',(0.8,0.0,0.0));
#520=DIRECTION('',(-0.0,-0.99026806874157,-0.139173100960066));
#521=DIRECTION('',(-1.0,0.0,0.0));
#522=CARTESIAN_POINT('',(7.5599999999,0.8000000001,-3.5));
#523=DIRECTION('',(0.0,0.0,1.0));
#524=DIRECTION('',(1.25002230788596E-010,-1.0,0.0));
#525=DIRECTION('',(0.0,1.0,0.0));
#526=DIRECTION('',(-1.0,0.0,0.0));
#527=SURFACE_STYLE_FILL_AREA(#597);
#528=ORIENTED_EDGE('',*,*,#167,.T.);
#529=ORIENTED_EDGE('',*,*,#81,.F.);
#530=ORIENTED_EDGE('',*,*,#151,.F.);
#531=ORIENTED_EDGE('',*,*,#97,.T.);
#532=CARTESIAN_POINT('',(7.5599999999,7.5599999999,0.0));
#533=DIRECTION('',(-0.0,-0.0,1.0));
#534=DIRECTION('',(1.0,1.25005561457669E-010,0.0));
#535=DIRECTION('',(0.13917310093232,0.0,-0.99026806874547));
#536=CARTESIAN_POINT('',(0.8000000001,0.8000000001,0.0));
#537=DIRECTION('',(0.0,0.0,1.0));
#538=DIRECTION('',(-1.0,-1.24999455231034E-010,0.0));
#539=DIRECTION('',(1.0,0.0,0.0));
#540=CARTESIAN_POINT('',(0.8000000001,0.8000000001,-3.5));
#541=DIRECTION('',(0.0,0.0,1.0));
#542=DIRECTION('',(-1.0,-1.24999455231034E-010,0.0));
#543=DIRECTION('',(1.0,0.0,0.0));
#544=DIRECTION('',(-0.139173100932321,0.0,-0.99026806874547));
#545=SURFACE_STYLE_FILL_AREA(#598);
#546=ORIENTED_EDGE('',*,*,#129,.T.);
#547=ORIENTED_EDGE('',*,*,#97,.F.);
#548=ORIENTED_EDGE('',*,*,#85,.F.);
#549=ORIENTED_EDGE('',*,*,#147,.T.);
#550=CARTESIAN_POINT('',(8.3599999999,0.8,0.0));
#551=DIRECTION('',(0.99026806874547,-0.0,-0.139173100932321));
#552=DIRECTION('',(-0.0,-1.0,0.0));
#553=CARTESIAN_POINT('',(7.5599999999,7.5599999999,0.0));
#554=DIRECTION('',(0.0,-0.0,1.0));
#555=DIRECTION('',(1.0,1.25005561457669E-010,0.0));
#556=CARTESIAN_POINT('',(0.800000000100004,7.5599999999,0.0));
#557=DIRECTION('',(0.0,0.0,1.0));
#558=DIRECTION('',(-1.25005700235547E-010,1.0,0.0));
#559=SURFACE_STYLE_FILL_AREA(#599);
#560=ORIENTED_EDGE('',*,*,#127,.T.);
#561=ORIENTED_EDGE('',*,*,#147,.F.);
#562=ORIENTED_EDGE('',*,*,#95,.F.);
#563=ORIENTED_EDGE('',*,*,#111,.T.);
#564=CARTESIAN_POINT('',(7.5599999999,0.8000000001,0.0));
#565=DIRECTION('',(-0.0,-0.0,1.0));
#566=DIRECTION('',(1.25002230788596E-010,-1.0,0.0));
#567=SURFACE_STYLE_FILL_AREA(#600);
#568=ORIENTED_EDGE('',*,*,#143,.T.);
#569=ORIENTED_EDGE('',*,*,#93,.F.);
#570=ORIENTED_EDGE('',*,*,#139,.F.);
#571=ORIENTED_EDGE('',*,*,#113,.T.);
#572=CARTESIAN_POINT('',(0.8000000001,0.8000000001,0.0));
#573=DIRECTION('',(0.0,-0.0,1.0));
#574=DIRECTION('',(-1.0,-1.24999455231034E-010,0.0));
#575=SURFACE_STYLE_FILL_AREA(#601);
#576=ORIENTED_EDGE('',*,*,#127,.F.);
#577=ORIENTED_EDGE('',*,*,#141,.F.);
#578=ORIENTED_EDGE('',*,*,#143,.F.);
#579=ORIENTED_EDGE('',*,*,#173,.F.);
#580=ORIENTED_EDGE('',*,*,#119,.F.);
#581=ORIENTED_EDGE('',*,*,#101,.F.);
#582=ORIENTED_EDGE('',*,*,#167,.F.);
#583=ORIENTED_EDGE('',*,*,#129,.F.);
#584=CARTESIAN_POINT('',(4.18,4.18,-3.5));
#585=DIRECTION('',(0.0,0.0,1.0));
#586=DIRECTION('',(1.0,0.0,0.0));
#587=CARTESIAN_POINT('',(7.5599999999,7.5599999999,-3.5));
#588=DIRECTION('',(0.0,-0.0,1.0));
#589=DIRECTION('',(1.0,1.25005561457669E-010,0.0));
#590=DIRECTION('',(0.0,-1.0,0.0));
#591=FILL_AREA_STYLE('',(#602));
#592=FILL_AREA_STYLE('',(#603));
#593=FILL_AREA_STYLE('',(#604));
#594=FILL_AREA_STYLE('',(#605));
#595=FILL_AREA_STYLE('',(#606));
#596=FILL_AREA_STYLE('',(#607));
#597=FILL_AREA_STYLE('',(#608));
#598=FILL_AREA_STYLE('',(#609));
#599=FILL_AREA_STYLE('',(#610));
#600=FILL_AREA_STYLE('',(#611));
#601=FILL_AREA_STYLE('',(#612));
#602=FILL_AREA_STYLE_COLOUR('',#613);
#603=FILL_AREA_STYLE_COLOUR('',#614);
#604=FILL_AREA_STYLE_COLOUR('',#615);
#605=FILL_AREA_STYLE_COLOUR('',#616);
#606=FILL_AREA_STYLE_COLOUR('',#617);
#607=FILL_AREA_STYLE_COLOUR('',#618);
#608=FILL_AREA_STYLE_COLOUR('',#619);
#609=FILL_AREA_STYLE_COLOUR('',#620);
#610=FILL_AREA_STYLE_COLOUR('',#621);
#611=FILL_AREA_STYLE_COLOUR('',#622);
#612=FILL_AREA_STYLE_COLOUR('',#623);
#613=COLOUR_RGB('',0.800000011920929,0.800000011920929,0.800000011920929);
#614=COLOUR_RGB('',0.800000011920929,0.800000011920929,0.800000011920929);
#615=COLOUR_RGB('',0.800000011920929,0.800000011920929,0.800000011920929);
#616=COLOUR_RGB('',0.800000011920929,0.800000011920929,0.800000011920929);
#617=COLOUR_RGB('',0.800000011920929,0.800000011920929,0.800000011920929);
#618=COLOUR_RGB('',0.800000011920929,0.800000011920929,0.800000011920929);
#619=COLOUR_RGB('',0.800000011920929,0.800000011920929,0.800000011920929);
#620=COLOUR_RGB('',0.800000011920929,0.800000011920929,0.800000011920929);
#621=COLOUR_RGB('',0.800000011920929,0.800000011920929,0.800000011920929);
#622=COLOUR_RGB('',0.800000011920929,0.800000011920929,0.800000011920929);
#623=COLOUR_RGB('',0.800000011920929,0.800000011920929,0.800000011920929);
#624=AXIS2_PLACEMENT_3D('PCS',#625,#626,#627);
#625=CARTESIAN_POINT('',(0.0,0.0,0.0));
#626=DIRECTION('',(0.0,0.0,1.0));
#627=DIRECTION('',(1.0,0.0,0.0));
#628=AXIS2_PLACEMENT_3D('MCS',#629,#630,#631);
#629=CARTESIAN_POINT('',(4.18,4.18,0.0));
#630=DIRECTION('',(0.0,0.0,1.0));
#631=DIRECTION('',(1.0,0.0,0.0));
#632=CONSTRUCTIVE_GEOMETRY_REPRESENTATION_RELATIONSHIP('coordinate systems',$,#65,#633);
#633=CONSTRUCTIVE_GEOMETRY_REPRESENTATION('coordinate systems',(#624,#628),#6);
ENDSEC;
END-ISO-10303-21;
