ISO-10303-21;
HEADER;
FILE_DESCRIPTION(('no description'),'unknown implementation level');
FILE_NAME('solidGxVc71OB7JXRiRcSt_zIPz5r3BY_1.STP','  ',('CIMSOURCE GmbH'),('CADClick - KiM GmbH - www.kimweb.de'),'unknown preprocess','ACIS','unknown authorization');
FILE_SCHEMA(('automotive_design'));
ENDSEC;
DATA;
#1=MECHANICAL_DESIGN_GEOMETRIC_PRESENTATION_REPRESENTATION(' ',(#10,#11,#12,#13,#14,#15,#16,#17,#18,#19,#20,#21,#22,#23,#24,#25,#26,#27,#28,#29,#30,#31,#32,#33,#34,#35,#36,#37,#38,#39,#40,#41,#42,#43,#44,#45,#46,#47,#48,#49,#50,#51,#52,#53,#54,#55,#56,#57,#58,#59,#60),#6);
#2=PRODUCT_DEFINITION_CONTEXT('',#61,'design');
#3=APPLICATION_PROTOCOL_DEFINITION('INTERNATIONAL STANDARD','automotive_design',1994,#61);
#4=PRODUCT_CATEGORY_RELATIONSHIP('NONE','NONE',#62,#63);
#5=SHAPE_DEFINITION_REPRESENTATION(#64,#65);
#6= (GEOMETRIC_REPRESENTATION_CONTEXT(3)GLOBAL_UNCERTAINTY_ASSIGNED_CONTEXT((#68))GLOBAL_UNIT_ASSIGNED_CONTEXT((#70,#71,#72))REPRESENTATION_CONTEXT('NONE','WORKSPACE'));
#10=STYLED_ITEM('',(#74),#75);
#11=STYLED_ITEM('',(#76),#77);
#12=STYLED_ITEM('',(#78),#79);
#13=STYLED_ITEM('',(#80),#81);
#14=STYLED_ITEM('',(#82),#83);
#15=STYLED_ITEM('',(#84),#85);
#16=STYLED_ITEM('',(#86),#87);
#17=STYLED_ITEM('',(#88),#89);
#18=STYLED_ITEM('',(#90),#91);
#19=STYLED_ITEM('',(#92),#93);
#20=STYLED_ITEM('',(#94),#95);
#21=STYLED_ITEM('',(#96),#97);
#22=STYLED_ITEM('',(#98),#99);
#23=STYLED_ITEM('',(#100),#101);
#24=STYLED_ITEM('',(#102),#103);
#25=STYLED_ITEM('',(#104),#105);
#26=STYLED_ITEM('',(#106),#107);
#27=STYLED_ITEM('',(#108),#109);
#28=STYLED_ITEM('',(#110),#111);
#29=STYLED_ITEM('',(#112),#113);
#30=STYLED_ITEM('',(#114),#115);
#31=STYLED_ITEM('',(#116),#117);
#32=STYLED_ITEM('',(#118),#119);
#33=STYLED_ITEM('',(#120),#121);
#34=STYLED_ITEM('',(#122),#123);
#35=STYLED_ITEM('',(#124),#125);
#36=STYLED_ITEM('',(#126),#127);
#37=STYLED_ITEM('',(#128),#129);
#38=STYLED_ITEM('',(#130),#131);
#39=STYLED_ITEM('',(#132),#133);
#40=STYLED_ITEM('',(#134),#135);
#41=STYLED_ITEM('',(#136),#137);
#42=STYLED_ITEM('',(#138),#139);
#43=STYLED_ITEM('',(#140),#141);
#44=STYLED_ITEM('',(#142),#143);
#45=STYLED_ITEM('',(#144),#145);
#46=STYLED_ITEM('',(#146),#147);
#47=STYLED_ITEM('',(#148),#149);
#48=STYLED_ITEM('',(#150),#151);
#49=STYLED_ITEM('',(#152),#153);
#50=STYLED_ITEM('',(#154),#155);
#51=STYLED_ITEM('',(#156),#157);
#52=STYLED_ITEM('',(#158),#159);
#53=STYLED_ITEM('',(#160),#161);
#54=STYLED_ITEM('',(#162),#163);
#55=STYLED_ITEM('',(#164),#165);
#56=STYLED_ITEM('',(#166),#167);
#57=STYLED_ITEM('',(#168),#169);
#58=STYLED_ITEM('',(#170),#171);
#59=STYLED_ITEM('',(#172),#173);
#60=STYLED_ITEM('',(#174),#175);
#61=APPLICATION_CONTEXT(' ');
#62=PRODUCT_CATEGORY('part','NONE');
#63=PRODUCT_RELATED_PRODUCT_CATEGORY('detail',' ',(#176));
#64=PRODUCT_DEFINITION_SHAPE('NONE','NONE',#177);
#65=ADVANCED_BREP_SHAPE_REPRESENTATION('1',(#161,#178),#6);
#68=UNCERTAINTY_MEASURE_WITH_UNIT(LENGTH_MEASURE(1.0E-006),#70,'','');
#70= (CONVERSION_BASED_UNIT('MILLIMETRE',#181)LENGTH_UNIT()NAMED_UNIT(#184));
#71= (NAMED_UNIT(#186)PLANE_ANGLE_UNIT()SI_UNIT($,.RADIAN.));
#72= (NAMED_UNIT(#186)SOLID_ANGLE_UNIT()SI_UNIT($,.STERADIAN.));
#74=PRESENTATION_STYLE_ASSIGNMENT((#192));
#75=ADVANCED_FACE('',(#193),#194,.T.);
#76=PRESENTATION_STYLE_ASSIGNMENT((#195));
#77=EDGE_CURVE('',#169,#115,#196,.T.);
#78=PRESENTATION_STYLE_ASSIGNMENT((#197));
#79=EDGE_CURVE('',#129,#111,#198,.T.);
#80=PRESENTATION_STYLE_ASSIGNMENT((#199));
#81=VERTEX_POINT('',#200);
#82=PRESENTATION_STYLE_ASSIGNMENT((#201));
#83=VERTEX_POINT('',#202);
#84=PRESENTATION_STYLE_ASSIGNMENT((#203));
#85=EDGE_CURVE('',#95,#105,#204,.T.);
#86=PRESENTATION_STYLE_ASSIGNMENT((#205));
#87=VERTEX_POINT('',#206);
#88=PRESENTATION_STYLE_ASSIGNMENT((#207));
#89=VERTEX_POINT('',#208);
#90=PRESENTATION_STYLE_ASSIGNMENT((#209));
#91=EDGE_CURVE('',#137,#171,#210,.T.);
#92=PRESENTATION_STYLE_ASSIGNMENT((#211));
#93=VERTEX_POINT('',#212);
#94=PRESENTATION_STYLE_ASSIGNMENT((#213));
#95=VERTEX_POINT('',#214);
#96=PRESENTATION_STYLE_ASSIGNMENT((#215));
#97=EDGE_CURVE('',#83,#137,#216,.T.);
#98=PRESENTATION_STYLE_ASSIGNMENT((#217));
#99=ADVANCED_FACE('',(#218),#219,.F.);
#100=PRESENTATION_STYLE_ASSIGNMENT((#220));
#101=ADVANCED_FACE('',(#221),#222,.T.);
#102=PRESENTATION_STYLE_ASSIGNMENT((#223));
#103=EDGE_CURVE('',#171,#129,#224,.T.);
#104=PRESENTATION_STYLE_ASSIGNMENT((#225));
#105=VERTEX_POINT('',#226);
#106=PRESENTATION_STYLE_ASSIGNMENT((#227));
#107=EDGE_CURVE('',#141,#93,#228,.T.);
#108=PRESENTATION_STYLE_ASSIGNMENT((#229));
#109=ADVANCED_FACE('',(#230),#231,.T.);
#110=PRESENTATION_STYLE_ASSIGNMENT((#232));
#111=VERTEX_POINT('',#233);
#112=PRESENTATION_STYLE_ASSIGNMENT((#234));
#113=EDGE_CURVE('',#81,#141,#235,.T.);
#114=PRESENTATION_STYLE_ASSIGNMENT((#236));
#115=VERTEX_POINT('',#237);
#116=PRESENTATION_STYLE_ASSIGNMENT((#238));
#117=EDGE_CURVE('',#119,#89,#239,.T.);
#118=PRESENTATION_STYLE_ASSIGNMENT((#240));
#119=VERTEX_POINT('',#241);
#120=PRESENTATION_STYLE_ASSIGNMENT((#242));
#121=EDGE_CURVE('',#105,#119,#243,.T.);
#122=PRESENTATION_STYLE_ASSIGNMENT((#244));
#123=VERTEX_POINT('',#245);
#124=PRESENTATION_STYLE_ASSIGNMENT((#246));
#125=EDGE_CURVE('',#95,#115,#247,.T.);
#126=PRESENTATION_STYLE_ASSIGNMENT((#248));
#127=ADVANCED_FACE('',(#249),#250,.T.);
#128=PRESENTATION_STYLE_ASSIGNMENT((#251));
#129=VERTEX_POINT('',#252);
#130=PRESENTATION_STYLE_ASSIGNMENT((#253));
#131=EDGE_CURVE('',#93,#169,#254,.T.);
#132=PRESENTATION_STYLE_ASSIGNMENT((#255));
#133=ADVANCED_FACE('',(#256),#257,.T.);
#134=PRESENTATION_STYLE_ASSIGNMENT((#258));
#135=ADVANCED_FACE('',(#259),#260,.T.);
#136=PRESENTATION_STYLE_ASSIGNMENT((#261));
#137=VERTEX_POINT('',#262);
#138=PRESENTATION_STYLE_ASSIGNMENT((#263));
#139=EDGE_CURVE('',#137,#123,#264,.T.);
#140=PRESENTATION_STYLE_ASSIGNMENT((#265));
#141=VERTEX_POINT('',#266);
#142=PRESENTATION_STYLE_ASSIGNMENT((#267));
#143=ADVANCED_FACE('',(#268),#269,.T.);
#144=PRESENTATION_STYLE_ASSIGNMENT((#270));
#145=EDGE_CURVE('',#105,#83,#271,.T.);
#146=PRESENTATION_STYLE_ASSIGNMENT((#272));
#147=EDGE_CURVE('',#89,#123,#273,.T.);
#148=PRESENTATION_STYLE_ASSIGNMENT((#274));
#149=EDGE_CURVE('',#87,#169,#275,.T.);
#150=PRESENTATION_STYLE_ASSIGNMENT((#276));
#151=EDGE_CURVE('',#115,#119,#277,.T.);
#152=PRESENTATION_STYLE_ASSIGNMENT((#278));
#153=EDGE_CURVE('',#123,#129,#279,.T.);
#154=PRESENTATION_STYLE_ASSIGNMENT((#280));
#155=EDGE_CURVE('',#171,#81,#281,.T.);
#156=PRESENTATION_STYLE_ASSIGNMENT((#282));
#157=ADVANCED_FACE('',(#283),#284,.T.);
#158=PRESENTATION_STYLE_ASSIGNMENT((#285));
#159=EDGE_CURVE('',#83,#89,#286,.T.);
#160=PRESENTATION_STYLE_ASSIGNMENT((#287));
#161=MANIFOLD_SOLID_BREP('1',#288);
#162=PRESENTATION_STYLE_ASSIGNMENT((#289));
#163=ADVANCED_FACE('',(#290),#291,.T.);
#164=PRESENTATION_STYLE_ASSIGNMENT((#292));
#165=EDGE_CURVE('',#141,#87,#293,.T.);
#166=PRESENTATION_STYLE_ASSIGNMENT((#294));
#167=EDGE_CURVE('',#111,#87,#295,.T.);
#168=PRESENTATION_STYLE_ASSIGNMENT((#296));
#169=VERTEX_POINT('',#297);
#170=PRESENTATION_STYLE_ASSIGNMENT((#298));
#171=VERTEX_POINT('',#299);
#172=PRESENTATION_STYLE_ASSIGNMENT((#300));
#173=EDGE_CURVE('',#81,#111,#301,.T.);
#174=PRESENTATION_STYLE_ASSIGNMENT((#302));
#175=EDGE_CURVE('',#93,#95,#303,.T.);
#176=PRODUCT('1','1','PART-1-DESC',(#304));
#177=PRODUCT_DEFINITION('NONE','NONE',#305,#2);
#178=AXIS2_PLACEMENT_3D('',#306,#307,#308);
#181=LENGTH_MEASURE_WITH_UNIT(LENGTH_MEASURE(1.0),#309);
#184=DIMENSIONAL_EXPONENTS(1.0,0.0,0.0,0.0,0.0,0.0,0.0);
#186=DIMENSIONAL_EXPONENTS(0.0,0.0,0.0,0.0,0.0,0.0,0.0);
#192=SURFACE_STYLE_USAGE(.BOTH.,#310);
#193=FACE_OUTER_BOUND('',#311,.T.);
#194=CONICAL_SURFACE('',#312,0.8,0.139626340159547);
#195=CURVE_STYLE('',#313,POSITIVE_LENGTH_MEASURE(1.0E-006),#314);
#196=CIRCLE('',#315,0.237836661190439);
#197=CURVE_STYLE('',#316,POSITIVE_LENGTH_MEASURE(1.0E-006),#317);
#198=LINE('',#318,#319);
#199=POINT_STYLE(' ',#320,POSITIVE_LENGTH_MEASURE(1.0E-006),#321);
#200=CARTESIAN_POINT('',(8.82,0.0,0.0));
#201=POINT_STYLE(' ',#322,POSITIVE_LENGTH_MEASURE(1.0E-006),#323);
#202=CARTESIAN_POINT('',(1.00000341340944E-010,8.82,0.0));
#203=CURVE_STYLE('',#324,POSITIVE_LENGTH_MEASURE(1.0E-006),#325);
#204=LINE('',#326,#327);
#205=POINT_STYLE(' ',#328,POSITIVE_LENGTH_MEASURE(1.0E-006),#329);
#206=CARTESIAN_POINT('',(9.05783666119043,0.8,-4.0));
#207=POINT_STYLE(' ',#330,POSITIVE_LENGTH_MEASURE(1.0E-006),#331);
#208=CARTESIAN_POINT('',(0.562163338809567,8.82,-4.0));
#209=CURVE_STYLE('',#332,POSITIVE_LENGTH_MEASURE(1.0E-006),#333);
#210=CIRCLE('',#334,0.8);
#211=POINT_STYLE(' ',#335,POSITIVE_LENGTH_MEASURE(1.0E-006),#336);
#212=CARTESIAN_POINT('',(9.62,8.82,0.0));
#213=POINT_STYLE(' ',#337,POSITIVE_LENGTH_MEASURE(1.0E-006),#338);
#214=CARTESIAN_POINT('',(8.82,9.6199999999,0.0));
#215=CURVE_STYLE('',#339,POSITIVE_LENGTH_MEASURE(1.0E-006),#340);
#216=LINE('',#341,#342);
#217=SURFACE_STYLE_USAGE(.BOTH.,#343);
#218=FACE_OUTER_BOUND('',#344,.T.);
#219=PLANE('',#345);
#220=SURFACE_STYLE_USAGE(.BOTH.,#346);
#221=FACE_OUTER_BOUND('',#347,.T.);
#222=CONICAL_SURFACE('',#348,0.800000000000006,0.139626340159547);
#223=CURVE_STYLE('',#349,POSITIVE_LENGTH_MEASURE(1.0E-006),#350);
#224=LINE('',#351,#352);
#225=POINT_STYLE(' ',#353,POSITIVE_LENGTH_MEASURE(1.0E-006),#354);
#226=CARTESIAN_POINT('',(0.800000000000001,9.62,0.0));
#227=CURVE_STYLE('',#355,POSITIVE_LENGTH_MEASURE(1.0E-006),#356);
#228=LINE('',#357,#358);
#229=SURFACE_STYLE_USAGE(.BOTH.,#359);
#230=FACE_OUTER_BOUND('',#360,.T.);
#231=PLANE('',#361);
#232=POINT_STYLE(' ',#362,POSITIVE_LENGTH_MEASURE(1.0E-006),#363);
#233=CARTESIAN_POINT('',(8.81999999992973,0.562163338909568,-4.0));
#234=CURVE_STYLE('',#364,POSITIVE_LENGTH_MEASURE(1.0E-006),#365);
#235=CIRCLE('',#366,0.8);
#236=POINT_STYLE(' ',#367,POSITIVE_LENGTH_MEASURE(1.0E-006),#368);
#237=CARTESIAN_POINT('',(8.82,9.05783666119043,-4.0));
#238=CURVE_STYLE('',#369,POSITIVE_LENGTH_MEASURE(1.0E-006),#370);
#239=CIRCLE('',#371,0.237836661190437);
#240=POINT_STYLE(' ',#372,POSITIVE_LENGTH_MEASURE(1.0E-006),#373);
#241=CARTESIAN_POINT('',(0.800000000070274,9.05783666109043,-4.0));
#242=CURVE_STYLE('',#374,POSITIVE_LENGTH_MEASURE(1.0E-006),#375);
#243=LINE('',#376,#377);
#244=POINT_STYLE(' ',#378,POSITIVE_LENGTH_MEASURE(1.0E-006),#379);
#245=CARTESIAN_POINT('',(0.562163338909568,0.80000000007027,-4.0));
#246=CURVE_STYLE('',#380,POSITIVE_LENGTH_MEASURE(1.0E-006),#381);
#247=LINE('',#382,#383);
#248=SURFACE_STYLE_USAGE(.BOTH.,#384);
#249=FACE_OUTER_BOUND('',#385,.T.);
#250=PLANE('',#386);
#251=POINT_STYLE(' ',#387,POSITIVE_LENGTH_MEASURE(1.0E-006),#388);
#252=CARTESIAN_POINT('',(0.8,0.562163338809567,-4.0));
#253=CURVE_STYLE('',#389,POSITIVE_LENGTH_MEASURE(1.0E-006),#390);
#254=LINE('',#391,#392);
#255=SURFACE_STYLE_USAGE(.BOTH.,#393);
#256=FACE_OUTER_BOUND('',#394,.T.);
#257=CONICAL_SURFACE('',#395,0.8,0.139626340159547);
#258=SURFACE_STYLE_USAGE(.BOTH.,#396);
#259=FACE_OUTER_BOUND('',#397,.T.);
#260=PLANE('',#398);
#261=POINT_STYLE(' ',#399,POSITIVE_LENGTH_MEASURE(1.0E-006),#400);
#262=CARTESIAN_POINT('',(0.0,0.800000000000001,0.0));
#263=CURVE_STYLE('',#401,POSITIVE_LENGTH_MEASURE(1.0E-006),#402);
#264=LINE('',#403,#404);
#265=POINT_STYLE(' ',#405,POSITIVE_LENGTH_MEASURE(1.0E-006),#406);
#266=CARTESIAN_POINT('',(9.6199999999,0.8,0.0));
#267=SURFACE_STYLE_USAGE(.BOTH.,#407);
#268=FACE_OUTER_BOUND('',#408,.T.);
#269=PLANE('',#409);
#270=CURVE_STYLE('',#410,POSITIVE_LENGTH_MEASURE(1.0E-006),#411);
#271=CIRCLE('',#412,0.800000000000004);
#272=CURVE_STYLE('',#413,POSITIVE_LENGTH_MEASURE(1.0E-006),#414);
#273=LINE('',#415,#416);
#274=CURVE_STYLE('',#417,POSITIVE_LENGTH_MEASURE(1.0E-006),#418);
#275=LINE('',#419,#420);
#276=CURVE_STYLE('',#421,POSITIVE_LENGTH_MEASURE(1.0E-006),#422);
#277=LINE('',#423,#424);
#278=CURVE_STYLE('',#425,POSITIVE_LENGTH_MEASURE(1.0E-006),#426);
#279=CIRCLE('',#427,0.237836661190432);
#280=CURVE_STYLE('',#428,POSITIVE_LENGTH_MEASURE(1.0E-006),#429);
#281=LINE('',#430,#431);
#282=SURFACE_STYLE_USAGE(.BOTH.,#432);
#283=FACE_OUTER_BOUND('',#433,.T.);
#284=PLANE('',#434);
#285=CURVE_STYLE('',#435,POSITIVE_LENGTH_MEASURE(1.0E-006),#436);
#286=LINE('',#437,#438);
#287=SURFACE_STYLE_USAGE(.BOTH.,#439);
#288=CLOSED_SHELL('',(#75,#109,#101,#157,#163,#143,#133,#127,#99,#135));
#289=SURFACE_STYLE_USAGE(.BOTH.,#440);
#290=FACE_OUTER_BOUND('',#441,.T.);
#291=CONICAL_SURFACE('',#442,0.800000000000004,0.139626340159547);
#292=CURVE_STYLE('',#443,POSITIVE_LENGTH_MEASURE(1.0E-006),#444);
#293=LINE('',#445,#446);
#294=CURVE_STYLE('',#447,POSITIVE_LENGTH_MEASURE(1.0E-006),#448);
#295=CIRCLE('',#449,0.237836661190433);
#296=POINT_STYLE(' ',#450,POSITIVE_LENGTH_MEASURE(1.0E-006),#451);
#297=CARTESIAN_POINT('',(9.05783666109043,8.81999999992973,-4.0));
#298=POINT_STYLE(' ',#452,POSITIVE_LENGTH_MEASURE(1.0E-006),#453);
#299=CARTESIAN_POINT('',(0.8,0.0,0.0));
#300=CURVE_STYLE('',#454,POSITIVE_LENGTH_MEASURE(1.0E-006),#455);
#301=LINE('',#456,#457);
#302=CURVE_STYLE('',#458,POSITIVE_LENGTH_MEASURE(1.0E-006),#459);
#303=CIRCLE('',#460,0.800000000000006);
#304=PRODUCT_CONTEXT('',#61,'mechanical');
#305=PRODUCT_DEFINITION_FORMATION_WITH_SPECIFIED_SOURCE(' ','NONE',#176,.NOT_KNOWN.);
#306=CARTESIAN_POINT('',(0.0,0.0,0.0));
#307=DIRECTION('',(0.0,0.0,1.0));
#308=DIRECTION('',(1.0,0.0,0.0));
#309= (NAMED_UNIT(#184)LENGTH_UNIT()SI_UNIT(.MILLI.,.METRE.));
#310=SURFACE_SIDE_STYLE('',(#462));
#311=EDGE_LOOP('',(#463,#464,#465,#466));
#312=AXIS2_PLACEMENT_3D('',#467,#468,#469);
#313=DRAUGHTING_PRE_DEFINED_CURVE_FONT('continuous');
#314=COLOUR_RGB('',0.800000011920929,0.800000011920929,0.800000011920929);
#315=AXIS2_PLACEMENT_3D('',#470,#471,#472);
#316=DRAUGHTING_PRE_DEFINED_CURVE_FONT('continuous');
#317=COLOUR_RGB('',0.800000011920929,0.800000011920929,0.800000011920929);
#318=CARTESIAN_POINT('',(0.8,0.562163338809567,-4.0));
#319=VECTOR('',#473,1.0);
#320=PRE_DEFINED_MARKER('');
#321=COLOUR_RGB('',0.800000011920929,0.800000011920929,0.800000011920929);
#322=PRE_DEFINED_MARKER('');
#323=COLOUR_RGB('',0.800000011920929,0.800000011920929,0.800000011920929);
#324=DRAUGHTING_PRE_DEFINED_CURVE_FONT('continuous');
#325=COLOUR_RGB('',0.800000011920929,0.800000011920929,0.800000011920929);
#326=CARTESIAN_POINT('',(8.82,9.62,0.0));
#327=VECTOR('',#474,1.0);
#328=PRE_DEFINED_MARKER('');
#329=COLOUR_RGB('',0.800000011920929,0.800000011920929,0.800000011920929);
#330=PRE_DEFINED_MARKER('');
#331=COLOUR_RGB('',0.800000011920929,0.800000011920929,0.800000011920929);
#332=DRAUGHTING_PRE_DEFINED_CURVE_FONT('continuous');
#333=COLOUR_RGB('',0.800000011920929,0.800000011920929,0.800000011920929);
#334=AXIS2_PLACEMENT_3D('',#475,#476,#477);
#335=PRE_DEFINED_MARKER('');
#336=COLOUR_RGB('',0.800000011920929,0.800000011920929,0.800000011920929);
#337=PRE_DEFINED_MARKER('');
#338=COLOUR_RGB('',0.800000011920929,0.800000011920929,0.800000011920929);
#339=DRAUGHTING_PRE_DEFINED_CURVE_FONT('continuous');
#340=COLOUR_RGB('',0.800000011920929,0.800000011920929,0.800000011920929);
#341=CARTESIAN_POINT('',(0.0,8.82,0.0));
#342=VECTOR('',#478,1.0);
#343=SURFACE_SIDE_STYLE('',(#479));
#344=EDGE_LOOP('',(#480,#481,#482,#483,#484,#485,#486,#487));
#345=AXIS2_PLACEMENT_3D('',#488,#489,#490);
#346=SURFACE_SIDE_STYLE('',(#491));
#347=EDGE_LOOP('',(#492,#493,#494,#495));
#348=AXIS2_PLACEMENT_3D('',#496,#497,#498);
#349=DRAUGHTING_PRE_DEFINED_CURVE_FONT('continuous');
#350=COLOUR_RGB('',0.800000011920929,0.800000011920929,0.800000011920929);
#351=CARTESIAN_POINT('',(0.8,0.0,0.0));
#352=VECTOR('',#499,1.0);
#353=PRE_DEFINED_MARKER('');
#354=COLOUR_RGB('',0.800000011920929,0.800000011920929,0.800000011920929);
#355=DRAUGHTING_PRE_DEFINED_CURVE_FONT('continuous');
#356=COLOUR_RGB('',0.800000011920929,0.800000011920929,0.800000011920929);
#357=CARTESIAN_POINT('',(9.62,0.8,0.0));
#358=VECTOR('',#500,1.0);
#359=SURFACE_SIDE_STYLE('',(#501));
#360=EDGE_LOOP('',(#502,#503,#504,#505));
#361=AXIS2_PLACEMENT_3D('',#506,#507,#508);
#362=PRE_DEFINED_MARKER('');
#363=COLOUR_RGB('',0.800000011920929,0.800000011920929,0.800000011920929);
#364=DRAUGHTING_PRE_DEFINED_CURVE_FONT('continuous');
#365=COLOUR_RGB('',0.800000011920929,0.800000011920929,0.800000011920929);
#366=AXIS2_PLACEMENT_3D('',#509,#510,#511);
#367=PRE_DEFINED_MARKER('');
#368=COLOUR_RGB('',0.800000011920929,0.800000011920929,0.800000011920929);
#369=DRAUGHTING_PRE_DEFINED_CURVE_FONT('continuous');
#370=COLOUR_RGB('',0.800000011920929,0.800000011920929,0.800000011920929);
#371=AXIS2_PLACEMENT_3D('',#512,#513,#514);
#372=PRE_DEFINED_MARKER('');
#373=COLOUR_RGB('',0.800000011920929,0.800000011920929,0.800000011920929);
#374=DRAUGHTING_PRE_DEFINED_CURVE_FONT('continuous');
#375=COLOUR_RGB('',0.800000011920929,0.800000011920929,0.800000011920929);
#376=CARTESIAN_POINT('',(0.800000000000001,9.62,0.0));
#377=VECTOR('',#515,1.0);
#378=PRE_DEFINED_MARKER('');
#379=COLOUR_RGB('',0.800000011920929,0.800000011920929,0.800000011920929);
#380=DRAUGHTING_PRE_DEFINED_CURVE_FONT('continuous');
#381=COLOUR_RGB('',0.800000011920929,0.800000011920929,0.800000011920929);
#382=CARTESIAN_POINT('',(8.82,9.6199999999,0.0));
#383=VECTOR('',#516,1.0);
#384=SURFACE_SIDE_STYLE('',(#517));
#385=EDGE_LOOP('',(#518,#519,#520,#521));
#386=AXIS2_PLACEMENT_3D('',#522,#523,#524);
#387=PRE_DEFINED_MARKER('');
#388=COLOUR_RGB('',0.800000011920929,0.800000011920929,0.800000011920929);
#389=DRAUGHTING_PRE_DEFINED_CURVE_FONT('continuous');
#390=COLOUR_RGB('',0.800000011920929,0.800000011920929,0.800000011920929);
#391=CARTESIAN_POINT('',(9.62,8.82,0.0));
#392=VECTOR('',#525,1.0);
#393=SURFACE_SIDE_STYLE('',(#526));
#394=EDGE_LOOP('',(#527,#528,#529,#530));
#395=AXIS2_PLACEMENT_3D('',#531,#532,#533);
#396=SURFACE_SIDE_STYLE('',(#534));
#397=EDGE_LOOP('',(#535,#536,#537,#538,#539,#540,#541,#542));
#398=AXIS2_PLACEMENT_3D('',#543,#544,#545);
#399=PRE_DEFINED_MARKER('');
#400=COLOUR_RGB('',0.800000011920929,0.800000011920929,0.800000011920929);
#401=DRAUGHTING_PRE_DEFINED_CURVE_FONT('continuous');
#402=COLOUR_RGB('',0.800000011920929,0.800000011920929,0.800000011920929);
#403=CARTESIAN_POINT('',(0.0,0.800000000000001,0.0));
#404=VECTOR('',#546,1.0);
#405=PRE_DEFINED_MARKER('');
#406=COLOUR_RGB('',0.800000011920929,0.800000011920929,0.800000011920929);
#407=SURFACE_SIDE_STYLE('',(#547));
#408=EDGE_LOOP('',(#548,#549,#550,#551));
#409=AXIS2_PLACEMENT_3D('',#552,#553,#554);
#410=DRAUGHTING_PRE_DEFINED_CURVE_FONT('continuous');
#411=COLOUR_RGB('',0.800000011920929,0.800000011920929,0.800000011920929);
#412=AXIS2_PLACEMENT_3D('',#555,#556,#557);
#413=DRAUGHTING_PRE_DEFINED_CURVE_FONT('continuous');
#414=COLOUR_RGB('',0.800000011920929,0.800000011920929,0.800000011920929);
#415=CARTESIAN_POINT('',(0.562163338809567,8.82,-4.0));
#416=VECTOR('',#558,1.0);
#417=DRAUGHTING_PRE_DEFINED_CURVE_FONT('continuous');
#418=COLOUR_RGB('',0.800000011920929,0.800000011920929,0.800000011920929);
#419=CARTESIAN_POINT('',(9.05783666119043,0.8,-4.0));
#420=VECTOR('',#559,1.0);
#421=DRAUGHTING_PRE_DEFINED_CURVE_FONT('continuous');
#422=COLOUR_RGB('',0.800000011920929,0.800000011920929,0.800000011920929);
#423=CARTESIAN_POINT('',(8.82,9.05783666119043,-4.0));
#424=VECTOR('',#560,1.0);
#425=DRAUGHTING_PRE_DEFINED_CURVE_FONT('continuous');
#426=COLOUR_RGB('',0.800000011920929,0.800000011920929,0.800000011920929);
#427=AXIS2_PLACEMENT_3D('',#561,#562,#563);
#428=DRAUGHTING_PRE_DEFINED_CURVE_FONT('continuous');
#429=COLOUR_RGB('',0.800000011920929,0.800000011920929,0.800000011920929);
#430=CARTESIAN_POINT('',(0.8,0.0,0.0));
#431=VECTOR('',#564,1.0);
#432=SURFACE_SIDE_STYLE('',(#565));
#433=EDGE_LOOP('',(#566,#567,#568,#569));
#434=AXIS2_PLACEMENT_3D('',#570,#571,#572);
#435=DRAUGHTING_PRE_DEFINED_CURVE_FONT('continuous');
#436=COLOUR_RGB('',0.800000011920929,0.800000011920929,0.800000011920929);
#437=CARTESIAN_POINT('',(1.00000341340944E-010,8.82,0.0));
#438=VECTOR('',#573,1.0);
#439=SURFACE_SIDE_STYLE('',(#574));
#440=SURFACE_SIDE_STYLE('',(#575));
#441=EDGE_LOOP('',(#576,#577,#578,#579));
#442=AXIS2_PLACEMENT_3D('',#580,#581,#582);
#443=DRAUGHTING_PRE_DEFINED_CURVE_FONT('continuous');
#444=COLOUR_RGB('',0.800000011920929,0.800000011920929,0.800000011920929);
#445=CARTESIAN_POINT('',(9.6199999999,0.8,0.0));
#446=VECTOR('',#583,1.0);
#447=DRAUGHTING_PRE_DEFINED_CURVE_FONT('continuous');
#448=COLOUR_RGB('',0.800000011920929,0.800000011920929,0.800000011920929);
#449=AXIS2_PLACEMENT_3D('',#584,#585,#586);
#450=PRE_DEFINED_MARKER('');
#451=COLOUR_RGB('',0.800000011920929,0.800000011920929,0.800000011920929);
#452=PRE_DEFINED_MARKER('');
#453=COLOUR_RGB('',0.800000011920929,0.800000011920929,0.800000011920929);
#454=DRAUGHTING_PRE_DEFINED_CURVE_FONT('continuous');
#455=COLOUR_RGB('',0.800000011920929,0.800000011920929,0.800000011920929);
#456=CARTESIAN_POINT('',(8.82,0.0,0.0));
#457=VECTOR('',#587,1.0);
#458=DRAUGHTING_PRE_DEFINED_CURVE_FONT('continuous');
#459=COLOUR_RGB('',0.800000011920929,0.800000011920929,0.800000011920929);
#460=AXIS2_PLACEMENT_3D('',#588,#589,#590);
#462=SURFACE_STYLE_FILL_AREA(#591);
#463=ORIENTED_EDGE('',*,*,#167,.T.);
#464=ORIENTED_EDGE('',*,*,#165,.F.);
#465=ORIENTED_EDGE('',*,*,#113,.F.);
#466=ORIENTED_EDGE('',*,*,#173,.T.);
#467=CARTESIAN_POINT('',(8.8199999999,0.800000000100001,0.0));
#468=DIRECTION('',(-0.0,-0.0,1.0));
#469=DIRECTION('',(1.25000010342546E-010,-1.0,0.0));
#470=CARTESIAN_POINT('',(8.81999999989999,8.81999999989999,-4.0));
#471=DIRECTION('',(0.0,-0.0,1.0));
#472=DIRECTION('',(1.0,1.25004451234644E-010,0.0));
#473=DIRECTION('',(1.0,0.0,0.0));
#474=DIRECTION('',(-1.0,0.0,0.0));
#475=CARTESIAN_POINT('',(0.8000000001,0.8000000001,0.0));
#476=DIRECTION('',(0.0,0.0,1.0));
#477=DIRECTION('',(-1.0,-1.24999455231034E-010,0.0));
#478=DIRECTION('',(0.0,-1.0,0.0));
#479=SURFACE_STYLE_FILL_AREA(#592);
#480=ORIENTED_EDGE('',*,*,#167,.F.);
#481=ORIENTED_EDGE('',*,*,#79,.F.);
#482=ORIENTED_EDGE('',*,*,#153,.F.);
#483=ORIENTED_EDGE('',*,*,#147,.F.);
#484=ORIENTED_EDGE('',*,*,#117,.F.);
#485=ORIENTED_EDGE('',*,*,#151,.F.);
#486=ORIENTED_EDGE('',*,*,#77,.F.);
#487=ORIENTED_EDGE('',*,*,#149,.F.);
#488=CARTESIAN_POINT('',(4.81,4.81,-4.0));
#489=DIRECTION('',(0.0,0.0,1.0));
#490=DIRECTION('',(1.0,0.0,0.0));
#491=SURFACE_STYLE_FILL_AREA(#593);
#492=ORIENTED_EDGE('',*,*,#77,.T.);
#493=ORIENTED_EDGE('',*,*,#125,.F.);
#494=ORIENTED_EDGE('',*,*,#175,.F.);
#495=ORIENTED_EDGE('',*,*,#131,.T.);
#496=CARTESIAN_POINT('',(8.81999999989999,8.81999999989999,0.0));
#497=DIRECTION('',(-0.0,-0.0,1.0));
#498=DIRECTION('',(1.0,1.25004451234644E-010,0.0));
#499=DIRECTION('',(0.0,0.139173100960066,-0.99026806874157));
#500=DIRECTION('',(0.0,1.0,0.0));
#501=SURFACE_STYLE_FILL_AREA(#594);
#502=ORIENTED_EDGE('',*,*,#149,.T.);
#503=ORIENTED_EDGE('',*,*,#131,.F.);
#504=ORIENTED_EDGE('',*,*,#107,.F.);
#505=ORIENTED_EDGE('',*,*,#165,.T.);
#506=CARTESIAN_POINT('',(9.6199999999,0.8,0.0));
#507=DIRECTION('',(0.990268068744982,-0.0,-0.139173100935789));
#508=DIRECTION('',(-0.0,-1.0,0.0));
#509=CARTESIAN_POINT('',(8.8199999999,0.800000000100001,0.0));
#510=DIRECTION('',(0.0,0.0,1.0));
#511=DIRECTION('',(1.25000010342546E-010,-1.0,0.0));
#512=CARTESIAN_POINT('',(0.800000000100005,8.81999999989999,-4.0));
#513=DIRECTION('',(0.0,0.0,1.0));
#514=DIRECTION('',(-1.25005977791303E-010,1.0,0.0));
#515=DIRECTION('',(1.73973068690264E-011,-0.139173100984343,-0.990268068738158));
#516=DIRECTION('',(0.0,-0.139173100935789,-0.990268068744982));
#517=SURFACE_STYLE_FILL_AREA(#595);
#518=ORIENTED_EDGE('',*,*,#79,.T.);
#519=ORIENTED_EDGE('',*,*,#173,.F.);
#520=ORIENTED_EDGE('',*,*,#155,.F.);
#521=ORIENTED_EDGE('',*,*,#103,.T.);
#522=CARTESIAN_POINT('',(0.8,0.0,0.0));
#523=DIRECTION('',(-0.0,-0.99026806874157,-0.139173100960066));
#524=DIRECTION('',(-1.0,0.0,0.0));
#525=DIRECTION('',(-0.139173100984343,-1.73971969271853E-011,-0.990268068738158));
#526=SURFACE_STYLE_FILL_AREA(#596);
#527=ORIENTED_EDGE('',*,*,#153,.T.);
#528=ORIENTED_EDGE('',*,*,#103,.F.);
#529=ORIENTED_EDGE('',*,*,#91,.F.);
#530=ORIENTED_EDGE('',*,*,#139,.T.);
#531=CARTESIAN_POINT('',(0.8000000001,0.8000000001,0.0));
#532=DIRECTION('',(0.0,-0.0,1.0));
#533=DIRECTION('',(-1.0,-1.24999455231034E-010,0.0));
#534=SURFACE_STYLE_FILL_AREA(#597);
#535=ORIENTED_EDGE('',*,*,#155,.T.);
#536=ORIENTED_EDGE('',*,*,#113,.T.);
#537=ORIENTED_EDGE('',*,*,#107,.T.);
#538=ORIENTED_EDGE('',*,*,#175,.T.);
#539=ORIENTED_EDGE('',*,*,#85,.T.);
#540=ORIENTED_EDGE('',*,*,#145,.T.);
#541=ORIENTED_EDGE('',*,*,#97,.T.);
#542=ORIENTED_EDGE('',*,*,#91,.T.);
#543=CARTESIAN_POINT('',(4.81,4.81,0.0));
#544=DIRECTION('',(0.0,0.0,1.0));
#545=DIRECTION('',(1.0,0.0,0.0));
#546=DIRECTION('',(0.139173100984343,1.73964548197583E-011,-0.990268068738158));
#547=SURFACE_STYLE_FILL_AREA(#598);
#548=ORIENTED_EDGE('',*,*,#147,.T.);
#549=ORIENTED_EDGE('',*,*,#139,.F.);
#550=ORIENTED_EDGE('',*,*,#97,.F.);
#551=ORIENTED_EDGE('',*,*,#159,.T.);
#552=CARTESIAN_POINT('',(1.00000341340944E-010,8.82,0.0));
#553=DIRECTION('',(-0.990268068744982,0.0,-0.139173100935789));
#554=DIRECTION('',(0.0,1.0,0.0));
#555=CARTESIAN_POINT('',(0.800000000100005,8.81999999989999,0.0));
#556=DIRECTION('',(0.0,0.0,1.0));
#557=DIRECTION('',(-1.25005977791303E-010,1.0,0.0));
#558=DIRECTION('',(0.0,-1.0,0.0));
#559=DIRECTION('',(0.0,1.0,0.0));
#560=DIRECTION('',(-1.0,0.0,0.0));
#561=CARTESIAN_POINT('',(0.8000000001,0.8000000001,-4.0));
#562=DIRECTION('',(0.0,0.0,1.0));
#563=DIRECTION('',(-1.0,-1.24999455231034E-010,0.0));
#564=DIRECTION('',(1.0,0.0,0.0));
#565=SURFACE_STYLE_FILL_AREA(#599);
#566=ORIENTED_EDGE('',*,*,#151,.T.);
#567=ORIENTED_EDGE('',*,*,#121,.F.);
#568=ORIENTED_EDGE('',*,*,#85,.F.);
#569=ORIENTED_EDGE('',*,*,#125,.T.);
#570=CARTESIAN_POINT('',(8.82,9.6199999999,0.0));
#571=DIRECTION('',(0.0,0.990268068744982,-0.139173100935789));
#572=DIRECTION('',(1.0,-0.0,0.0));
#573=DIRECTION('',(0.139173100935789,0.0,-0.990268068744982));
#574=SURFACE_STYLE_FILL_AREA(#600);
#575=SURFACE_STYLE_FILL_AREA(#601);
#576=ORIENTED_EDGE('',*,*,#117,.T.);
#577=ORIENTED_EDGE('',*,*,#159,.F.);
#578=ORIENTED_EDGE('',*,*,#145,.F.);
#579=ORIENTED_EDGE('',*,*,#121,.T.);
#580=CARTESIAN_POINT('',(0.800000000100005,8.81999999989999,0.0));
#581=DIRECTION('',(-0.0,-0.0,1.0));
#582=DIRECTION('',(-1.25005977791303E-010,1.0,0.0));
#583=DIRECTION('',(-0.139173100935789,0.0,-0.990268068744982));
#584=CARTESIAN_POINT('',(8.8199999999,0.800000000100001,-4.0));
#585=DIRECTION('',(0.0,0.0,1.0));
#586=DIRECTION('',(1.25000010342546E-010,-1.0,0.0));
#587=DIRECTION('',(-1.73967571598212E-011,0.139173100984343,-0.990268068738158));
#588=CARTESIAN_POINT('',(8.81999999989999,8.81999999989999,0.0));
#589=DIRECTION('',(0.0,-0.0,1.0));
#590=DIRECTION('',(1.0,1.25004451234644E-010,0.0));
#591=FILL_AREA_STYLE('',(#602));
#592=FILL_AREA_STYLE('',(#603));
#593=FILL_AREA_STYLE('',(#604));
#594=FILL_AREA_STYLE('',(#605));
#595=FILL_AREA_STYLE('',(#606));
#596=FILL_AREA_STYLE('',(#607));
#597=FILL_AREA_STYLE('',(#608));
#598=FILL_AREA_STYLE('',(#609));
#599=FILL_AREA_STYLE('',(#610));
#600=FILL_AREA_STYLE('',(#611));
#601=FILL_AREA_STYLE('',(#612));
#602=FILL_AREA_STYLE_COLOUR('',#613);
#603=FILL_AREA_STYLE_COLOUR('',#614);
#604=FILL_AREA_STYLE_COLOUR('',#615);
#605=FILL_AREA_STYLE_COLOUR('',#616);
#606=FILL_AREA_STYLE_COLOUR('',#617);
#607=FILL_AREA_STYLE_COLOUR('',#618);
#608=FILL_AREA_STYLE_COLOUR('',#619);
#609=FILL_AREA_STYLE_COLOUR('',#620);
#610=FILL_AREA_STYLE_COLOUR('',#621);
#611=FILL_AREA_STYLE_COLOUR('',#622);
#612=FILL_AREA_STYLE_COLOUR('',#623);
#613=COLOUR_RGB('',0.800000011920929,0.800000011920929,0.800000011920929);
#614=COLOUR_RGB('',0.800000011920929,0.800000011920929,0.800000011920929);
#615=COLOUR_RGB('',0.800000011920929,0.800000011920929,0.800000011920929);
#616=COLOUR_RGB('',0.800000011920929,0.800000011920929,0.800000011920929);
#617=COLOUR_RGB('',0.800000011920929,0.800000011920929,0.800000011920929);
#618=COLOUR_RGB('',0.800000011920929,0.800000011920929,0.800000011920929);
#619=COLOUR_RGB('',0.800000011920929,0.800000011920929,0.800000011920929);
#620=COLOUR_RGB('',0.800000011920929,0.800000011920929,0.800000011920929);
#621=COLOUR_RGB('',0.800000011920929,0.800000011920929,0.800000011920929);
#622=COLOUR_RGB('',0.800000011920929,0.800000011920929,0.800000011920929);
#623=COLOUR_RGB('',0.800000011920929,0.800000011920929,0.800000011920929);
#624=AXIS2_PLACEMENT_3D('PCS',#625,#626,#627);
#625=CARTESIAN_POINT('',(0.0,0.0,0.0));
#626=DIRECTION('',(0.0,0.0,1.0));
#627=DIRECTION('',(1.0,0.0,0.0));
#628=AXIS2_PLACEMENT_3D('MCS',#629,#630,#631);
#629=CARTESIAN_POINT('',(4.81,4.81,0.0));
#630=DIRECTION('',(0.0,0.0,1.0));
#631=DIRECTION('',(1.0,0.0,0.0));
#632=CONSTRUCTIVE_GEOMETRY_REPRESENTATION_RELATIONSHIP('coordinate systems',$,#65,#633);
#633=CONSTRUCTIVE_GEOMETRY_REPRESENTATION('coordinate systems',(#624,#628),#6);
ENDSEC;
END-ISO-10303-21;
