ISO-10303-21;
HEADER;
FILE_DESCRIPTION(('no description'),'unknown implementation level');
FILE_NAME('solidd3vWncYK8R89KL1sNB4HlWun1PA_1.STP','  ',('CIMSOURCE GmbH'),('CADClick - KiM GmbH - www.kimweb.de'),'unknown preprocess','ACIS','unknown authorization');
FILE_SCHEMA(('automotive_design'));
ENDSEC;
DATA;
#1=MECHANICAL_DESIGN_GEOMETRIC_PRESENTATION_REPRESENTATION(' ',(#10,#11,#12,#13,#14,#15,#16,#17,#18,#19,#20,#21,#22,#23,#24,#25,#26,#27,#28,#29,#30,#31,#32,#33,#34,#35,#36,#37,#38,#39,#40,#41,#42,#43,#44,#45,#46,#47,#48,#49,#50,#51,#52,#53,#54,#55,#56,#57,#58,#59,#60),#6);
#2=PRODUCT_DEFINITION_CONTEXT('',#61,'design');
#3=APPLICATION_PROTOCOL_DEFINITION('INTERNATIONAL STANDARD','automotive_design',1994,#61);
#4=PRODUCT_CATEGORY_RELATIONSHIP('NONE','NONE',#62,#63);
#5=SHAPE_DEFINITION_REPRESENTATION(#64,#65);
#6= (GEOMETRIC_REPRESENTATION_CONTEXT(3)GLOBAL_UNCERTAINTY_ASSIGNED_CONTEXT((#68))GLOBAL_UNIT_ASSIGNED_CONTEXT((#70,#71,#72))REPRESENTATION_CONTEXT('NONE','WORKSPACE'));
#10=STYLED_ITEM('',(#74),#75);
#11=STYLED_ITEM('',(#76),#77);
#12=STYLED_ITEM('',(#78),#79);
#13=STYLED_ITEM('',(#80),#81);
#14=STYLED_ITEM('',(#82),#83);
#15=STYLED_ITEM('',(#84),#85);
#16=STYLED_ITEM('',(#86),#87);
#17=STYLED_ITEM('',(#88),#89);
#18=STYLED_ITEM('',(#90),#91);
#19=STYLED_ITEM('',(#92),#93);
#20=STYLED_ITEM('',(#94),#95);
#21=STYLED_ITEM('',(#96),#97);
#22=STYLED_ITEM('',(#98),#99);
#23=STYLED_ITEM('',(#100),#101);
#24=STYLED_ITEM('',(#102),#103);
#25=STYLED_ITEM('',(#104),#105);
#26=STYLED_ITEM('',(#106),#107);
#27=STYLED_ITEM('',(#108),#109);
#28=STYLED_ITEM('',(#110),#111);
#29=STYLED_ITEM('',(#112),#113);
#30=STYLED_ITEM('',(#114),#115);
#31=STYLED_ITEM('',(#116),#117);
#32=STYLED_ITEM('',(#118),#119);
#33=STYLED_ITEM('',(#120),#121);
#34=STYLED_ITEM('',(#122),#123);
#35=STYLED_ITEM('',(#124),#125);
#36=STYLED_ITEM('',(#126),#127);
#37=STYLED_ITEM('',(#128),#129);
#38=STYLED_ITEM('',(#130),#131);
#39=STYLED_ITEM('',(#132),#133);
#40=STYLED_ITEM('',(#134),#135);
#41=STYLED_ITEM('',(#136),#137);
#42=STYLED_ITEM('',(#138),#139);
#43=STYLED_ITEM('',(#140),#141);
#44=STYLED_ITEM('',(#142),#143);
#45=STYLED_ITEM('',(#144),#145);
#46=STYLED_ITEM('',(#146),#147);
#47=STYLED_ITEM('',(#148),#149);
#48=STYLED_ITEM('',(#150),#151);
#49=STYLED_ITEM('',(#152),#153);
#50=STYLED_ITEM('',(#154),#155);
#51=STYLED_ITEM('',(#156),#157);
#52=STYLED_ITEM('',(#158),#159);
#53=STYLED_ITEM('',(#160),#161);
#54=STYLED_ITEM('',(#162),#163);
#55=STYLED_ITEM('',(#164),#165);
#56=STYLED_ITEM('',(#166),#167);
#57=STYLED_ITEM('',(#168),#169);
#58=STYLED_ITEM('',(#170),#171);
#59=STYLED_ITEM('',(#172),#173);
#60=STYLED_ITEM('',(#174),#175);
#61=APPLICATION_CONTEXT(' ');
#62=PRODUCT_CATEGORY('part','NONE');
#63=PRODUCT_RELATED_PRODUCT_CATEGORY('detail',' ',(#176));
#64=PRODUCT_DEFINITION_SHAPE('NONE','NONE',#177);
#65=ADVANCED_BREP_SHAPE_REPRESENTATION('1',(#127,#178),#6);
#68=UNCERTAINTY_MEASURE_WITH_UNIT(LENGTH_MEASURE(1.0E-006),#70,'','');
#70= (CONVERSION_BASED_UNIT('MILLIMETRE',#181)LENGTH_UNIT()NAMED_UNIT(#184));
#71= (NAMED_UNIT(#186)PLANE_ANGLE_UNIT()SI_UNIT($,.RADIAN.));
#72= (NAMED_UNIT(#186)SOLID_ANGLE_UNIT()SI_UNIT($,.STERADIAN.));
#74=PRESENTATION_STYLE_ASSIGNMENT((#192));
#75=VERTEX_POINT('',#193);
#76=PRESENTATION_STYLE_ASSIGNMENT((#194));
#77=ADVANCED_FACE('',(#195),#196,.T.);
#78=PRESENTATION_STYLE_ASSIGNMENT((#197));
#79=ADVANCED_FACE('',(#198),#199,.T.);
#80=PRESENTATION_STYLE_ASSIGNMENT((#200));
#81=EDGE_CURVE('',#75,#101,#201,.T.);
#82=PRESENTATION_STYLE_ASSIGNMENT((#202));
#83=VERTEX_POINT('',#203);
#84=PRESENTATION_STYLE_ASSIGNMENT((#204));
#85=EDGE_CURVE('',#99,#103,#205,.T.);
#86=PRESENTATION_STYLE_ASSIGNMENT((#206));
#87=VERTEX_POINT('',#207);
#88=PRESENTATION_STYLE_ASSIGNMENT((#208));
#89=EDGE_CURVE('',#109,#87,#209,.T.);
#90=PRESENTATION_STYLE_ASSIGNMENT((#210));
#91=EDGE_CURVE('',#149,#119,#211,.T.);
#92=PRESENTATION_STYLE_ASSIGNMENT((#212));
#93=ADVANCED_FACE('',(#213),#214,.T.);
#94=PRESENTATION_STYLE_ASSIGNMENT((#215));
#95=EDGE_CURVE('',#113,#101,#216,.T.);
#96=PRESENTATION_STYLE_ASSIGNMENT((#217));
#97=EDGE_CURVE('',#159,#105,#218,.T.);
#98=PRESENTATION_STYLE_ASSIGNMENT((#219));
#99=VERTEX_POINT('',#220);
#100=PRESENTATION_STYLE_ASSIGNMENT((#221));
#101=VERTEX_POINT('',#222);
#102=PRESENTATION_STYLE_ASSIGNMENT((#223));
#103=VERTEX_POINT('',#224);
#104=PRESENTATION_STYLE_ASSIGNMENT((#225));
#105=VERTEX_POINT('',#226);
#106=PRESENTATION_STYLE_ASSIGNMENT((#227));
#107=ADVANCED_FACE('',(#228),#229,.T.);
#108=PRESENTATION_STYLE_ASSIGNMENT((#230));
#109=VERTEX_POINT('',#231);
#110=PRESENTATION_STYLE_ASSIGNMENT((#232));
#111=VERTEX_POINT('',#233);
#112=PRESENTATION_STYLE_ASSIGNMENT((#234));
#113=VERTEX_POINT('',#235);
#114=PRESENTATION_STYLE_ASSIGNMENT((#236));
#115=EDGE_CURVE('',#135,#151,#237,.T.);
#116=PRESENTATION_STYLE_ASSIGNMENT((#238));
#117=EDGE_CURVE('',#135,#111,#239,.T.);
#118=PRESENTATION_STYLE_ASSIGNMENT((#240));
#119=VERTEX_POINT('',#241);
#120=PRESENTATION_STYLE_ASSIGNMENT((#242));
#121=EDGE_CURVE('',#119,#75,#243,.T.);
#122=PRESENTATION_STYLE_ASSIGNMENT((#244));
#123=EDGE_CURVE('',#109,#99,#245,.T.);
#124=PRESENTATION_STYLE_ASSIGNMENT((#246));
#125=EDGE_CURVE('',#103,#151,#247,.T.);
#126=PRESENTATION_STYLE_ASSIGNMENT((#248));
#127=MANIFOLD_SOLID_BREP('1',#249);
#128=PRESENTATION_STYLE_ASSIGNMENT((#250));
#129=VERTEX_POINT('',#251);
#130=PRESENTATION_STYLE_ASSIGNMENT((#252));
#131=ADVANCED_FACE('',(#253),#254,.T.);
#132=PRESENTATION_STYLE_ASSIGNMENT((#255));
#133=ADVANCED_FACE('',(#256),#257,.T.);
#134=PRESENTATION_STYLE_ASSIGNMENT((#258));
#135=VERTEX_POINT('',#259);
#136=PRESENTATION_STYLE_ASSIGNMENT((#260));
#137=EDGE_CURVE('',#83,#113,#261,.T.);
#138=PRESENTATION_STYLE_ASSIGNMENT((#262));
#139=EDGE_CURVE('',#113,#159,#263,.T.);
#140=PRESENTATION_STYLE_ASSIGNMENT((#264));
#141=ADVANCED_FACE('',(#265),#266,.T.);
#142=PRESENTATION_STYLE_ASSIGNMENT((#267));
#143=EDGE_CURVE('',#159,#109,#268,.T.);
#144=PRESENTATION_STYLE_ASSIGNMENT((#269));
#145=ADVANCED_FACE('',(#270),#271,.T.);
#146=PRESENTATION_STYLE_ASSIGNMENT((#272));
#147=EDGE_CURVE('',#151,#149,#273,.T.);
#148=PRESENTATION_STYLE_ASSIGNMENT((#274));
#149=VERTEX_POINT('',#275);
#150=PRESENTATION_STYLE_ASSIGNMENT((#276));
#151=VERTEX_POINT('',#277);
#152=PRESENTATION_STYLE_ASSIGNMENT((#278));
#153=EDGE_CURVE('',#111,#149,#279,.T.);
#154=PRESENTATION_STYLE_ASSIGNMENT((#280));
#155=EDGE_CURVE('',#105,#99,#281,.T.);
#156=PRESENTATION_STYLE_ASSIGNMENT((#282));
#157=EDGE_CURVE('',#87,#135,#283,.T.);
#158=PRESENTATION_STYLE_ASSIGNMENT((#284));
#159=VERTEX_POINT('',#285);
#160=PRESENTATION_STYLE_ASSIGNMENT((#286));
#161=ADVANCED_FACE('',(#287),#288,.F.);
#162=PRESENTATION_STYLE_ASSIGNMENT((#289));
#163=EDGE_CURVE('',#111,#129,#290,.T.);
#164=PRESENTATION_STYLE_ASSIGNMENT((#291));
#165=EDGE_CURVE('',#129,#83,#292,.T.);
#166=PRESENTATION_STYLE_ASSIGNMENT((#293));
#167=ADVANCED_FACE('',(#294),#295,.T.);
#168=PRESENTATION_STYLE_ASSIGNMENT((#296));
#169=EDGE_CURVE('',#101,#105,#297,.T.);
#170=PRESENTATION_STYLE_ASSIGNMENT((#298));
#171=EDGE_CURVE('',#83,#75,#299,.T.);
#172=PRESENTATION_STYLE_ASSIGNMENT((#300));
#173=EDGE_CURVE('',#87,#103,#301,.T.);
#174=PRESENTATION_STYLE_ASSIGNMENT((#302));
#175=EDGE_CURVE('',#129,#119,#303,.T.);
#176=PRODUCT('1','1','PART-1-DESC',(#304));
#177=PRODUCT_DEFINITION('NONE','NONE',#305,#2);
#178=AXIS2_PLACEMENT_3D('',#306,#307,#308);
#181=LENGTH_MEASURE_WITH_UNIT(LENGTH_MEASURE(1.0),#309);
#184=DIMENSIONAL_EXPONENTS(1.0,0.0,0.0,0.0,0.0,0.0,0.0);
#186=DIMENSIONAL_EXPONENTS(0.0,0.0,0.0,0.0,0.0,0.0,0.0);
#192=POINT_STYLE(' ',#310,POSITIVE_LENGTH_MEASURE(1.0E-006),#311);
#193=CARTESIAN_POINT('',(11.5699999999297,0.702704173611959,-5.0));
#194=SURFACE_STYLE_USAGE(.BOTH.,#312);
#195=FACE_OUTER_BOUND('',#313,.T.);
#196=PLANE('',#314);
#197=SURFACE_STYLE_USAGE(.BOTH.,#315);
#198=FACE_OUTER_BOUND('',#316,.T.);
#199=PLANE('',#317);
#200=CURVE_STYLE('',#318,POSITIVE_LENGTH_MEASURE(1.0E-006),#319);
#201=CIRCLE('',#320,0.297295826488041);
#202=POINT_STYLE(' ',#321,POSITIVE_LENGTH_MEASURE(1.0E-006),#322);
#203=CARTESIAN_POINT('',(11.57,0.0,0.0));
#204=CURVE_STYLE('',#323,POSITIVE_LENGTH_MEASURE(1.0E-006),#324);
#205=LINE('',#325,#326);
#206=POINT_STYLE(' ',#327,POSITIVE_LENGTH_MEASURE(1.0E-006),#328);
#207=CARTESIAN_POINT('',(1.0,12.57,0.0));
#208=CURVE_STYLE('',#329,POSITIVE_LENGTH_MEASURE(1.0E-006),#330);
#209=LINE('',#331,#332);
#210=CURVE_STYLE('',#333,POSITIVE_LENGTH_MEASURE(1.0E-006),#334);
#211=CIRCLE('',#335,0.297295826488041);
#212=SURFACE_STYLE_USAGE(.BOTH.,#336);
#213=FACE_OUTER_BOUND('',#337,.T.);
#214=PLANE('',#338);
#215=CURVE_STYLE('',#339,POSITIVE_LENGTH_MEASURE(1.0E-006),#340);
#216=LINE('',#341,#342);
#217=CURVE_STYLE('',#343,POSITIVE_LENGTH_MEASURE(1.0E-006),#344);
#218=LINE('',#345,#346);
#219=POINT_STYLE(' ',#347,POSITIVE_LENGTH_MEASURE(1.0E-006),#348);
#220=CARTESIAN_POINT('',(11.57,11.867295826488,-5.0));
#221=POINT_STYLE(' ',#349,POSITIVE_LENGTH_MEASURE(1.0E-006),#350);
#222=CARTESIAN_POINT('',(11.867295826488,1.0,-5.0));
#223=POINT_STYLE(' ',#351,POSITIVE_LENGTH_MEASURE(1.0E-006),#352);
#224=CARTESIAN_POINT('',(1.00000000007027,11.867295826388,-5.0));
#225=POINT_STYLE(' ',#353,POSITIVE_LENGTH_MEASURE(1.0E-006),#354);
#226=CARTESIAN_POINT('',(11.867295826388,11.5699999999297,-5.0));
#227=SURFACE_STYLE_USAGE(.BOTH.,#355);
#228=FACE_OUTER_BOUND('',#356,.T.);
#229=CONICAL_SURFACE('',#357,0.999999999999998,0.139626340159547);
#230=POINT_STYLE(' ',#358,POSITIVE_LENGTH_MEASURE(1.0E-006),#359);
#231=CARTESIAN_POINT('',(11.57,12.5699999999,0.0));
#232=POINT_STYLE(' ',#360,POSITIVE_LENGTH_MEASURE(1.0E-006),#361);
#233=CARTESIAN_POINT('',(0.0,1.0,0.0));
#234=POINT_STYLE(' ',#362,POSITIVE_LENGTH_MEASURE(1.0E-006),#363);
#235=CARTESIAN_POINT('',(12.5699999999,1.0,0.0));
#236=CURVE_STYLE('',#364,POSITIVE_LENGTH_MEASURE(1.0E-006),#365);
#237=LINE('',#366,#367);
#238=CURVE_STYLE('',#368,POSITIVE_LENGTH_MEASURE(1.0E-006),#369);
#239=LINE('',#370,#371);
#240=POINT_STYLE(' ',#372,POSITIVE_LENGTH_MEASURE(1.0E-006),#373);
#241=CARTESIAN_POINT('',(1.0,0.702704173511959,-5.0));
#242=CURVE_STYLE('',#374,POSITIVE_LENGTH_MEASURE(1.0E-006),#375);
#243=LINE('',#376,#377);
#244=CURVE_STYLE('',#378,POSITIVE_LENGTH_MEASURE(1.0E-006),#379);
#245=LINE('',#380,#381);
#246=CURVE_STYLE('',#382,POSITIVE_LENGTH_MEASURE(1.0E-006),#383);
#247=CIRCLE('',#384,0.297295826488039);
#248=SURFACE_STYLE_USAGE(.BOTH.,#385);
#249=CLOSED_SHELL('',(#131,#79,#107,#77,#145,#141,#133,#167,#161,#93));
#250=POINT_STYLE(' ',#386,POSITIVE_LENGTH_MEASURE(1.0E-006),#387);
#251=CARTESIAN_POINT('',(1.0,0.0,0.0));
#252=SURFACE_STYLE_USAGE(.BOTH.,#388);
#253=FACE_OUTER_BOUND('',#389,.T.);
#254=CONICAL_SURFACE('',#390,1.0,0.139626340159547);
#255=SURFACE_STYLE_USAGE(.BOTH.,#391);
#256=FACE_OUTER_BOUND('',#392,.T.);
#257=CONICAL_SURFACE('',#393,1.0,0.139626340159547);
#258=POINT_STYLE(' ',#394,POSITIVE_LENGTH_MEASURE(1.0E-006),#395);
#259=CARTESIAN_POINT('',(1.00000008274037E-010,11.57,0.0));
#260=CURVE_STYLE('',#396,POSITIVE_LENGTH_MEASURE(1.0E-006),#397);
#261=CIRCLE('',#398,1.0);
#262=CURVE_STYLE('',#399,POSITIVE_LENGTH_MEASURE(1.0E-006),#400);
#263=LINE('',#401,#402);
#264=SURFACE_STYLE_USAGE(.BOTH.,#403);
#265=FACE_OUTER_BOUND('',#404,.T.);
#266=PLANE('',#405);
#267=CURVE_STYLE('',#406,POSITIVE_LENGTH_MEASURE(1.0E-006),#407);
#268=CIRCLE('',#408,0.999999999999998);
#269=SURFACE_STYLE_USAGE(.BOTH.,#409);
#270=FACE_OUTER_BOUND('',#410,.T.);
#271=CONICAL_SURFACE('',#411,0.999999999999998,0.139626340159547);
#272=CURVE_STYLE('',#412,POSITIVE_LENGTH_MEASURE(1.0E-006),#413);
#273=LINE('',#414,#415);
#274=POINT_STYLE(' ',#416,POSITIVE_LENGTH_MEASURE(1.0E-006),#417);
#275=CARTESIAN_POINT('',(0.702704173611959,1.00000000007027,-5.0));
#276=POINT_STYLE(' ',#418,POSITIVE_LENGTH_MEASURE(1.0E-006),#419);
#277=CARTESIAN_POINT('',(0.702704173511959,11.57,-5.0));
#278=CURVE_STYLE('',#420,POSITIVE_LENGTH_MEASURE(1.0E-006),#421);
#279=LINE('',#422,#423);
#280=CURVE_STYLE('',#424,POSITIVE_LENGTH_MEASURE(1.0E-006),#425);
#281=CIRCLE('',#426,0.297295826488039);
#282=CURVE_STYLE('',#427,POSITIVE_LENGTH_MEASURE(1.0E-006),#428);
#283=CIRCLE('',#429,0.999999999999998);
#284=POINT_STYLE(' ',#430,POSITIVE_LENGTH_MEASURE(1.0E-006),#431);
#285=CARTESIAN_POINT('',(12.57,11.57,0.0));
#286=SURFACE_STYLE_USAGE(.BOTH.,#432);
#287=FACE_OUTER_BOUND('',#433,.T.);
#288=PLANE('',#434);
#289=CURVE_STYLE('',#435,POSITIVE_LENGTH_MEASURE(1.0E-006),#436);
#290=CIRCLE('',#437,1.0);
#291=CURVE_STYLE('',#438,POSITIVE_LENGTH_MEASURE(1.0E-006),#439);
#292=LINE('',#440,#441);
#293=SURFACE_STYLE_USAGE(.BOTH.,#442);
#294=FACE_OUTER_BOUND('',#443,.T.);
#295=PLANE('',#444);
#296=CURVE_STYLE('',#445,POSITIVE_LENGTH_MEASURE(1.0E-006),#446);
#297=LINE('',#447,#448);
#298=CURVE_STYLE('',#449,POSITIVE_LENGTH_MEASURE(1.0E-006),#450);
#299=LINE('',#451,#452);
#300=CURVE_STYLE('',#453,POSITIVE_LENGTH_MEASURE(1.0E-006),#454);
#301=LINE('',#455,#456);
#302=CURVE_STYLE('',#457,POSITIVE_LENGTH_MEASURE(1.0E-006),#458);
#303=LINE('',#459,#460);
#304=PRODUCT_CONTEXT('',#61,'mechanical');
#305=PRODUCT_DEFINITION_FORMATION_WITH_SPECIFIED_SOURCE(' ','NONE',#176,.NOT_KNOWN.);
#306=CARTESIAN_POINT('',(0.0,0.0,0.0));
#307=DIRECTION('',(0.0,0.0,1.0));
#308=DIRECTION('',(1.0,0.0,0.0));
#309= (NAMED_UNIT(#184)LENGTH_UNIT()SI_UNIT(.MILLI.,.METRE.));
#310=PRE_DEFINED_MARKER('');
#311=COLOUR_RGB('',0.800000011920929,0.800000011920929,0.800000011920929);
#312=SURFACE_SIDE_STYLE('',(#462));
#313=EDGE_LOOP('',(#463,#464,#465,#466));
#314=AXIS2_PLACEMENT_3D('',#467,#468,#469);
#315=SURFACE_SIDE_STYLE('',(#470));
#316=EDGE_LOOP('',(#471,#472,#473,#474));
#317=AXIS2_PLACEMENT_3D('',#475,#476,#477);
#318=DRAUGHTING_PRE_DEFINED_CURVE_FONT('continuous');
#319=COLOUR_RGB('',0.800000011920929,0.800000011920929,0.800000011920929);
#320=AXIS2_PLACEMENT_3D('',#478,#479,#480);
#321=PRE_DEFINED_MARKER('');
#322=COLOUR_RGB('',0.800000011920929,0.800000011920929,0.800000011920929);
#323=DRAUGHTING_PRE_DEFINED_CURVE_FONT('continuous');
#324=COLOUR_RGB('',0.800000011920929,0.800000011920929,0.800000011920929);
#325=CARTESIAN_POINT('',(11.57,11.867295826488,-5.0));
#326=VECTOR('',#481,1.0);
#327=PRE_DEFINED_MARKER('');
#328=COLOUR_RGB('',0.800000011920929,0.800000011920929,0.800000011920929);
#329=DRAUGHTING_PRE_DEFINED_CURVE_FONT('continuous');
#330=COLOUR_RGB('',0.800000011920929,0.800000011920929,0.800000011920929);
#331=CARTESIAN_POINT('',(11.57,12.57,0.0));
#332=VECTOR('',#482,1.0);
#333=DRAUGHTING_PRE_DEFINED_CURVE_FONT('continuous');
#334=COLOUR_RGB('',0.800000011920929,0.800000011920929,0.800000011920929);
#335=AXIS2_PLACEMENT_3D('',#483,#484,#485);
#336=SURFACE_SIDE_STYLE('',(#486));
#337=EDGE_LOOP('',(#487,#488,#489,#490,#491,#492,#493,#494));
#338=AXIS2_PLACEMENT_3D('',#495,#496,#497);
#339=DRAUGHTING_PRE_DEFINED_CURVE_FONT('continuous');
#340=COLOUR_RGB('',0.800000011920929,0.800000011920929,0.800000011920929);
#341=CARTESIAN_POINT('',(12.5699999999,1.0,0.0));
#342=VECTOR('',#498,1.0);
#343=DRAUGHTING_PRE_DEFINED_CURVE_FONT('continuous');
#344=COLOUR_RGB('',0.800000011920929,0.800000011920929,0.800000011920929);
#345=CARTESIAN_POINT('',(12.57,11.57,0.0));
#346=VECTOR('',#499,1.0);
#347=PRE_DEFINED_MARKER('');
#348=COLOUR_RGB('',0.800000011920929,0.800000011920929,0.800000011920929);
#349=PRE_DEFINED_MARKER('');
#350=COLOUR_RGB('',0.800000011920929,0.800000011920929,0.800000011920929);
#351=PRE_DEFINED_MARKER('');
#352=COLOUR_RGB('',0.800000011920929,0.800000011920929,0.800000011920929);
#353=PRE_DEFINED_MARKER('');
#354=COLOUR_RGB('',0.800000011920929,0.800000011920929,0.800000011920929);
#355=SURFACE_SIDE_STYLE('',(#500));
#356=EDGE_LOOP('',(#501,#502,#503,#504));
#357=AXIS2_PLACEMENT_3D('',#505,#506,#507);
#358=PRE_DEFINED_MARKER('');
#359=COLOUR_RGB('',0.800000011920929,0.800000011920929,0.800000011920929);
#360=PRE_DEFINED_MARKER('');
#361=COLOUR_RGB('',0.800000011920929,0.800000011920929,0.800000011920929);
#362=PRE_DEFINED_MARKER('');
#363=COLOUR_RGB('',0.800000011920929,0.800000011920929,0.800000011920929);
#364=DRAUGHTING_PRE_DEFINED_CURVE_FONT('continuous');
#365=COLOUR_RGB('',0.800000011920929,0.800000011920929,0.800000011920929);
#366=CARTESIAN_POINT('',(1.00000008274037E-010,11.57,0.0));
#367=VECTOR('',#508,1.0);
#368=DRAUGHTING_PRE_DEFINED_CURVE_FONT('continuous');
#369=COLOUR_RGB('',0.800000011920929,0.800000011920929,0.800000011920929);
#370=CARTESIAN_POINT('',(0.0,11.57,0.0));
#371=VECTOR('',#509,1.0);
#372=PRE_DEFINED_MARKER('');
#373=COLOUR_RGB('',0.800000011920929,0.800000011920929,0.800000011920929);
#374=DRAUGHTING_PRE_DEFINED_CURVE_FONT('continuous');
#375=COLOUR_RGB('',0.800000011920929,0.800000011920929,0.800000011920929);
#376=CARTESIAN_POINT('',(1.0,0.702704173511959,-5.0));
#377=VECTOR('',#510,1.0);
#378=DRAUGHTING_PRE_DEFINED_CURVE_FONT('continuous');
#379=COLOUR_RGB('',0.800000011920929,0.800000011920929,0.800000011920929);
#380=CARTESIAN_POINT('',(11.57,12.5699999999,0.0));
#381=VECTOR('',#511,1.0);
#382=DRAUGHTING_PRE_DEFINED_CURVE_FONT('continuous');
#383=COLOUR_RGB('',0.800000011920929,0.800000011920929,0.800000011920929);
#384=AXIS2_PLACEMENT_3D('',#512,#513,#514);
#385=SURFACE_SIDE_STYLE('',(#515));
#386=PRE_DEFINED_MARKER('');
#387=COLOUR_RGB('',0.800000011920929,0.800000011920929,0.800000011920929);
#388=SURFACE_SIDE_STYLE('',(#516));
#389=EDGE_LOOP('',(#517,#518,#519,#520));
#390=AXIS2_PLACEMENT_3D('',#521,#522,#523);
#391=SURFACE_SIDE_STYLE('',(#524));
#392=EDGE_LOOP('',(#525,#526,#527,#528));
#393=AXIS2_PLACEMENT_3D('',#529,#530,#531);
#394=PRE_DEFINED_MARKER('');
#395=COLOUR_RGB('',0.800000011920929,0.800000011920929,0.800000011920929);
#396=DRAUGHTING_PRE_DEFINED_CURVE_FONT('continuous');
#397=COLOUR_RGB('',0.800000011920929,0.800000011920929,0.800000011920929);
#398=AXIS2_PLACEMENT_3D('',#532,#533,#534);
#399=DRAUGHTING_PRE_DEFINED_CURVE_FONT('continuous');
#400=COLOUR_RGB('',0.800000011920929,0.800000011920929,0.800000011920929);
#401=CARTESIAN_POINT('',(12.57,1.0,0.0));
#402=VECTOR('',#535,1.0);
#403=SURFACE_SIDE_STYLE('',(#536));
#404=EDGE_LOOP('',(#537,#538,#539,#540));
#405=AXIS2_PLACEMENT_3D('',#541,#542,#543);
#406=DRAUGHTING_PRE_DEFINED_CURVE_FONT('continuous');
#407=COLOUR_RGB('',0.800000011920929,0.800000011920929,0.800000011920929);
#408=AXIS2_PLACEMENT_3D('',#544,#545,#546);
#409=SURFACE_SIDE_STYLE('',(#547));
#410=EDGE_LOOP('',(#548,#549,#550,#551));
#411=AXIS2_PLACEMENT_3D('',#552,#553,#554);
#412=DRAUGHTING_PRE_DEFINED_CURVE_FONT('continuous');
#413=COLOUR_RGB('',0.800000011920929,0.800000011920929,0.800000011920929);
#414=CARTESIAN_POINT('',(0.702704173511959,11.57,-5.0));
#415=VECTOR('',#555,1.0);
#416=PRE_DEFINED_MARKER('');
#417=COLOUR_RGB('',0.800000011920929,0.800000011920929,0.800000011920929);
#418=PRE_DEFINED_MARKER('');
#419=COLOUR_RGB('',0.800000011920929,0.800000011920929,0.800000011920929);
#420=DRAUGHTING_PRE_DEFINED_CURVE_FONT('continuous');
#421=COLOUR_RGB('',0.800000011920929,0.800000011920929,0.800000011920929);
#422=CARTESIAN_POINT('',(0.0,1.0,0.0));
#423=VECTOR('',#556,1.0);
#424=DRAUGHTING_PRE_DEFINED_CURVE_FONT('continuous');
#425=COLOUR_RGB('',0.800000011920929,0.800000011920929,0.800000011920929);
#426=AXIS2_PLACEMENT_3D('',#557,#558,#559);
#427=DRAUGHTING_PRE_DEFINED_CURVE_FONT('continuous');
#428=COLOUR_RGB('',0.800000011920929,0.800000011920929,0.800000011920929);
#429=AXIS2_PLACEMENT_3D('',#560,#561,#562);
#430=PRE_DEFINED_MARKER('');
#431=COLOUR_RGB('',0.800000011920929,0.800000011920929,0.800000011920929);
#432=SURFACE_SIDE_STYLE('',(#563));
#433=EDGE_LOOP('',(#564,#565,#566,#567,#568,#569,#570,#571));
#434=AXIS2_PLACEMENT_3D('',#572,#573,#574);
#435=DRAUGHTING_PRE_DEFINED_CURVE_FONT('continuous');
#436=COLOUR_RGB('',0.800000011920929,0.800000011920929,0.800000011920929);
#437=AXIS2_PLACEMENT_3D('',#575,#576,#577);
#438=DRAUGHTING_PRE_DEFINED_CURVE_FONT('continuous');
#439=COLOUR_RGB('',0.800000011920929,0.800000011920929,0.800000011920929);
#440=CARTESIAN_POINT('',(1.0,0.0,0.0));
#441=VECTOR('',#578,1.0);
#442=SURFACE_SIDE_STYLE('',(#579));
#443=EDGE_LOOP('',(#580,#581,#582,#583));
#444=AXIS2_PLACEMENT_3D('',#584,#585,#586);
#445=DRAUGHTING_PRE_DEFINED_CURVE_FONT('continuous');
#446=COLOUR_RGB('',0.800000011920929,0.800000011920929,0.800000011920929);
#447=CARTESIAN_POINT('',(11.867295826488,1.0,-5.0));
#448=VECTOR('',#587,1.0);
#449=DRAUGHTING_PRE_DEFINED_CURVE_FONT('continuous');
#450=COLOUR_RGB('',0.800000011920929,0.800000011920929,0.800000011920929);
#451=CARTESIAN_POINT('',(11.57,0.0,0.0));
#452=VECTOR('',#588,1.0);
#453=DRAUGHTING_PRE_DEFINED_CURVE_FONT('continuous');
#454=COLOUR_RGB('',0.800000011920929,0.800000011920929,0.800000011920929);
#455=CARTESIAN_POINT('',(1.0,12.57,0.0));
#456=VECTOR('',#589,1.0);
#457=DRAUGHTING_PRE_DEFINED_CURVE_FONT('continuous');
#458=COLOUR_RGB('',0.800000011920929,0.800000011920929,0.800000011920929);
#459=CARTESIAN_POINT('',(1.0,0.0,0.0));
#460=VECTOR('',#590,1.0);
#462=SURFACE_STYLE_FILL_AREA(#591);
#463=ORIENTED_EDGE('',*,*,#85,.T.);
#464=ORIENTED_EDGE('',*,*,#173,.F.);
#465=ORIENTED_EDGE('',*,*,#89,.F.);
#466=ORIENTED_EDGE('',*,*,#123,.T.);
#467=CARTESIAN_POINT('',(11.57,12.5699999999,0.0));
#468=DIRECTION('',(0.0,0.9902680687443,-0.139173100940644));
#469=DIRECTION('',(1.0,-0.0,0.0));
#470=SURFACE_STYLE_FILL_AREA(#592);
#471=ORIENTED_EDGE('',*,*,#169,.T.);
#472=ORIENTED_EDGE('',*,*,#97,.F.);
#473=ORIENTED_EDGE('',*,*,#139,.F.);
#474=ORIENTED_EDGE('',*,*,#95,.T.);
#475=CARTESIAN_POINT('',(12.5699999999,1.0,0.0));
#476=DIRECTION('',(0.9902680687443,-0.0,-0.139173100940644));
#477=DIRECTION('',(-0.0,-1.0,0.0));
#478=CARTESIAN_POINT('',(11.5699999999,1.0000000001,-5.0));
#479=DIRECTION('',(0.0,0.0,1.0));
#480=DIRECTION('',(1.00000008274037E-010,-1.0,0.0));
#481=DIRECTION('',(-1.0,0.0,0.0));
#482=DIRECTION('',(-1.0,0.0,0.0));
#483=CARTESIAN_POINT('',(1.0000000001,1.0000000001,-5.0));
#484=DIRECTION('',(0.0,0.0,1.0));
#485=DIRECTION('',(-1.0,-9.99991200956174E-011,0.0));
#486=SURFACE_STYLE_FILL_AREA(#593);
#487=ORIENTED_EDGE('',*,*,#165,.T.);
#488=ORIENTED_EDGE('',*,*,#137,.T.);
#489=ORIENTED_EDGE('',*,*,#139,.T.);
#490=ORIENTED_EDGE('',*,*,#143,.T.);
#491=ORIENTED_EDGE('',*,*,#89,.T.);
#492=ORIENTED_EDGE('',*,*,#157,.T.);
#493=ORIENTED_EDGE('',*,*,#117,.T.);
#494=ORIENTED_EDGE('',*,*,#163,.T.);
#495=CARTESIAN_POINT('',(6.285,6.285,0.0));
#496=DIRECTION('',(0.0,0.0,1.0));
#497=DIRECTION('',(1.0,0.0,0.0));
#498=DIRECTION('',(-0.139173100940644,0.0,-0.9902680687443));
#499=DIRECTION('',(-0.139173100979488,-1.39170539139752E-011,-0.990268068738841));
#500=SURFACE_STYLE_FILL_AREA(#594);
#501=ORIENTED_EDGE('',*,*,#155,.T.);
#502=ORIENTED_EDGE('',*,*,#123,.F.);
#503=ORIENTED_EDGE('',*,*,#143,.F.);
#504=ORIENTED_EDGE('',*,*,#97,.T.);
#505=CARTESIAN_POINT('',(11.5699999999,11.5699999999,0.0));
#506=DIRECTION('',(-0.0,-0.0,1.0));
#507=DIRECTION('',(1.0,9.99982319171979E-011,0.0));
#508=DIRECTION('',(0.139173100940644,0.0,-0.9902680687443));
#509=DIRECTION('',(0.0,-1.0,0.0));
#510=DIRECTION('',(1.0,0.0,0.0));
#511=DIRECTION('',(0.0,-0.139173100940644,-0.9902680687443));
#512=CARTESIAN_POINT('',(1.0000000001,11.5699999999,-5.0));
#513=DIRECTION('',(0.0,0.0,1.0));
#514=DIRECTION('',(-9.99983429395003E-011,1.0,0.0));
#515=SURFACE_STYLE_FILL_AREA(#595);
#516=SURFACE_STYLE_FILL_AREA(#596);
#517=ORIENTED_EDGE('',*,*,#81,.T.);
#518=ORIENTED_EDGE('',*,*,#95,.F.);
#519=ORIENTED_EDGE('',*,*,#137,.F.);
#520=ORIENTED_EDGE('',*,*,#171,.T.);
#521=CARTESIAN_POINT('',(11.5699999999,1.0000000001,0.0));
#522=DIRECTION('',(-0.0,-0.0,1.0));
#523=DIRECTION('',(1.00000008274037E-010,-1.0,0.0));
#524=SURFACE_STYLE_FILL_AREA(#597);
#525=ORIENTED_EDGE('',*,*,#91,.T.);
#526=ORIENTED_EDGE('',*,*,#175,.F.);
#527=ORIENTED_EDGE('',*,*,#163,.F.);
#528=ORIENTED_EDGE('',*,*,#153,.T.);
#529=CARTESIAN_POINT('',(1.0000000001,1.0000000001,0.0));
#530=DIRECTION('',(0.0,-0.0,1.0));
#531=DIRECTION('',(-1.0,-9.99991200956174E-011,0.0));
#532=CARTESIAN_POINT('',(11.5699999999,1.0000000001,0.0));
#533=DIRECTION('',(0.0,0.0,1.0));
#534=DIRECTION('',(1.00000008274037E-010,-1.0,0.0));
#535=DIRECTION('',(0.0,1.0,0.0));
#536=SURFACE_STYLE_FILL_AREA(#598);
#537=ORIENTED_EDGE('',*,*,#147,.T.);
#538=ORIENTED_EDGE('',*,*,#153,.F.);
#539=ORIENTED_EDGE('',*,*,#117,.F.);
#540=ORIENTED_EDGE('',*,*,#115,.T.);
#541=CARTESIAN_POINT('',(1.00000008274037E-010,11.57,0.0));
#542=DIRECTION('',(-0.9902680687443,0.0,-0.139173100940644));
#543=DIRECTION('',(0.0,1.0,0.0));
#544=CARTESIAN_POINT('',(11.5699999999,11.5699999999,0.0));
#545=DIRECTION('',(0.0,-0.0,1.0));
#546=DIRECTION('',(1.0,9.99982319171979E-011,0.0));
#547=SURFACE_STYLE_FILL_AREA(#599);
#548=ORIENTED_EDGE('',*,*,#125,.T.);
#549=ORIENTED_EDGE('',*,*,#115,.F.);
#550=ORIENTED_EDGE('',*,*,#157,.F.);
#551=ORIENTED_EDGE('',*,*,#173,.T.);
#552=CARTESIAN_POINT('',(1.0000000001,11.5699999999,0.0));
#553=DIRECTION('',(-0.0,-0.0,1.0));
#554=DIRECTION('',(-9.99983429395003E-011,1.0,0.0));
#555=DIRECTION('',(0.0,-1.0,0.0));
#556=DIRECTION('',(0.139173100979488,1.39173617511301E-011,-0.990268068738841));
#557=CARTESIAN_POINT('',(11.5699999999,11.5699999999,-5.0));
#558=DIRECTION('',(0.0,-0.0,1.0));
#559=DIRECTION('',(1.0,9.99982319171979E-011,0.0));
#560=CARTESIAN_POINT('',(1.0000000001,11.5699999999,0.0));
#561=DIRECTION('',(0.0,0.0,1.0));
#562=DIRECTION('',(-9.99983429395003E-011,1.0,0.0));
#563=SURFACE_STYLE_FILL_AREA(#600);
#564=ORIENTED_EDGE('',*,*,#81,.F.);
#565=ORIENTED_EDGE('',*,*,#121,.F.);
#566=ORIENTED_EDGE('',*,*,#91,.F.);
#567=ORIENTED_EDGE('',*,*,#147,.F.);
#568=ORIENTED_EDGE('',*,*,#125,.F.);
#569=ORIENTED_EDGE('',*,*,#85,.F.);
#570=ORIENTED_EDGE('',*,*,#155,.F.);
#571=ORIENTED_EDGE('',*,*,#169,.F.);
#572=CARTESIAN_POINT('',(6.285,6.285,-5.0));
#573=DIRECTION('',(0.0,0.0,1.0));
#574=DIRECTION('',(1.0,0.0,0.0));
#575=CARTESIAN_POINT('',(1.0000000001,1.0000000001,0.0));
#576=DIRECTION('',(0.0,0.0,1.0));
#577=DIRECTION('',(-1.0,-9.99991200956174E-011,0.0));
#578=DIRECTION('',(1.0,0.0,0.0));
#579=SURFACE_STYLE_FILL_AREA(#601);
#580=ORIENTED_EDGE('',*,*,#121,.T.);
#581=ORIENTED_EDGE('',*,*,#171,.F.);
#582=ORIENTED_EDGE('',*,*,#165,.F.);
#583=ORIENTED_EDGE('',*,*,#175,.T.);
#584=CARTESIAN_POINT('',(1.0,0.0,0.0));
#585=DIRECTION('',(-0.0,-0.99026806874157,-0.139173100960066));
#586=DIRECTION('',(-1.0,0.0,0.0));
#587=DIRECTION('',(0.0,1.0,0.0));
#588=DIRECTION('',(-1.39174057278665E-011,0.139173100979488,-0.990268068738841));
#589=DIRECTION('',(1.39170539139752E-011,-0.139173100979488,-0.990268068738841));
#590=DIRECTION('',(0.0,0.139173100960066,-0.99026806874157));
#591=FILL_AREA_STYLE('',(#602));
#592=FILL_AREA_STYLE('',(#603));
#593=FILL_AREA_STYLE('',(#604));
#594=FILL_AREA_STYLE('',(#605));
#595=FILL_AREA_STYLE('',(#606));
#596=FILL_AREA_STYLE('',(#607));
#597=FILL_AREA_STYLE('',(#608));
#598=FILL_AREA_STYLE('',(#609));
#599=FILL_AREA_STYLE('',(#610));
#600=FILL_AREA_STYLE('',(#611));
#601=FILL_AREA_STYLE('',(#612));
#602=FILL_AREA_STYLE_COLOUR('',#613);
#603=FILL_AREA_STYLE_COLOUR('',#614);
#604=FILL_AREA_STYLE_COLOUR('',#615);
#605=FILL_AREA_STYLE_COLOUR('',#616);
#606=FILL_AREA_STYLE_COLOUR('',#617);
#607=FILL_AREA_STYLE_COLOUR('',#618);
#608=FILL_AREA_STYLE_COLOUR('',#619);
#609=FILL_AREA_STYLE_COLOUR('',#620);
#610=FILL_AREA_STYLE_COLOUR('',#621);
#611=FILL_AREA_STYLE_COLOUR('',#622);
#612=FILL_AREA_STYLE_COLOUR('',#623);
#613=COLOUR_RGB('',0.800000011920929,0.800000011920929,0.800000011920929);
#614=COLOUR_RGB('',0.800000011920929,0.800000011920929,0.800000011920929);
#615=COLOUR_RGB('',0.800000011920929,0.800000011920929,0.800000011920929);
#616=COLOUR_RGB('',0.800000011920929,0.800000011920929,0.800000011920929);
#617=COLOUR_RGB('',0.800000011920929,0.800000011920929,0.800000011920929);
#618=COLOUR_RGB('',0.800000011920929,0.800000011920929,0.800000011920929);
#619=COLOUR_RGB('',0.800000011920929,0.800000011920929,0.800000011920929);
#620=COLOUR_RGB('',0.800000011920929,0.800000011920929,0.800000011920929);
#621=COLOUR_RGB('',0.800000011920929,0.800000011920929,0.800000011920929);
#622=COLOUR_RGB('',0.800000011920929,0.800000011920929,0.800000011920929);
#623=COLOUR_RGB('',0.800000011920929,0.800000011920929,0.800000011920929);
#624=AXIS2_PLACEMENT_3D('PCS',#625,#626,#627);
#625=CARTESIAN_POINT('',(0.0,0.0,0.0));
#626=DIRECTION('',(0.0,0.0,1.0));
#627=DIRECTION('',(1.0,0.0,0.0));
#628=AXIS2_PLACEMENT_3D('MCS',#629,#630,#631);
#629=CARTESIAN_POINT('',(6.285,6.285,0.0));
#630=DIRECTION('',(0.0,0.0,1.0));
#631=DIRECTION('',(1.0,0.0,0.0));
#632=CONSTRUCTIVE_GEOMETRY_REPRESENTATION_RELATIONSHIP('coordinate systems',$,#65,#633);
#633=CONSTRUCTIVE_GEOMETRY_REPRESENTATION('coordinate systems',(#624,#628),#6);
ENDSEC;
END-ISO-10303-21;
