ISO-10303-21;
HEADER;
FILE_DESCRIPTION(('no description'),'unknown implementation level');
FILE_NAME('solidiiS009jALnNFg0RazdzqfyCqqCs_1.STP','  ',('CIMSOURCE GmbH'),('CADClick - KiM GmbH - www.kimweb.de'),'unknown preprocess','ACIS','unknown authorization');
FILE_SCHEMA(('automotive_design'));
ENDSEC;
DATA;
#1=MECHANICAL_DESIGN_GEOMETRIC_PRESENTATION_REPRESENTATION(' ',(#10,#11,#12,#13,#14,#15,#16,#17,#18,#19,#20,#21,#22,#23,#24,#25,#26,#27,#28,#29,#30,#31,#32,#33,#34,#35,#36,#37,#38,#39,#40,#41,#42,#43,#44,#45,#46,#47,#48,#49,#50,#51,#52,#53,#54,#55,#56,#57,#58,#59,#60),#6);
#2=PRODUCT_DEFINITION_CONTEXT('',#61,'design');
#3=APPLICATION_PROTOCOL_DEFINITION('INTERNATIONAL STANDARD','automotive_design',1994,#61);
#4=PRODUCT_CATEGORY_RELATIONSHIP('NONE','NONE',#62,#63);
#5=SHAPE_DEFINITION_REPRESENTATION(#64,#65);
#6= (GEOMETRIC_REPRESENTATION_CONTEXT(3)GLOBAL_UNCERTAINTY_ASSIGNED_CONTEXT((#68))GLOBAL_UNIT_ASSIGNED_CONTEXT((#70,#71,#72))REPRESENTATION_CONTEXT('NONE','WORKSPACE'));
#10=STYLED_ITEM('',(#74),#75);
#11=STYLED_ITEM('',(#76),#77);
#12=STYLED_ITEM('',(#78),#79);
#13=STYLED_ITEM('',(#80),#81);
#14=STYLED_ITEM('',(#82),#83);
#15=STYLED_ITEM('',(#84),#85);
#16=STYLED_ITEM('',(#86),#87);
#17=STYLED_ITEM('',(#88),#89);
#18=STYLED_ITEM('',(#90),#91);
#19=STYLED_ITEM('',(#92),#93);
#20=STYLED_ITEM('',(#94),#95);
#21=STYLED_ITEM('',(#96),#97);
#22=STYLED_ITEM('',(#98),#99);
#23=STYLED_ITEM('',(#100),#101);
#24=STYLED_ITEM('',(#102),#103);
#25=STYLED_ITEM('',(#104),#105);
#26=STYLED_ITEM('',(#106),#107);
#27=STYLED_ITEM('',(#108),#109);
#28=STYLED_ITEM('',(#110),#111);
#29=STYLED_ITEM('',(#112),#113);
#30=STYLED_ITEM('',(#114),#115);
#31=STYLED_ITEM('',(#116),#117);
#32=STYLED_ITEM('',(#118),#119);
#33=STYLED_ITEM('',(#120),#121);
#34=STYLED_ITEM('',(#122),#123);
#35=STYLED_ITEM('',(#124),#125);
#36=STYLED_ITEM('',(#126),#127);
#37=STYLED_ITEM('',(#128),#129);
#38=STYLED_ITEM('',(#130),#131);
#39=STYLED_ITEM('',(#132),#133);
#40=STYLED_ITEM('',(#134),#135);
#41=STYLED_ITEM('',(#136),#137);
#42=STYLED_ITEM('',(#138),#139);
#43=STYLED_ITEM('',(#140),#141);
#44=STYLED_ITEM('',(#142),#143);
#45=STYLED_ITEM('',(#144),#145);
#46=STYLED_ITEM('',(#146),#147);
#47=STYLED_ITEM('',(#148),#149);
#48=STYLED_ITEM('',(#150),#151);
#49=STYLED_ITEM('',(#152),#153);
#50=STYLED_ITEM('',(#154),#155);
#51=STYLED_ITEM('',(#156),#157);
#52=STYLED_ITEM('',(#158),#159);
#53=STYLED_ITEM('',(#160),#161);
#54=STYLED_ITEM('',(#162),#163);
#55=STYLED_ITEM('',(#164),#165);
#56=STYLED_ITEM('',(#166),#167);
#57=STYLED_ITEM('',(#168),#169);
#58=STYLED_ITEM('',(#170),#171);
#59=STYLED_ITEM('',(#172),#173);
#60=STYLED_ITEM('',(#174),#175);
#61=APPLICATION_CONTEXT(' ');
#62=PRODUCT_CATEGORY('part','NONE');
#63=PRODUCT_RELATED_PRODUCT_CATEGORY('detail',' ',(#176));
#64=PRODUCT_DEFINITION_SHAPE('NONE','NONE',#177);
#65=ADVANCED_BREP_SHAPE_REPRESENTATION('1',(#175,#178),#6);
#68=UNCERTAINTY_MEASURE_WITH_UNIT(LENGTH_MEASURE(1.0E-006),#70,'','');
#70= (CONVERSION_BASED_UNIT('MILLIMETRE',#181)LENGTH_UNIT()NAMED_UNIT(#184));
#71= (NAMED_UNIT(#186)PLANE_ANGLE_UNIT()SI_UNIT($,.RADIAN.));
#72= (NAMED_UNIT(#186)SOLID_ANGLE_UNIT()SI_UNIT($,.STERADIAN.));
#74=PRESENTATION_STYLE_ASSIGNMENT((#192));
#75=ADVANCED_FACE('',(#193),#194,.T.);
#76=PRESENTATION_STYLE_ASSIGNMENT((#195));
#77=VERTEX_POINT('',#196);
#78=PRESENTATION_STYLE_ASSIGNMENT((#197));
#79=EDGE_CURVE('',#77,#91,#198,.T.);
#80=PRESENTATION_STYLE_ASSIGNMENT((#199));
#81=VERTEX_POINT('',#200);
#82=PRESENTATION_STYLE_ASSIGNMENT((#201));
#83=VERTEX_POINT('',#202);
#84=PRESENTATION_STYLE_ASSIGNMENT((#203));
#85=EDGE_CURVE('',#115,#83,#204,.T.);
#86=PRESENTATION_STYLE_ASSIGNMENT((#205));
#87=EDGE_CURVE('',#169,#97,#206,.T.);
#88=PRESENTATION_STYLE_ASSIGNMENT((#207));
#89=EDGE_CURVE('',#113,#133,#208,.T.);
#90=PRESENTATION_STYLE_ASSIGNMENT((#209));
#91=VERTEX_POINT('',#210);
#92=PRESENTATION_STYLE_ASSIGNMENT((#211));
#93=EDGE_CURVE('',#133,#169,#212,.T.);
#94=PRESENTATION_STYLE_ASSIGNMENT((#213));
#95=EDGE_CURVE('',#129,#171,#214,.T.);
#96=PRESENTATION_STYLE_ASSIGNMENT((#215));
#97=VERTEX_POINT('',#216);
#98=PRESENTATION_STYLE_ASSIGNMENT((#217));
#99=ADVANCED_FACE('',(#218),#219,.T.);
#100=PRESENTATION_STYLE_ASSIGNMENT((#220));
#101=EDGE_CURVE('',#83,#129,#221,.T.);
#102=PRESENTATION_STYLE_ASSIGNMENT((#222));
#103=ADVANCED_FACE('',(#223),#224,.T.);
#104=PRESENTATION_STYLE_ASSIGNMENT((#225));
#105=VERTEX_POINT('',#226);
#106=PRESENTATION_STYLE_ASSIGNMENT((#227));
#107=EDGE_CURVE('',#171,#77,#228,.T.);
#108=PRESENTATION_STYLE_ASSIGNMENT((#229));
#109=EDGE_CURVE('',#115,#161,#230,.T.);
#110=PRESENTATION_STYLE_ASSIGNMENT((#231));
#111=EDGE_CURVE('',#161,#129,#232,.T.);
#112=PRESENTATION_STYLE_ASSIGNMENT((#233));
#113=VERTEX_POINT('',#234);
#114=PRESENTATION_STYLE_ASSIGNMENT((#235));
#115=VERTEX_POINT('',#236);
#116=PRESENTATION_STYLE_ASSIGNMENT((#237));
#117=ADVANCED_FACE('',(#238),#239,.T.);
#118=PRESENTATION_STYLE_ASSIGNMENT((#240));
#119=EDGE_CURVE('',#105,#159,#241,.T.);
#120=PRESENTATION_STYLE_ASSIGNMENT((#242));
#121=EDGE_CURVE('',#169,#167,#243,.T.);
#122=PRESENTATION_STYLE_ASSIGNMENT((#244));
#123=EDGE_CURVE('',#105,#115,#245,.T.);
#124=PRESENTATION_STYLE_ASSIGNMENT((#246));
#125=VERTEX_POINT('',#247);
#126=PRESENTATION_STYLE_ASSIGNMENT((#248));
#127=ADVANCED_FACE('',(#249),#250,.F.);
#128=PRESENTATION_STYLE_ASSIGNMENT((#251));
#129=VERTEX_POINT('',#252);
#130=PRESENTATION_STYLE_ASSIGNMENT((#253));
#131=EDGE_CURVE('',#125,#171,#254,.T.);
#132=PRESENTATION_STYLE_ASSIGNMENT((#255));
#133=VERTEX_POINT('',#256);
#134=PRESENTATION_STYLE_ASSIGNMENT((#257));
#135=EDGE_CURVE('',#91,#167,#258,.T.);
#136=PRESENTATION_STYLE_ASSIGNMENT((#259));
#137=EDGE_CURVE('',#167,#81,#260,.T.);
#138=PRESENTATION_STYLE_ASSIGNMENT((#261));
#139=EDGE_CURVE('',#81,#159,#262,.T.);
#140=PRESENTATION_STYLE_ASSIGNMENT((#263));
#141=EDGE_CURVE('',#97,#105,#264,.T.);
#142=PRESENTATION_STYLE_ASSIGNMENT((#265));
#143=EDGE_CURVE('',#159,#161,#266,.T.);
#144=PRESENTATION_STYLE_ASSIGNMENT((#267));
#145=EDGE_CURVE('',#83,#125,#268,.T.);
#146=PRESENTATION_STYLE_ASSIGNMENT((#269));
#147=EDGE_CURVE('',#125,#113,#270,.T.);
#148=PRESENTATION_STYLE_ASSIGNMENT((#271));
#149=ADVANCED_FACE('',(#272),#273,.T.);
#150=PRESENTATION_STYLE_ASSIGNMENT((#274));
#151=EDGE_CURVE('',#97,#81,#275,.T.);
#152=PRESENTATION_STYLE_ASSIGNMENT((#276));
#153=EDGE_CURVE('',#113,#77,#277,.T.);
#154=PRESENTATION_STYLE_ASSIGNMENT((#278));
#155=ADVANCED_FACE('',(#279),#280,.T.);
#156=PRESENTATION_STYLE_ASSIGNMENT((#281));
#157=ADVANCED_FACE('',(#282),#283,.T.);
#158=PRESENTATION_STYLE_ASSIGNMENT((#284));
#159=VERTEX_POINT('',#285);
#160=PRESENTATION_STYLE_ASSIGNMENT((#286));
#161=VERTEX_POINT('',#287);
#162=PRESENTATION_STYLE_ASSIGNMENT((#288));
#163=ADVANCED_FACE('',(#289),#290,.T.);
#164=PRESENTATION_STYLE_ASSIGNMENT((#291));
#165=EDGE_CURVE('',#133,#91,#292,.T.);
#166=PRESENTATION_STYLE_ASSIGNMENT((#293));
#167=VERTEX_POINT('',#294);
#168=PRESENTATION_STYLE_ASSIGNMENT((#295));
#169=VERTEX_POINT('',#296);
#170=PRESENTATION_STYLE_ASSIGNMENT((#297));
#171=VERTEX_POINT('',#298);
#172=PRESENTATION_STYLE_ASSIGNMENT((#299));
#173=ADVANCED_FACE('',(#300),#301,.T.);
#174=PRESENTATION_STYLE_ASSIGNMENT((#302));
#175=MANIFOLD_SOLID_BREP('1',#303);
#176=PRODUCT('1','1','PART-1-DESC',(#304));
#177=PRODUCT_DEFINITION('NONE','NONE',#305,#2);
#178=AXIS2_PLACEMENT_3D('',#306,#307,#308);
#181=LENGTH_MEASURE_WITH_UNIT(LENGTH_MEASURE(1.0),#309);
#184=DIMENSIONAL_EXPONENTS(1.0,0.0,0.0,0.0,0.0,0.0,0.0);
#186=DIMENSIONAL_EXPONENTS(0.0,0.0,0.0,0.0,0.0,0.0,0.0);
#192=SURFACE_STYLE_USAGE(.BOTH.,#310);
#193=FACE_OUTER_BOUND('',#311,.T.);
#194=PLANE('',#312);
#195=POINT_STYLE(' ',#313,POSITIVE_LENGTH_MEASURE(1.0E-006),#314);
#196=CARTESIAN_POINT('',(12.8499999999391,0.730812340552438,-5.2));
#197=CURVE_STYLE('',#315,POSITIVE_LENGTH_MEASURE(1.0E-006),#316);
#198=CIRCLE('',#317,0.46918765954756);
#199=POINT_STYLE(' ',#318,POSITIVE_LENGTH_MEASURE(1.0E-006),#319);
#200=CARTESIAN_POINT('',(12.85,13.3191876595476,-5.2));
#201=POINT_STYLE(' ',#320,POSITIVE_LENGTH_MEASURE(1.0E-006),#321);
#202=CARTESIAN_POINT('',(0.0,1.2,0.0));
#203=CURVE_STYLE('',#322,POSITIVE_LENGTH_MEASURE(1.0E-006),#323);
#204=LINE('',#324,#325);
#205=CURVE_STYLE('',#326,POSITIVE_LENGTH_MEASURE(1.0E-006),#327);
#206=CIRCLE('',#328,1.2);
#207=CURVE_STYLE('',#329,POSITIVE_LENGTH_MEASURE(1.0E-006),#330);
#208=CIRCLE('',#331,1.2);
#209=POINT_STYLE(' ',#332,POSITIVE_LENGTH_MEASURE(1.0E-006),#333);
#210=CARTESIAN_POINT('',(13.3191876595476,1.2,-5.2));
#211=CURVE_STYLE('',#334,POSITIVE_LENGTH_MEASURE(1.0E-006),#335);
#212=LINE('',#336,#337);
#213=CURVE_STYLE('',#338,POSITIVE_LENGTH_MEASURE(1.0E-006),#339);
#214=CIRCLE('',#340,0.469187659547562);
#215=POINT_STYLE(' ',#341,POSITIVE_LENGTH_MEASURE(1.0E-006),#342);
#216=CARTESIAN_POINT('',(12.85,14.0499999999,0.0));
#217=SURFACE_STYLE_USAGE(.BOTH.,#343);
#218=FACE_OUTER_BOUND('',#344,.T.);
#219=CONICAL_SURFACE('',#345,1.2,0.139626340159547);
#220=CURVE_STYLE('',#346,POSITIVE_LENGTH_MEASURE(1.0E-006),#347);
#221=LINE('',#348,#349);
#222=SURFACE_STYLE_USAGE(.BOTH.,#350);
#223=FACE_OUTER_BOUND('',#351,.T.);
#224=PLANE('',#352);
#225=POINT_STYLE(' ',#353,POSITIVE_LENGTH_MEASURE(1.0E-006),#354);
#226=CARTESIAN_POINT('',(1.2,14.05,0.0));
#227=CURVE_STYLE('',#355,POSITIVE_LENGTH_MEASURE(1.0E-006),#356);
#228=LINE('',#357,#358);
#229=CURVE_STYLE('',#359,POSITIVE_LENGTH_MEASURE(1.0E-006),#360);
#230=LINE('',#361,#362);
#231=CURVE_STYLE('',#363,POSITIVE_LENGTH_MEASURE(1.0E-006),#364);
#232=LINE('',#365,#366);
#233=POINT_STYLE(' ',#367,POSITIVE_LENGTH_MEASURE(1.0E-006),#368);
#234=CARTESIAN_POINT('',(12.85,0.0,0.0));
#235=POINT_STYLE(' ',#369,POSITIVE_LENGTH_MEASURE(1.0E-006),#370);
#236=CARTESIAN_POINT('',(1.00000674407852E-010,12.85,0.0));
#237=SURFACE_STYLE_USAGE(.BOTH.,#371);
#238=FACE_OUTER_BOUND('',#372,.T.);
#239=CONICAL_SURFACE('',#373,1.2,0.139626340159547);
#240=CURVE_STYLE('',#374,POSITIVE_LENGTH_MEASURE(1.0E-006),#375);
#241=LINE('',#376,#377);
#242=CURVE_STYLE('',#378,POSITIVE_LENGTH_MEASURE(1.0E-006),#379);
#243=LINE('',#380,#381);
#244=CURVE_STYLE('',#382,POSITIVE_LENGTH_MEASURE(1.0E-006),#383);
#245=CIRCLE('',#384,1.2);
#246=POINT_STYLE(' ',#385,POSITIVE_LENGTH_MEASURE(1.0E-006),#386);
#247=CARTESIAN_POINT('',(1.2,0.0,0.0));
#248=SURFACE_STYLE_USAGE(.BOTH.,#387);
#249=FACE_OUTER_BOUND('',#388,.T.);
#250=PLANE('',#389);
#251=POINT_STYLE(' ',#390,POSITIVE_LENGTH_MEASURE(1.0E-006),#391);
#252=CARTESIAN_POINT('',(0.730812340552438,1.2000000000609,-5.2));
#253=CURVE_STYLE('',#392,POSITIVE_LENGTH_MEASURE(1.0E-006),#393);
#254=LINE('',#394,#395);
#255=POINT_STYLE(' ',#396,POSITIVE_LENGTH_MEASURE(1.0E-006),#397);
#256=CARTESIAN_POINT('',(14.0499999999,1.2,0.0));
#257=CURVE_STYLE('',#398,POSITIVE_LENGTH_MEASURE(1.0E-006),#399);
#258=LINE('',#400,#401);
#259=CURVE_STYLE('',#402,POSITIVE_LENGTH_MEASURE(1.0E-006),#403);
#260=CIRCLE('',#404,0.469187659547565);
#261=CURVE_STYLE('',#405,POSITIVE_LENGTH_MEASURE(1.0E-006),#406);
#262=LINE('',#407,#408);
#263=CURVE_STYLE('',#409,POSITIVE_LENGTH_MEASURE(1.0E-006),#410);
#264=LINE('',#411,#412);
#265=CURVE_STYLE('',#413,POSITIVE_LENGTH_MEASURE(1.0E-006),#414);
#266=CIRCLE('',#415,0.469187659547565);
#267=CURVE_STYLE('',#416,POSITIVE_LENGTH_MEASURE(1.0E-006),#417);
#268=CIRCLE('',#418,1.2);
#269=CURVE_STYLE('',#419,POSITIVE_LENGTH_MEASURE(1.0E-006),#420);
#270=LINE('',#421,#422);
#271=SURFACE_STYLE_USAGE(.BOTH.,#423);
#272=FACE_OUTER_BOUND('',#424,.T.);
#273=CONICAL_SURFACE('',#425,1.2,0.139626340159547);
#274=CURVE_STYLE('',#426,POSITIVE_LENGTH_MEASURE(1.0E-006),#427);
#275=LINE('',#428,#429);
#276=CURVE_STYLE('',#430,POSITIVE_LENGTH_MEASURE(1.0E-006),#431);
#277=LINE('',#432,#433);
#278=SURFACE_STYLE_USAGE(.BOTH.,#434);
#279=FACE_OUTER_BOUND('',#435,.T.);
#280=PLANE('',#436);
#281=SURFACE_STYLE_USAGE(.BOTH.,#437);
#282=FACE_OUTER_BOUND('',#438,.T.);
#283=CONICAL_SURFACE('',#439,1.2,0.139626340159547);
#284=POINT_STYLE(' ',#440,POSITIVE_LENGTH_MEASURE(1.0E-006),#441);
#285=CARTESIAN_POINT('',(1.2000000000609,13.3191876594476,-5.2));
#286=POINT_STYLE(' ',#442,POSITIVE_LENGTH_MEASURE(1.0E-006),#443);
#287=CARTESIAN_POINT('',(0.730812340452438,12.85,-5.2));
#288=SURFACE_STYLE_USAGE(.BOTH.,#444);
#289=FACE_OUTER_BOUND('',#445,.T.);
#290=PLANE('',#446);
#291=CURVE_STYLE('',#447,POSITIVE_LENGTH_MEASURE(1.0E-006),#448);
#292=LINE('',#449,#450);
#293=POINT_STYLE(' ',#451,POSITIVE_LENGTH_MEASURE(1.0E-006),#452);
#294=CARTESIAN_POINT('',(13.3191876594476,12.8499999999391,-5.2));
#295=POINT_STYLE(' ',#453,POSITIVE_LENGTH_MEASURE(1.0E-006),#454);
#296=CARTESIAN_POINT('',(14.05,12.85,0.0));
#297=POINT_STYLE(' ',#455,POSITIVE_LENGTH_MEASURE(1.0E-006),#456);
#298=CARTESIAN_POINT('',(1.2,0.730812340452438,-5.2));
#299=SURFACE_STYLE_USAGE(.BOTH.,#457);
#300=FACE_OUTER_BOUND('',#458,.T.);
#301=PLANE('',#459);
#302=SURFACE_STYLE_USAGE(.BOTH.,#460);
#303=CLOSED_SHELL('',(#117,#163,#99,#155,#157,#103,#149,#173,#127,#75));
#304=PRODUCT_CONTEXT('',#61,'mechanical');
#305=PRODUCT_DEFINITION_FORMATION_WITH_SPECIFIED_SOURCE(' ','NONE',#176,.NOT_KNOWN.);
#306=CARTESIAN_POINT('',(0.0,0.0,0.0));
#307=DIRECTION('',(0.0,0.0,1.0));
#308=DIRECTION('',(1.0,0.0,0.0));
#309= (NAMED_UNIT(#184)LENGTH_UNIT()SI_UNIT(.MILLI.,.METRE.));
#310=SURFACE_SIDE_STYLE('',(#462));
#311=EDGE_LOOP('',(#463,#464,#465,#466,#467,#468,#469,#470));
#312=AXIS2_PLACEMENT_3D('',#471,#472,#473);
#313=PRE_DEFINED_MARKER('');
#314=COLOUR_RGB('',0.800000011920929,0.800000011920929,0.800000011920929);
#315=DRAUGHTING_PRE_DEFINED_CURVE_FONT('continuous');
#316=COLOUR_RGB('',0.800000011920929,0.800000011920929,0.800000011920929);
#317=AXIS2_PLACEMENT_3D('',#474,#475,#476);
#318=PRE_DEFINED_MARKER('');
#319=COLOUR_RGB('',0.800000011920929,0.800000011920929,0.800000011920929);
#320=PRE_DEFINED_MARKER('');
#321=COLOUR_RGB('',0.800000011920929,0.800000011920929,0.800000011920929);
#322=DRAUGHTING_PRE_DEFINED_CURVE_FONT('continuous');
#323=COLOUR_RGB('',0.800000011920929,0.800000011920929,0.800000011920929);
#324=CARTESIAN_POINT('',(0.0,12.85,0.0));
#325=VECTOR('',#477,1.0);
#326=DRAUGHTING_PRE_DEFINED_CURVE_FONT('continuous');
#327=COLOUR_RGB('',0.800000011920929,0.800000011920929,0.800000011920929);
#328=AXIS2_PLACEMENT_3D('',#478,#479,#480);
#329=DRAUGHTING_PRE_DEFINED_CURVE_FONT('continuous');
#330=COLOUR_RGB('',0.800000011920929,0.800000011920929,0.800000011920929);
#331=AXIS2_PLACEMENT_3D('',#481,#482,#483);
#332=PRE_DEFINED_MARKER('');
#333=COLOUR_RGB('',0.800000011920929,0.800000011920929,0.800000011920929);
#334=DRAUGHTING_PRE_DEFINED_CURVE_FONT('continuous');
#335=COLOUR_RGB('',0.800000011920929,0.800000011920929,0.800000011920929);
#336=CARTESIAN_POINT('',(14.05,1.2,0.0));
#337=VECTOR('',#484,1.0);
#338=DRAUGHTING_PRE_DEFINED_CURVE_FONT('continuous');
#339=COLOUR_RGB('',0.800000011920929,0.800000011920929,0.800000011920929);
#340=AXIS2_PLACEMENT_3D('',#485,#486,#487);
#341=PRE_DEFINED_MARKER('');
#342=COLOUR_RGB('',0.800000011920929,0.800000011920929,0.800000011920929);
#343=SURFACE_SIDE_STYLE('',(#488));
#344=EDGE_LOOP('',(#489,#490,#491,#492));
#345=AXIS2_PLACEMENT_3D('',#493,#494,#495);
#346=DRAUGHTING_PRE_DEFINED_CURVE_FONT('continuous');
#347=COLOUR_RGB('',0.800000011920929,0.800000011920929,0.800000011920929);
#348=CARTESIAN_POINT('',(0.0,1.2,0.0));
#349=VECTOR('',#496,1.0);
#350=SURFACE_SIDE_STYLE('',(#497));
#351=EDGE_LOOP('',(#498,#499,#500,#501));
#352=AXIS2_PLACEMENT_3D('',#502,#503,#504);
#353=PRE_DEFINED_MARKER('');
#354=COLOUR_RGB('',0.800000011920929,0.800000011920929,0.800000011920929);
#355=DRAUGHTING_PRE_DEFINED_CURVE_FONT('continuous');
#356=COLOUR_RGB('',0.800000011920929,0.800000011920929,0.800000011920929);
#357=CARTESIAN_POINT('',(1.2,0.730812340452438,-5.2));
#358=VECTOR('',#505,1.0);
#359=DRAUGHTING_PRE_DEFINED_CURVE_FONT('continuous');
#360=COLOUR_RGB('',0.800000011920929,0.800000011920929,0.800000011920929);
#361=CARTESIAN_POINT('',(1.00000674407852E-010,12.85,0.0));
#362=VECTOR('',#506,1.0);
#363=DRAUGHTING_PRE_DEFINED_CURVE_FONT('continuous');
#364=COLOUR_RGB('',0.800000011920929,0.800000011920929,0.800000011920929);
#365=CARTESIAN_POINT('',(0.730812340452438,12.85,-5.2));
#366=VECTOR('',#507,1.0);
#367=PRE_DEFINED_MARKER('');
#368=COLOUR_RGB('',0.800000011920929,0.800000011920929,0.800000011920929);
#369=PRE_DEFINED_MARKER('');
#370=COLOUR_RGB('',0.800000011920929,0.800000011920929,0.800000011920929);
#371=SURFACE_SIDE_STYLE('',(#508));
#372=EDGE_LOOP('',(#509,#510,#511,#512));
#373=AXIS2_PLACEMENT_3D('',#513,#514,#515);
#374=DRAUGHTING_PRE_DEFINED_CURVE_FONT('continuous');
#375=COLOUR_RGB('',0.800000011920929,0.800000011920929,0.800000011920929);
#376=CARTESIAN_POINT('',(1.2,14.05,0.0));
#377=VECTOR('',#516,1.0);
#378=DRAUGHTING_PRE_DEFINED_CURVE_FONT('continuous');
#379=COLOUR_RGB('',0.800000011920929,0.800000011920929,0.800000011920929);
#380=CARTESIAN_POINT('',(14.05,12.85,0.0));
#381=VECTOR('',#517,1.0);
#382=DRAUGHTING_PRE_DEFINED_CURVE_FONT('continuous');
#383=COLOUR_RGB('',0.800000011920929,0.800000011920929,0.800000011920929);
#384=AXIS2_PLACEMENT_3D('',#518,#519,#520);
#385=PRE_DEFINED_MARKER('');
#386=COLOUR_RGB('',0.800000011920929,0.800000011920929,0.800000011920929);
#387=SURFACE_SIDE_STYLE('',(#521));
#388=EDGE_LOOP('',(#522,#523,#524,#525,#526,#527,#528,#529));
#389=AXIS2_PLACEMENT_3D('',#530,#531,#532);
#390=PRE_DEFINED_MARKER('');
#391=COLOUR_RGB('',0.800000011920929,0.800000011920929,0.800000011920929);
#392=DRAUGHTING_PRE_DEFINED_CURVE_FONT('continuous');
#393=COLOUR_RGB('',0.800000011920929,0.800000011920929,0.800000011920929);
#394=CARTESIAN_POINT('',(1.2,0.0,0.0));
#395=VECTOR('',#533,1.0);
#396=PRE_DEFINED_MARKER('');
#397=COLOUR_RGB('',0.800000011920929,0.800000011920929,0.800000011920929);
#398=DRAUGHTING_PRE_DEFINED_CURVE_FONT('continuous');
#399=COLOUR_RGB('',0.800000011920929,0.800000011920929,0.800000011920929);
#400=CARTESIAN_POINT('',(13.3191876595476,1.2,-5.2));
#401=VECTOR('',#534,1.0);
#402=DRAUGHTING_PRE_DEFINED_CURVE_FONT('continuous');
#403=COLOUR_RGB('',0.800000011920929,0.800000011920929,0.800000011920929);
#404=AXIS2_PLACEMENT_3D('',#535,#536,#537);
#405=DRAUGHTING_PRE_DEFINED_CURVE_FONT('continuous');
#406=COLOUR_RGB('',0.800000011920929,0.800000011920929,0.800000011920929);
#407=CARTESIAN_POINT('',(12.85,13.3191876595476,-5.2));
#408=VECTOR('',#538,1.0);
#409=DRAUGHTING_PRE_DEFINED_CURVE_FONT('continuous');
#410=COLOUR_RGB('',0.800000011920929,0.800000011920929,0.800000011920929);
#411=CARTESIAN_POINT('',(12.85,14.05,0.0));
#412=VECTOR('',#539,1.0);
#413=DRAUGHTING_PRE_DEFINED_CURVE_FONT('continuous');
#414=COLOUR_RGB('',0.800000011920929,0.800000011920929,0.800000011920929);
#415=AXIS2_PLACEMENT_3D('',#540,#541,#542);
#416=DRAUGHTING_PRE_DEFINED_CURVE_FONT('continuous');
#417=COLOUR_RGB('',0.800000011920929,0.800000011920929,0.800000011920929);
#418=AXIS2_PLACEMENT_3D('',#543,#544,#545);
#419=DRAUGHTING_PRE_DEFINED_CURVE_FONT('continuous');
#420=COLOUR_RGB('',0.800000011920929,0.800000011920929,0.800000011920929);
#421=CARTESIAN_POINT('',(1.2,0.0,0.0));
#422=VECTOR('',#546,1.0);
#423=SURFACE_SIDE_STYLE('',(#547));
#424=EDGE_LOOP('',(#548,#549,#550,#551));
#425=AXIS2_PLACEMENT_3D('',#552,#553,#554);
#426=DRAUGHTING_PRE_DEFINED_CURVE_FONT('continuous');
#427=COLOUR_RGB('',0.800000011920929,0.800000011920929,0.800000011920929);
#428=CARTESIAN_POINT('',(12.85,14.0499999999,0.0));
#429=VECTOR('',#555,1.0);
#430=DRAUGHTING_PRE_DEFINED_CURVE_FONT('continuous');
#431=COLOUR_RGB('',0.800000011920929,0.800000011920929,0.800000011920929);
#432=CARTESIAN_POINT('',(12.85,0.0,0.0));
#433=VECTOR('',#556,1.0);
#434=SURFACE_SIDE_STYLE('',(#557));
#435=EDGE_LOOP('',(#558,#559,#560,#561));
#436=AXIS2_PLACEMENT_3D('',#562,#563,#564);
#437=SURFACE_SIDE_STYLE('',(#565));
#438=EDGE_LOOP('',(#566,#567,#568,#569));
#439=AXIS2_PLACEMENT_3D('',#570,#571,#572);
#440=PRE_DEFINED_MARKER('');
#441=COLOUR_RGB('',0.800000011920929,0.800000011920929,0.800000011920929);
#442=PRE_DEFINED_MARKER('');
#443=COLOUR_RGB('',0.800000011920929,0.800000011920929,0.800000011920929);
#444=SURFACE_SIDE_STYLE('',(#573));
#445=EDGE_LOOP('',(#574,#575,#576,#577));
#446=AXIS2_PLACEMENT_3D('',#578,#579,#580);
#447=DRAUGHTING_PRE_DEFINED_CURVE_FONT('continuous');
#448=COLOUR_RGB('',0.800000011920929,0.800000011920929,0.800000011920929);
#449=CARTESIAN_POINT('',(14.0499999999,1.2,0.0));
#450=VECTOR('',#581,1.0);
#451=PRE_DEFINED_MARKER('');
#452=COLOUR_RGB('',0.800000011920929,0.800000011920929,0.800000011920929);
#453=PRE_DEFINED_MARKER('');
#454=COLOUR_RGB('',0.800000011920929,0.800000011920929,0.800000011920929);
#455=PRE_DEFINED_MARKER('');
#456=COLOUR_RGB('',0.800000011920929,0.800000011920929,0.800000011920929);
#457=SURFACE_SIDE_STYLE('',(#582));
#458=EDGE_LOOP('',(#583,#584,#585,#586));
#459=AXIS2_PLACEMENT_3D('',#587,#588,#589);
#460=SURFACE_SIDE_STYLE('',(#590));
#462=SURFACE_STYLE_FILL_AREA(#591);
#463=ORIENTED_EDGE('',*,*,#147,.T.);
#464=ORIENTED_EDGE('',*,*,#89,.T.);
#465=ORIENTED_EDGE('',*,*,#93,.T.);
#466=ORIENTED_EDGE('',*,*,#87,.T.);
#467=ORIENTED_EDGE('',*,*,#141,.T.);
#468=ORIENTED_EDGE('',*,*,#123,.T.);
#469=ORIENTED_EDGE('',*,*,#85,.T.);
#470=ORIENTED_EDGE('',*,*,#145,.T.);
#471=CARTESIAN_POINT('',(7.025,7.025,0.0));
#472=DIRECTION('',(0.0,0.0,1.0));
#473=DIRECTION('',(1.0,0.0,0.0));
#474=CARTESIAN_POINT('',(12.8499999999,1.2000000001,-5.2));
#475=DIRECTION('',(0.0,0.0,1.0));
#476=DIRECTION('',(8.33318599309982E-011,-1.0,0.0));
#477=DIRECTION('',(0.0,-1.0,0.0));
#478=CARTESIAN_POINT('',(12.8499999999,12.8499999999,0.0));
#479=DIRECTION('',(0.0,-0.0,1.0));
#480=DIRECTION('',(1.0,8.33363008230964E-011,0.0));
#481=CARTESIAN_POINT('',(12.8499999999,1.2000000001,0.0));
#482=DIRECTION('',(0.0,0.0,1.0));
#483=DIRECTION('',(8.33318599309982E-011,-1.0,0.0));
#484=DIRECTION('',(0.0,1.0,0.0));
#485=CARTESIAN_POINT('',(1.2000000001,1.2000000001,-5.2));
#486=DIRECTION('',(0.0,0.0,1.0));
#487=DIRECTION('',(-1.0,-8.33322300053396E-011,0.0));
#488=SURFACE_STYLE_FILL_AREA(#592);
#489=ORIENTED_EDGE('',*,*,#137,.T.);
#490=ORIENTED_EDGE('',*,*,#151,.F.);
#491=ORIENTED_EDGE('',*,*,#87,.F.);
#492=ORIENTED_EDGE('',*,*,#121,.T.);
#493=CARTESIAN_POINT('',(12.8499999999,12.8499999999,0.0));
#494=DIRECTION('',(-0.0,-0.0,1.0));
#495=DIRECTION('',(1.0,8.33363008230964E-011,0.0));
#496=DIRECTION('',(0.139173100978741,1.15978070973194E-011,-0.990268068738946));
#497=SURFACE_STYLE_FILL_AREA(#593);
#498=ORIENTED_EDGE('',*,*,#111,.T.);
#499=ORIENTED_EDGE('',*,*,#101,.F.);
#500=ORIENTED_EDGE('',*,*,#85,.F.);
#501=ORIENTED_EDGE('',*,*,#109,.T.);
#502=CARTESIAN_POINT('',(1.00000674407852E-010,12.85,0.0));
#503=DIRECTION('',(-0.990268068744195,0.0,-0.139173100941391));
#504=DIRECTION('',(0.0,1.0,0.0));
#505=DIRECTION('',(1.0,0.0,0.0));
#506=DIRECTION('',(0.139173100941391,0.0,-0.990268068744195));
#507=DIRECTION('',(0.0,-1.0,0.0));
#508=SURFACE_STYLE_FILL_AREA(#594);
#509=ORIENTED_EDGE('',*,*,#79,.T.);
#510=ORIENTED_EDGE('',*,*,#165,.F.);
#511=ORIENTED_EDGE('',*,*,#89,.F.);
#512=ORIENTED_EDGE('',*,*,#153,.T.);
#513=CARTESIAN_POINT('',(12.8499999999,1.2000000001,0.0));
#514=DIRECTION('',(-0.0,-0.0,1.0));
#515=DIRECTION('',(8.33318599309982E-011,-1.0,0.0));
#516=DIRECTION('',(1.15982299505542E-011,-0.139173100978741,-0.990268068738946));
#517=DIRECTION('',(-0.139173100978741,-1.15980185239368E-011,-0.990268068738946));
#518=CARTESIAN_POINT('',(1.2000000001,12.8499999999,0.0));
#519=DIRECTION('',(0.0,0.0,1.0));
#520=DIRECTION('',(-8.33364858602672E-011,1.0,0.0));
#521=SURFACE_STYLE_FILL_AREA(#595);
#522=ORIENTED_EDGE('',*,*,#79,.F.);
#523=ORIENTED_EDGE('',*,*,#107,.F.);
#524=ORIENTED_EDGE('',*,*,#95,.F.);
#525=ORIENTED_EDGE('',*,*,#111,.F.);
#526=ORIENTED_EDGE('',*,*,#143,.F.);
#527=ORIENTED_EDGE('',*,*,#139,.F.);
#528=ORIENTED_EDGE('',*,*,#137,.F.);
#529=ORIENTED_EDGE('',*,*,#135,.F.);
#530=CARTESIAN_POINT('',(7.025,7.025,-5.2));
#531=DIRECTION('',(0.0,0.0,1.0));
#532=DIRECTION('',(1.0,0.0,0.0));
#533=DIRECTION('',(0.0,0.139173100960066,-0.99026806874157));
#534=DIRECTION('',(0.0,1.0,0.0));
#535=CARTESIAN_POINT('',(12.8499999999,12.8499999999,-5.2));
#536=DIRECTION('',(0.0,-0.0,1.0));
#537=DIRECTION('',(1.0,8.33363008230964E-011,0.0));
#538=DIRECTION('',(-1.0,0.0,0.0));
#539=DIRECTION('',(-1.0,0.0,0.0));
#540=CARTESIAN_POINT('',(1.2000000001,12.8499999999,-5.2));
#541=DIRECTION('',(0.0,0.0,1.0));
#542=DIRECTION('',(-8.33364858602672E-011,1.0,0.0));
#543=CARTESIAN_POINT('',(1.2000000001,1.2000000001,0.0));
#544=DIRECTION('',(0.0,0.0,1.0));
#545=DIRECTION('',(-1.0,-8.33322300053396E-011,0.0));
#546=DIRECTION('',(1.0,0.0,0.0));
#547=SURFACE_STYLE_FILL_AREA(#596);
#548=ORIENTED_EDGE('',*,*,#95,.T.);
#549=ORIENTED_EDGE('',*,*,#131,.F.);
#550=ORIENTED_EDGE('',*,*,#145,.F.);
#551=ORIENTED_EDGE('',*,*,#101,.T.);
#552=CARTESIAN_POINT('',(1.2000000001,1.2000000001,0.0));
#553=DIRECTION('',(0.0,-0.0,1.0));
#554=DIRECTION('',(-1.0,-8.33322300053396E-011,0.0));
#555=DIRECTION('',(0.0,-0.139173100941391,-0.990268068744195));
#556=DIRECTION('',(-1.1597680241349E-011,0.139173100978741,-0.990268068738946));
#557=SURFACE_STYLE_FILL_AREA(#597);
#558=ORIENTED_EDGE('',*,*,#139,.T.);
#559=ORIENTED_EDGE('',*,*,#119,.F.);
#560=ORIENTED_EDGE('',*,*,#141,.F.);
#561=ORIENTED_EDGE('',*,*,#151,.T.);
#562=CARTESIAN_POINT('',(12.85,14.0499999999,0.0));
#563=DIRECTION('',(0.0,0.990268068744195,-0.139173100941391));
#564=DIRECTION('',(1.0,-0.0,0.0));
#565=SURFACE_STYLE_FILL_AREA(#598);
#566=ORIENTED_EDGE('',*,*,#143,.T.);
#567=ORIENTED_EDGE('',*,*,#109,.F.);
#568=ORIENTED_EDGE('',*,*,#123,.F.);
#569=ORIENTED_EDGE('',*,*,#119,.T.);
#570=CARTESIAN_POINT('',(1.2000000001,12.8499999999,0.0));
#571=DIRECTION('',(-0.0,-0.0,1.0));
#572=DIRECTION('',(-8.33364858602672E-011,1.0,0.0));
#573=SURFACE_STYLE_FILL_AREA(#599);
#574=ORIENTED_EDGE('',*,*,#135,.T.);
#575=ORIENTED_EDGE('',*,*,#121,.F.);
#576=ORIENTED_EDGE('',*,*,#93,.F.);
#577=ORIENTED_EDGE('',*,*,#165,.T.);
#578=CARTESIAN_POINT('',(14.0499999999,1.2,0.0));
#579=DIRECTION('',(0.990268068744195,-0.0,-0.139173100941391));
#580=DIRECTION('',(-0.0,-1.0,0.0));
#581=DIRECTION('',(-0.139173100941391,0.0,-0.990268068744195));
#582=SURFACE_STYLE_FILL_AREA(#600);
#583=ORIENTED_EDGE('',*,*,#107,.T.);
#584=ORIENTED_EDGE('',*,*,#153,.F.);
#585=ORIENTED_EDGE('',*,*,#147,.F.);
#586=ORIENTED_EDGE('',*,*,#131,.T.);
#587=CARTESIAN_POINT('',(1.2,0.0,0.0));
#588=DIRECTION('',(-0.0,-0.99026806874157,-0.139173100960066));
#589=DIRECTION('',(-1.0,0.0,0.0));
#590=SURFACE_STYLE_FILL_AREA(#601);
#591=FILL_AREA_STYLE('',(#602));
#592=FILL_AREA_STYLE('',(#603));
#593=FILL_AREA_STYLE('',(#604));
#594=FILL_AREA_STYLE('',(#605));
#595=FILL_AREA_STYLE('',(#606));
#596=FILL_AREA_STYLE('',(#607));
#597=FILL_AREA_STYLE('',(#608));
#598=FILL_AREA_STYLE('',(#609));
#599=FILL_AREA_STYLE('',(#610));
#600=FILL_AREA_STYLE('',(#611));
#601=FILL_AREA_STYLE('',(#612));
#602=FILL_AREA_STYLE_COLOUR('',#613);
#603=FILL_AREA_STYLE_COLOUR('',#614);
#604=FILL_AREA_STYLE_COLOUR('',#615);
#605=FILL_AREA_STYLE_COLOUR('',#616);
#606=FILL_AREA_STYLE_COLOUR('',#617);
#607=FILL_AREA_STYLE_COLOUR('',#618);
#608=FILL_AREA_STYLE_COLOUR('',#619);
#609=FILL_AREA_STYLE_COLOUR('',#620);
#610=FILL_AREA_STYLE_COLOUR('',#621);
#611=FILL_AREA_STYLE_COLOUR('',#622);
#612=FILL_AREA_STYLE_COLOUR('',#623);
#613=COLOUR_RGB('',0.800000011920929,0.800000011920929,0.800000011920929);
#614=COLOUR_RGB('',0.800000011920929,0.800000011920929,0.800000011920929);
#615=COLOUR_RGB('',0.800000011920929,0.800000011920929,0.800000011920929);
#616=COLOUR_RGB('',0.800000011920929,0.800000011920929,0.800000011920929);
#617=COLOUR_RGB('',0.800000011920929,0.800000011920929,0.800000011920929);
#618=COLOUR_RGB('',0.800000011920929,0.800000011920929,0.800000011920929);
#619=COLOUR_RGB('',0.800000011920929,0.800000011920929,0.800000011920929);
#620=COLOUR_RGB('',0.800000011920929,0.800000011920929,0.800000011920929);
#621=COLOUR_RGB('',0.800000011920929,0.800000011920929,0.800000011920929);
#622=COLOUR_RGB('',0.800000011920929,0.800000011920929,0.800000011920929);
#623=COLOUR_RGB('',0.800000011920929,0.800000011920929,0.800000011920929);
#624=AXIS2_PLACEMENT_3D('PCS',#625,#626,#627);
#625=CARTESIAN_POINT('',(0.0,0.0,0.0));
#626=DIRECTION('',(0.0,0.0,1.0));
#627=DIRECTION('',(1.0,0.0,0.0));
#628=AXIS2_PLACEMENT_3D('MCS',#629,#630,#631);
#629=CARTESIAN_POINT('',(7.025,7.025,0.0));
#630=DIRECTION('',(0.0,0.0,1.0));
#631=DIRECTION('',(1.0,0.0,0.0));
#632=CONSTRUCTIVE_GEOMETRY_REPRESENTATION_RELATIONSHIP('coordinate systems',$,#65,#633);
#633=CONSTRUCTIVE_GEOMETRY_REPRESENTATION('coordinate systems',(#624,#628),#6);
ENDSEC;
END-ISO-10303-21;
