ISO-10303-21;
HEADER;
FILE_DESCRIPTION(('no description'),'unknown implementation level');
FILE_NAME('solidc4R9g8M_HAzqgyr8vlZT8_EUPtc_1.STP','  ',('CIMSOURCE GmbH'),('CADClick - KiM GmbH - www.kimweb.de'),'unknown preprocess','ACIS','unknown authorization');
FILE_SCHEMA(('automotive_design'));
ENDSEC;
DATA;
#1=MECHANICAL_DESIGN_GEOMETRIC_PRESENTATION_REPRESENTATION(' ',(#10,#11,#12,#13,#14,#15,#16,#17,#18,#19,#20,#21,#22,#23,#24,#25,#26,#27,#28,#29,#30,#31,#32,#33,#34,#35,#36,#37,#38,#39,#40,#41,#42,#43,#44,#45,#46,#47,#48,#49,#50,#51,#52,#53,#54,#55,#56,#57,#58,#59,#60),#6);
#2=PRODUCT_DEFINITION_CONTEXT('',#61,'design');
#3=APPLICATION_PROTOCOL_DEFINITION('INTERNATIONAL STANDARD','automotive_design',1994,#61);
#4=PRODUCT_CATEGORY_RELATIONSHIP('NONE','NONE',#62,#63);
#5=SHAPE_DEFINITION_REPRESENTATION(#64,#65);
#6= (GEOMETRIC_REPRESENTATION_CONTEXT(3)GLOBAL_UNCERTAINTY_ASSIGNED_CONTEXT((#68))GLOBAL_UNIT_ASSIGNED_CONTEXT((#70,#71,#72))REPRESENTATION_CONTEXT('NONE','WORKSPACE'));
#10=STYLED_ITEM('',(#74),#75);
#11=STYLED_ITEM('',(#76),#77);
#12=STYLED_ITEM('',(#78),#79);
#13=STYLED_ITEM('',(#80),#81);
#14=STYLED_ITEM('',(#82),#83);
#15=STYLED_ITEM('',(#84),#85);
#16=STYLED_ITEM('',(#86),#87);
#17=STYLED_ITEM('',(#88),#89);
#18=STYLED_ITEM('',(#90),#91);
#19=STYLED_ITEM('',(#92),#93);
#20=STYLED_ITEM('',(#94),#95);
#21=STYLED_ITEM('',(#96),#97);
#22=STYLED_ITEM('',(#98),#99);
#23=STYLED_ITEM('',(#100),#101);
#24=STYLED_ITEM('',(#102),#103);
#25=STYLED_ITEM('',(#104),#105);
#26=STYLED_ITEM('',(#106),#107);
#27=STYLED_ITEM('',(#108),#109);
#28=STYLED_ITEM('',(#110),#111);
#29=STYLED_ITEM('',(#112),#113);
#30=STYLED_ITEM('',(#114),#115);
#31=STYLED_ITEM('',(#116),#117);
#32=STYLED_ITEM('',(#118),#119);
#33=STYLED_ITEM('',(#120),#121);
#34=STYLED_ITEM('',(#122),#123);
#35=STYLED_ITEM('',(#124),#125);
#36=STYLED_ITEM('',(#126),#127);
#37=STYLED_ITEM('',(#128),#129);
#38=STYLED_ITEM('',(#130),#131);
#39=STYLED_ITEM('',(#132),#133);
#40=STYLED_ITEM('',(#134),#135);
#41=STYLED_ITEM('',(#136),#137);
#42=STYLED_ITEM('',(#138),#139);
#43=STYLED_ITEM('',(#140),#141);
#44=STYLED_ITEM('',(#142),#143);
#45=STYLED_ITEM('',(#144),#145);
#46=STYLED_ITEM('',(#146),#147);
#47=STYLED_ITEM('',(#148),#149);
#48=STYLED_ITEM('',(#150),#151);
#49=STYLED_ITEM('',(#152),#153);
#50=STYLED_ITEM('',(#154),#155);
#51=STYLED_ITEM('',(#156),#157);
#52=STYLED_ITEM('',(#158),#159);
#53=STYLED_ITEM('',(#160),#161);
#54=STYLED_ITEM('',(#162),#163);
#55=STYLED_ITEM('',(#164),#165);
#56=STYLED_ITEM('',(#166),#167);
#57=STYLED_ITEM('',(#168),#169);
#58=STYLED_ITEM('',(#170),#171);
#59=STYLED_ITEM('',(#172),#173);
#60=STYLED_ITEM('',(#174),#175);
#61=APPLICATION_CONTEXT(' ');
#62=PRODUCT_CATEGORY('part','NONE');
#63=PRODUCT_RELATED_PRODUCT_CATEGORY('detail',' ',(#176));
#64=PRODUCT_DEFINITION_SHAPE('NONE','NONE',#177);
#65=ADVANCED_BREP_SHAPE_REPRESENTATION('1',(#131,#178),#6);
#68=UNCERTAINTY_MEASURE_WITH_UNIT(LENGTH_MEASURE(1.0E-006),#70,'','');
#70= (CONVERSION_BASED_UNIT('MILLIMETRE',#181)LENGTH_UNIT()NAMED_UNIT(#184));
#71= (NAMED_UNIT(#186)PLANE_ANGLE_UNIT()SI_UNIT($,.RADIAN.));
#72= (NAMED_UNIT(#186)SOLID_ANGLE_UNIT()SI_UNIT($,.STERADIAN.));
#74=PRESENTATION_STYLE_ASSIGNMENT((#192));
#75=EDGE_CURVE('',#161,#105,#193,.T.);
#76=PRESENTATION_STYLE_ASSIGNMENT((#194));
#77=EDGE_CURVE('',#85,#157,#195,.T.);
#78=PRESENTATION_STYLE_ASSIGNMENT((#196));
#79=VERTEX_POINT('',#197);
#80=PRESENTATION_STYLE_ASSIGNMENT((#198));
#81=ADVANCED_FACE('',(#199),#200,.T.);
#82=PRESENTATION_STYLE_ASSIGNMENT((#201));
#83=VERTEX_POINT('',#202);
#84=PRESENTATION_STYLE_ASSIGNMENT((#203));
#85=VERTEX_POINT('',#204);
#86=PRESENTATION_STYLE_ASSIGNMENT((#205));
#87=EDGE_CURVE('',#117,#105,#206,.T.);
#88=PRESENTATION_STYLE_ASSIGNMENT((#207));
#89=EDGE_CURVE('',#157,#133,#208,.T.);
#90=PRESENTATION_STYLE_ASSIGNMENT((#209));
#91=ADVANCED_FACE('',(#210),#211,.T.);
#92=PRESENTATION_STYLE_ASSIGNMENT((#212));
#93=EDGE_CURVE('',#133,#151,#213,.T.);
#94=PRESENTATION_STYLE_ASSIGNMENT((#214));
#95=ADVANCED_FACE('',(#215),#216,.T.);
#96=PRESENTATION_STYLE_ASSIGNMENT((#217));
#97=VERTEX_POINT('',#218);
#98=PRESENTATION_STYLE_ASSIGNMENT((#219));
#99=EDGE_CURVE('',#171,#159,#220,.T.);
#100=PRESENTATION_STYLE_ASSIGNMENT((#221));
#101=EDGE_CURVE('',#97,#79,#222,.T.);
#102=PRESENTATION_STYLE_ASSIGNMENT((#223));
#103=ADVANCED_FACE('',(#224),#225,.T.);
#104=PRESENTATION_STYLE_ASSIGNMENT((#226));
#105=VERTEX_POINT('',#227);
#106=PRESENTATION_STYLE_ASSIGNMENT((#228));
#107=EDGE_CURVE('',#79,#133,#229,.T.);
#108=PRESENTATION_STYLE_ASSIGNMENT((#230));
#109=EDGE_CURVE('',#105,#85,#231,.T.);
#110=PRESENTATION_STYLE_ASSIGNMENT((#232));
#111=EDGE_CURVE('',#159,#169,#233,.T.);
#112=PRESENTATION_STYLE_ASSIGNMENT((#234));
#113=VERTEX_POINT('',#235);
#114=PRESENTATION_STYLE_ASSIGNMENT((#236));
#115=VERTEX_POINT('',#237);
#116=PRESENTATION_STYLE_ASSIGNMENT((#238));
#117=VERTEX_POINT('',#239);
#118=PRESENTATION_STYLE_ASSIGNMENT((#240));
#119=EDGE_CURVE('',#117,#113,#241,.T.);
#120=PRESENTATION_STYLE_ASSIGNMENT((#242));
#121=ADVANCED_FACE('',(#243),#244,.T.);
#122=PRESENTATION_STYLE_ASSIGNMENT((#245));
#123=EDGE_CURVE('',#171,#83,#246,.T.);
#124=PRESENTATION_STYLE_ASSIGNMENT((#247));
#125=EDGE_CURVE('',#113,#85,#248,.T.);
#126=PRESENTATION_STYLE_ASSIGNMENT((#249));
#127=EDGE_CURVE('',#83,#115,#250,.T.);
#128=PRESENTATION_STYLE_ASSIGNMENT((#251));
#129=EDGE_CURVE('',#169,#161,#252,.T.);
#130=PRESENTATION_STYLE_ASSIGNMENT((#253));
#131=MANIFOLD_SOLID_BREP('1',#254);
#132=PRESENTATION_STYLE_ASSIGNMENT((#255));
#133=VERTEX_POINT('',#256);
#134=PRESENTATION_STYLE_ASSIGNMENT((#257));
#135=ADVANCED_FACE('',(#258),#259,.T.);
#136=PRESENTATION_STYLE_ASSIGNMENT((#260));
#137=ADVANCED_FACE('',(#261),#262,.T.);
#138=PRESENTATION_STYLE_ASSIGNMENT((#263));
#139=EDGE_CURVE('',#79,#141,#264,.T.);
#140=PRESENTATION_STYLE_ASSIGNMENT((#265));
#141=VERTEX_POINT('',#266);
#142=PRESENTATION_STYLE_ASSIGNMENT((#267));
#143=ADVANCED_FACE('',(#268),#269,.F.);
#144=PRESENTATION_STYLE_ASSIGNMENT((#270));
#145=EDGE_CURVE('',#97,#157,#271,.T.);
#146=PRESENTATION_STYLE_ASSIGNMENT((#272));
#147=EDGE_CURVE('',#113,#97,#273,.T.);
#148=PRESENTATION_STYLE_ASSIGNMENT((#274));
#149=EDGE_CURVE('',#141,#151,#275,.T.);
#150=PRESENTATION_STYLE_ASSIGNMENT((#276));
#151=VERTEX_POINT('',#277);
#152=PRESENTATION_STYLE_ASSIGNMENT((#278));
#153=EDGE_CURVE('',#141,#171,#279,.T.);
#154=PRESENTATION_STYLE_ASSIGNMENT((#280));
#155=ADVANCED_FACE('',(#281),#282,.T.);
#156=PRESENTATION_STYLE_ASSIGNMENT((#283));
#157=VERTEX_POINT('',#284);
#158=PRESENTATION_STYLE_ASSIGNMENT((#285));
#159=VERTEX_POINT('',#286);
#160=PRESENTATION_STYLE_ASSIGNMENT((#287));
#161=VERTEX_POINT('',#288);
#162=PRESENTATION_STYLE_ASSIGNMENT((#289));
#163=EDGE_CURVE('',#169,#117,#290,.T.);
#164=PRESENTATION_STYLE_ASSIGNMENT((#291));
#165=EDGE_CURVE('',#151,#83,#292,.T.);
#166=PRESENTATION_STYLE_ASSIGNMENT((#293));
#167=EDGE_CURVE('',#115,#161,#294,.T.);
#168=PRESENTATION_STYLE_ASSIGNMENT((#295));
#169=VERTEX_POINT('',#296);
#170=PRESENTATION_STYLE_ASSIGNMENT((#297));
#171=VERTEX_POINT('',#298);
#172=PRESENTATION_STYLE_ASSIGNMENT((#299));
#173=ADVANCED_FACE('',(#300),#301,.T.);
#174=PRESENTATION_STYLE_ASSIGNMENT((#302));
#175=EDGE_CURVE('',#159,#115,#303,.T.);
#176=PRODUCT('1','1','PART-1-DESC',(#304));
#177=PRODUCT_DEFINITION('NONE','NONE',#305,#2);
#178=AXIS2_PLACEMENT_3D('',#306,#307,#308);
#181=LENGTH_MEASURE_WITH_UNIT(LENGTH_MEASURE(1.0),#309);
#184=DIMENSIONAL_EXPONENTS(1.0,0.0,0.0,0.0,0.0,0.0,0.0);
#186=DIMENSIONAL_EXPONENTS(0.0,0.0,0.0,0.0,0.0,0.0,0.0);
#192=CURVE_STYLE('',#310,POSITIVE_LENGTH_MEASURE(1.0E-006),#311);
#193=CIRCLE('',#312,0.412971325666605);
#194=CURVE_STYLE('',#313,POSITIVE_LENGTH_MEASURE(1.0E-006),#314);
#195=CIRCLE('',#315,0.412971325666603);
#196=POINT_STYLE(' ',#316,POSITIVE_LENGTH_MEASURE(1.0E-006),#317);
#197=CARTESIAN_POINT('',(15.58,14.38,0.0));
#198=SURFACE_STYLE_USAGE(.BOTH.,#318);
#199=FACE_OUTER_BOUND('',#319,.T.);
#200=CONICAL_SURFACE('',#320,1.2,0.139626340159547);
#201=POINT_STYLE(' ',#321,POSITIVE_LENGTH_MEASURE(1.0E-006),#322);
#202=CARTESIAN_POINT('',(1.20000000006559,14.7929713255666,-5.6));
#203=POINT_STYLE(' ',#323,POSITIVE_LENGTH_MEASURE(1.0E-006),#324);
#204=CARTESIAN_POINT('',(14.3799999999344,0.787028674433395,-5.6));
#205=CURVE_STYLE('',#325,POSITIVE_LENGTH_MEASURE(1.0E-006),#326);
#206=LINE('',#327,#328);
#207=CURVE_STYLE('',#329,POSITIVE_LENGTH_MEASURE(1.0E-006),#330);
#208=LINE('',#331,#332);
#209=SURFACE_STYLE_USAGE(.BOTH.,#333);
#210=FACE_OUTER_BOUND('',#334,.T.);
#211=PLANE('',#335);
#212=CURVE_STYLE('',#336,POSITIVE_LENGTH_MEASURE(1.0E-006),#337);
#213=CIRCLE('',#338,0.412971325666608);
#214=SURFACE_STYLE_USAGE(.BOTH.,#339);
#215=FACE_OUTER_BOUND('',#340,.T.);
#216=PLANE('',#341);
#217=POINT_STYLE(' ',#342,POSITIVE_LENGTH_MEASURE(1.0E-006),#343);
#218=CARTESIAN_POINT('',(15.5799999999,1.2,0.0));
#219=CURVE_STYLE('',#344,POSITIVE_LENGTH_MEASURE(1.0E-006),#345);
#220=CIRCLE('',#346,1.2);
#221=CURVE_STYLE('',#347,POSITIVE_LENGTH_MEASURE(1.0E-006),#348);
#222=LINE('',#349,#350);
#223=SURFACE_STYLE_USAGE(.BOTH.,#351);
#224=FACE_OUTER_BOUND('',#352,.T.);
#225=PLANE('',#353);
#226=POINT_STYLE(' ',#354,POSITIVE_LENGTH_MEASURE(1.0E-006),#355);
#227=CARTESIAN_POINT('',(1.2,0.787028674333394,-5.6));
#228=CURVE_STYLE('',#356,POSITIVE_LENGTH_MEASURE(1.0E-006),#357);
#229=LINE('',#358,#359);
#230=CURVE_STYLE('',#360,POSITIVE_LENGTH_MEASURE(1.0E-006),#361);
#231=LINE('',#362,#363);
#232=CURVE_STYLE('',#364,POSITIVE_LENGTH_MEASURE(1.0E-006),#365);
#233=LINE('',#366,#367);
#234=POINT_STYLE(' ',#368,POSITIVE_LENGTH_MEASURE(1.0E-006),#369);
#235=CARTESIAN_POINT('',(14.38,0.0,0.0));
#236=POINT_STYLE(' ',#370,POSITIVE_LENGTH_MEASURE(1.0E-006),#371);
#237=CARTESIAN_POINT('',(0.787028674333394,14.38,-5.6));
#238=POINT_STYLE(' ',#372,POSITIVE_LENGTH_MEASURE(1.0E-006),#373);
#239=CARTESIAN_POINT('',(1.2,0.0,0.0));
#240=CURVE_STYLE('',#374,POSITIVE_LENGTH_MEASURE(1.0E-006),#375);
#241=LINE('',#376,#377);
#242=SURFACE_STYLE_USAGE(.BOTH.,#378);
#243=FACE_OUTER_BOUND('',#379,.T.);
#244=PLANE('',#380);
#245=CURVE_STYLE('',#381,POSITIVE_LENGTH_MEASURE(1.0E-006),#382);
#246=LINE('',#383,#384);
#247=CURVE_STYLE('',#385,POSITIVE_LENGTH_MEASURE(1.0E-006),#386);
#248=LINE('',#387,#388);
#249=CURVE_STYLE('',#389,POSITIVE_LENGTH_MEASURE(1.0E-006),#390);
#250=CIRCLE('',#391,0.412971325666608);
#251=CURVE_STYLE('',#392,POSITIVE_LENGTH_MEASURE(1.0E-006),#393);
#252=LINE('',#394,#395);
#253=SURFACE_STYLE_USAGE(.BOTH.,#396);
#254=CLOSED_SHELL('',(#135,#103,#173,#155,#137,#95,#81,#91,#143,#121));
#255=POINT_STYLE(' ',#397,POSITIVE_LENGTH_MEASURE(1.0E-006),#398);
#256=CARTESIAN_POINT('',(14.7929713255666,14.3799999999344,-5.6));
#257=SURFACE_STYLE_USAGE(.BOTH.,#399);
#258=FACE_OUTER_BOUND('',#400,.T.);
#259=CONICAL_SURFACE('',#401,1.2,0.139626340159547);
#260=SURFACE_STYLE_USAGE(.BOTH.,#402);
#261=FACE_OUTER_BOUND('',#403,.T.);
#262=CONICAL_SURFACE('',#404,1.2,0.139626340159547);
#263=CURVE_STYLE('',#405,POSITIVE_LENGTH_MEASURE(1.0E-006),#406);
#264=CIRCLE('',#407,1.2);
#265=POINT_STYLE(' ',#408,POSITIVE_LENGTH_MEASURE(1.0E-006),#409);
#266=CARTESIAN_POINT('',(14.38,15.5799999999,0.0));
#267=SURFACE_STYLE_USAGE(.BOTH.,#410);
#268=FACE_OUTER_BOUND('',#411,.T.);
#269=PLANE('',#412);
#270=CURVE_STYLE('',#413,POSITIVE_LENGTH_MEASURE(1.0E-006),#414);
#271=LINE('',#415,#416);
#272=CURVE_STYLE('',#417,POSITIVE_LENGTH_MEASURE(1.0E-006),#418);
#273=CIRCLE('',#419,1.2);
#274=CURVE_STYLE('',#420,POSITIVE_LENGTH_MEASURE(1.0E-006),#421);
#275=LINE('',#422,#423);
#276=POINT_STYLE(' ',#424,POSITIVE_LENGTH_MEASURE(1.0E-006),#425);
#277=CARTESIAN_POINT('',(14.38,14.7929713256666,-5.6));
#278=CURVE_STYLE('',#426,POSITIVE_LENGTH_MEASURE(1.0E-006),#427);
#279=LINE('',#428,#429);
#280=SURFACE_STYLE_USAGE(.BOTH.,#430);
#281=FACE_OUTER_BOUND('',#431,.T.);
#282=PLANE('',#432);
#283=POINT_STYLE(' ',#433,POSITIVE_LENGTH_MEASURE(1.0E-006),#434);
#284=CARTESIAN_POINT('',(14.7929713256666,1.2,-5.6));
#285=POINT_STYLE(' ',#435,POSITIVE_LENGTH_MEASURE(1.0E-006),#436);
#286=CARTESIAN_POINT('',(1.00000674407852E-010,14.38,0.0));
#287=POINT_STYLE(' ',#437,POSITIVE_LENGTH_MEASURE(1.0E-006),#438);
#288=CARTESIAN_POINT('',(0.787028674433394,1.20000000006559,-5.6));
#289=CURVE_STYLE('',#439,POSITIVE_LENGTH_MEASURE(1.0E-006),#440);
#290=CIRCLE('',#441,1.2);
#291=CURVE_STYLE('',#442,POSITIVE_LENGTH_MEASURE(1.0E-006),#443);
#292=LINE('',#444,#445);
#293=CURVE_STYLE('',#446,POSITIVE_LENGTH_MEASURE(1.0E-006),#447);
#294=LINE('',#448,#449);
#295=POINT_STYLE(' ',#450,POSITIVE_LENGTH_MEASURE(1.0E-006),#451);
#296=CARTESIAN_POINT('',(0.0,1.2,0.0));
#297=POINT_STYLE(' ',#452,POSITIVE_LENGTH_MEASURE(1.0E-006),#453);
#298=CARTESIAN_POINT('',(1.2,15.58,0.0));
#299=SURFACE_STYLE_USAGE(.BOTH.,#454);
#300=FACE_OUTER_BOUND('',#455,.T.);
#301=CONICAL_SURFACE('',#456,1.2,0.139626340159547);
#302=CURVE_STYLE('',#457,POSITIVE_LENGTH_MEASURE(1.0E-006),#458);
#303=LINE('',#459,#460);
#304=PRODUCT_CONTEXT('',#61,'mechanical');
#305=PRODUCT_DEFINITION_FORMATION_WITH_SPECIFIED_SOURCE(' ','NONE',#176,.NOT_KNOWN.);
#306=CARTESIAN_POINT('',(0.0,0.0,0.0));
#307=DIRECTION('',(0.0,0.0,1.0));
#308=DIRECTION('',(1.0,0.0,0.0));
#309= (NAMED_UNIT(#184)LENGTH_UNIT()SI_UNIT(.MILLI.,.METRE.));
#310=DRAUGHTING_PRE_DEFINED_CURVE_FONT('continuous');
#311=COLOUR_RGB('',0.800000011920929,0.800000011920929,0.800000011920929);
#312=AXIS2_PLACEMENT_3D('',#462,#463,#464);
#313=DRAUGHTING_PRE_DEFINED_CURVE_FONT('continuous');
#314=COLOUR_RGB('',0.800000011920929,0.800000011920929,0.800000011920929);
#315=AXIS2_PLACEMENT_3D('',#465,#466,#467);
#316=PRE_DEFINED_MARKER('');
#317=COLOUR_RGB('',0.800000011920929,0.800000011920929,0.800000011920929);
#318=SURFACE_SIDE_STYLE('',(#468));
#319=EDGE_LOOP('',(#469,#470,#471,#472));
#320=AXIS2_PLACEMENT_3D('',#473,#474,#475);
#321=PRE_DEFINED_MARKER('');
#322=COLOUR_RGB('',0.800000011920929,0.800000011920929,0.800000011920929);
#323=PRE_DEFINED_MARKER('');
#324=COLOUR_RGB('',0.800000011920929,0.800000011920929,0.800000011920929);
#325=DRAUGHTING_PRE_DEFINED_CURVE_FONT('continuous');
#326=COLOUR_RGB('',0.800000011920929,0.800000011920929,0.800000011920929);
#327=CARTESIAN_POINT('',(1.2,0.0,0.0));
#328=VECTOR('',#476,1.0);
#329=DRAUGHTING_PRE_DEFINED_CURVE_FONT('continuous');
#330=COLOUR_RGB('',0.800000011920929,0.800000011920929,0.800000011920929);
#331=CARTESIAN_POINT('',(14.7929713256666,1.2,-5.6));
#332=VECTOR('',#477,1.0);
#333=SURFACE_SIDE_STYLE('',(#478));
#334=EDGE_LOOP('',(#479,#480,#481,#482));
#335=AXIS2_PLACEMENT_3D('',#483,#484,#485);
#336=DRAUGHTING_PRE_DEFINED_CURVE_FONT('continuous');
#337=COLOUR_RGB('',0.800000011920929,0.800000011920929,0.800000011920929);
#338=AXIS2_PLACEMENT_3D('',#486,#487,#488);
#339=SURFACE_SIDE_STYLE('',(#489));
#340=EDGE_LOOP('',(#490,#491,#492,#493));
#341=AXIS2_PLACEMENT_3D('',#494,#495,#496);
#342=PRE_DEFINED_MARKER('');
#343=COLOUR_RGB('',0.800000011920929,0.800000011920929,0.800000011920929);
#344=DRAUGHTING_PRE_DEFINED_CURVE_FONT('continuous');
#345=COLOUR_RGB('',0.800000011920929,0.800000011920929,0.800000011920929);
#346=AXIS2_PLACEMENT_3D('',#497,#498,#499);
#347=DRAUGHTING_PRE_DEFINED_CURVE_FONT('continuous');
#348=COLOUR_RGB('',0.800000011920929,0.800000011920929,0.800000011920929);
#349=CARTESIAN_POINT('',(15.58,1.2,0.0));
#350=VECTOR('',#500,1.0);
#351=SURFACE_SIDE_STYLE('',(#501));
#352=EDGE_LOOP('',(#502,#503,#504,#505));
#353=AXIS2_PLACEMENT_3D('',#506,#507,#508);
#354=PRE_DEFINED_MARKER('');
#355=COLOUR_RGB('',0.800000011920929,0.800000011920929,0.800000011920929);
#356=DRAUGHTING_PRE_DEFINED_CURVE_FONT('continuous');
#357=COLOUR_RGB('',0.800000011920929,0.800000011920929,0.800000011920929);
#358=CARTESIAN_POINT('',(15.58,14.38,0.0));
#359=VECTOR('',#509,1.0);
#360=DRAUGHTING_PRE_DEFINED_CURVE_FONT('continuous');
#361=COLOUR_RGB('',0.800000011920929,0.800000011920929,0.800000011920929);
#362=CARTESIAN_POINT('',(1.2,0.787028674333394,-5.6));
#363=VECTOR('',#510,1.0);
#364=DRAUGHTING_PRE_DEFINED_CURVE_FONT('continuous');
#365=COLOUR_RGB('',0.800000011920929,0.800000011920929,0.800000011920929);
#366=CARTESIAN_POINT('',(0.0,14.38,0.0));
#367=VECTOR('',#511,1.0);
#368=PRE_DEFINED_MARKER('');
#369=COLOUR_RGB('',0.800000011920929,0.800000011920929,0.800000011920929);
#370=PRE_DEFINED_MARKER('');
#371=COLOUR_RGB('',0.800000011920929,0.800000011920929,0.800000011920929);
#372=PRE_DEFINED_MARKER('');
#373=COLOUR_RGB('',0.800000011920929,0.800000011920929,0.800000011920929);
#374=DRAUGHTING_PRE_DEFINED_CURVE_FONT('continuous');
#375=COLOUR_RGB('',0.800000011920929,0.800000011920929,0.800000011920929);
#376=CARTESIAN_POINT('',(1.2,0.0,0.0));
#377=VECTOR('',#512,1.0);
#378=SURFACE_SIDE_STYLE('',(#513));
#379=EDGE_LOOP('',(#514,#515,#516,#517,#518,#519,#520,#521));
#380=AXIS2_PLACEMENT_3D('',#522,#523,#524);
#381=DRAUGHTING_PRE_DEFINED_CURVE_FONT('continuous');
#382=COLOUR_RGB('',0.800000011920929,0.800000011920929,0.800000011920929);
#383=CARTESIAN_POINT('',(1.2,15.58,0.0));
#384=VECTOR('',#525,1.0);
#385=DRAUGHTING_PRE_DEFINED_CURVE_FONT('continuous');
#386=COLOUR_RGB('',0.800000011920929,0.800000011920929,0.800000011920929);
#387=CARTESIAN_POINT('',(14.38,0.0,0.0));
#388=VECTOR('',#526,1.0);
#389=DRAUGHTING_PRE_DEFINED_CURVE_FONT('continuous');
#390=COLOUR_RGB('',0.800000011920929,0.800000011920929,0.800000011920929);
#391=AXIS2_PLACEMENT_3D('',#527,#528,#529);
#392=DRAUGHTING_PRE_DEFINED_CURVE_FONT('continuous');
#393=COLOUR_RGB('',0.800000011920929,0.800000011920929,0.800000011920929);
#394=CARTESIAN_POINT('',(0.0,1.2,0.0));
#395=VECTOR('',#530,1.0);
#396=SURFACE_SIDE_STYLE('',(#531));
#397=PRE_DEFINED_MARKER('');
#398=COLOUR_RGB('',0.800000011920929,0.800000011920929,0.800000011920929);
#399=SURFACE_SIDE_STYLE('',(#532));
#400=EDGE_LOOP('',(#533,#534,#535,#536));
#401=AXIS2_PLACEMENT_3D('',#537,#538,#539);
#402=SURFACE_SIDE_STYLE('',(#540));
#403=EDGE_LOOP('',(#541,#542,#543,#544));
#404=AXIS2_PLACEMENT_3D('',#545,#546,#547);
#405=DRAUGHTING_PRE_DEFINED_CURVE_FONT('continuous');
#406=COLOUR_RGB('',0.800000011920929,0.800000011920929,0.800000011920929);
#407=AXIS2_PLACEMENT_3D('',#548,#549,#550);
#408=PRE_DEFINED_MARKER('');
#409=COLOUR_RGB('',0.800000011920929,0.800000011920929,0.800000011920929);
#410=SURFACE_SIDE_STYLE('',(#551));
#411=EDGE_LOOP('',(#552,#553,#554,#555,#556,#557,#558,#559));
#412=AXIS2_PLACEMENT_3D('',#560,#561,#562);
#413=DRAUGHTING_PRE_DEFINED_CURVE_FONT('continuous');
#414=COLOUR_RGB('',0.800000011920929,0.800000011920929,0.800000011920929);
#415=CARTESIAN_POINT('',(15.5799999999,1.2,0.0));
#416=VECTOR('',#563,1.0);
#417=DRAUGHTING_PRE_DEFINED_CURVE_FONT('continuous');
#418=COLOUR_RGB('',0.800000011920929,0.800000011920929,0.800000011920929);
#419=AXIS2_PLACEMENT_3D('',#564,#565,#566);
#420=DRAUGHTING_PRE_DEFINED_CURVE_FONT('continuous');
#421=COLOUR_RGB('',0.800000011920929,0.800000011920929,0.800000011920929);
#422=CARTESIAN_POINT('',(14.38,15.5799999999,0.0));
#423=VECTOR('',#567,1.0);
#424=PRE_DEFINED_MARKER('');
#425=COLOUR_RGB('',0.800000011920929,0.800000011920929,0.800000011920929);
#426=DRAUGHTING_PRE_DEFINED_CURVE_FONT('continuous');
#427=COLOUR_RGB('',0.800000011920929,0.800000011920929,0.800000011920929);
#428=CARTESIAN_POINT('',(14.38,15.58,0.0));
#429=VECTOR('',#568,1.0);
#430=SURFACE_SIDE_STYLE('',(#569));
#431=EDGE_LOOP('',(#570,#571,#572,#573));
#432=AXIS2_PLACEMENT_3D('',#574,#575,#576);
#433=PRE_DEFINED_MARKER('');
#434=COLOUR_RGB('',0.800000011920929,0.800000011920929,0.800000011920929);
#435=PRE_DEFINED_MARKER('');
#436=COLOUR_RGB('',0.800000011920929,0.800000011920929,0.800000011920929);
#437=PRE_DEFINED_MARKER('');
#438=COLOUR_RGB('',0.800000011920929,0.800000011920929,0.800000011920929);
#439=DRAUGHTING_PRE_DEFINED_CURVE_FONT('continuous');
#440=COLOUR_RGB('',0.800000011920929,0.800000011920929,0.800000011920929);
#441=AXIS2_PLACEMENT_3D('',#577,#578,#579);
#442=DRAUGHTING_PRE_DEFINED_CURVE_FONT('continuous');
#443=COLOUR_RGB('',0.800000011920929,0.800000011920929,0.800000011920929);
#444=CARTESIAN_POINT('',(14.38,14.7929713256666,-5.6));
#445=VECTOR('',#580,1.0);
#446=DRAUGHTING_PRE_DEFINED_CURVE_FONT('continuous');
#447=COLOUR_RGB('',0.800000011920929,0.800000011920929,0.800000011920929);
#448=CARTESIAN_POINT('',(0.787028674333394,14.38,-5.6));
#449=VECTOR('',#581,1.0);
#450=PRE_DEFINED_MARKER('');
#451=COLOUR_RGB('',0.800000011920929,0.800000011920929,0.800000011920929);
#452=PRE_DEFINED_MARKER('');
#453=COLOUR_RGB('',0.800000011920929,0.800000011920929,0.800000011920929);
#454=SURFACE_SIDE_STYLE('',(#582));
#455=EDGE_LOOP('',(#583,#584,#585,#586));
#456=AXIS2_PLACEMENT_3D('',#587,#588,#589);
#457=DRAUGHTING_PRE_DEFINED_CURVE_FONT('continuous');
#458=COLOUR_RGB('',0.800000011920929,0.800000011920929,0.800000011920929);
#459=CARTESIAN_POINT('',(1.00000674407852E-010,14.38,0.0));
#460=VECTOR('',#590,1.0);
#462=CARTESIAN_POINT('',(1.2000000001,1.2000000001,-5.6));
#463=DIRECTION('',(0.0,0.0,1.0));
#464=DIRECTION('',(-1.0,-8.33322300053397E-011,0.0));
#465=CARTESIAN_POINT('',(14.3799999999,1.2000000001,-5.6));
#466=DIRECTION('',(0.0,0.0,1.0));
#467=DIRECTION('',(8.33318599309982E-011,-1.0,0.0));
#468=SURFACE_STYLE_FILL_AREA(#591);
#469=ORIENTED_EDGE('',*,*,#75,.T.);
#470=ORIENTED_EDGE('',*,*,#87,.F.);
#471=ORIENTED_EDGE('',*,*,#163,.F.);
#472=ORIENTED_EDGE('',*,*,#129,.T.);
#473=CARTESIAN_POINT('',(1.2000000001,1.2000000001,0.0));
#474=DIRECTION('',(0.0,-0.0,1.0));
#475=DIRECTION('',(-1.0,-8.33322300053396E-011,0.0));
#476=DIRECTION('',(0.0,0.139173100960066,-0.99026806874157));
#477=DIRECTION('',(0.0,1.0,0.0));
#478=SURFACE_STYLE_FILL_AREA(#592);
#479=ORIENTED_EDGE('',*,*,#109,.T.);
#480=ORIENTED_EDGE('',*,*,#125,.F.);
#481=ORIENTED_EDGE('',*,*,#119,.F.);
#482=ORIENTED_EDGE('',*,*,#87,.T.);
#483=CARTESIAN_POINT('',(1.2,0.0,0.0));
#484=DIRECTION('',(-0.0,-0.99026806874157,-0.139173100960066));
#485=DIRECTION('',(-1.0,0.0,0.0));
#486=CARTESIAN_POINT('',(14.3799999999,14.3799999999,-5.6));
#487=DIRECTION('',(0.0,-0.0,1.0));
#488=DIRECTION('',(1.0,8.33363008230964E-011,0.0));
#489=SURFACE_STYLE_FILL_AREA(#593);
#490=ORIENTED_EDGE('',*,*,#167,.T.);
#491=ORIENTED_EDGE('',*,*,#129,.F.);
#492=ORIENTED_EDGE('',*,*,#111,.F.);
#493=ORIENTED_EDGE('',*,*,#175,.T.);
#494=CARTESIAN_POINT('',(1.00000674407852E-010,14.38,0.0));
#495=DIRECTION('',(-0.990268068744007,0.0,-0.139173100942725));
#496=DIRECTION('',(0.0,1.0,0.0));
#497=CARTESIAN_POINT('',(1.2000000001,14.3799999999,0.0));
#498=DIRECTION('',(0.0,0.0,1.0));
#499=DIRECTION('',(-8.33364858602672E-011,1.0,0.0));
#500=DIRECTION('',(0.0,1.0,0.0));
#501=SURFACE_STYLE_FILL_AREA(#594);
#502=ORIENTED_EDGE('',*,*,#89,.T.);
#503=ORIENTED_EDGE('',*,*,#107,.F.);
#504=ORIENTED_EDGE('',*,*,#101,.F.);
#505=ORIENTED_EDGE('',*,*,#145,.T.);
#506=CARTESIAN_POINT('',(15.5799999999,1.2,0.0));
#507=DIRECTION('',(0.990268068744007,-0.0,-0.139173100942725));
#508=DIRECTION('',(-0.0,-1.0,0.0));
#509=DIRECTION('',(-0.139173100977407,-1.15982359913169E-011,-0.990268068739133));
#510=DIRECTION('',(1.0,0.0,0.0));
#511=DIRECTION('',(0.0,-1.0,0.0));
#512=DIRECTION('',(1.0,0.0,0.0));
#513=SURFACE_STYLE_FILL_AREA(#595);
#514=ORIENTED_EDGE('',*,*,#119,.T.);
#515=ORIENTED_EDGE('',*,*,#147,.T.);
#516=ORIENTED_EDGE('',*,*,#101,.T.);
#517=ORIENTED_EDGE('',*,*,#139,.T.);
#518=ORIENTED_EDGE('',*,*,#153,.T.);
#519=ORIENTED_EDGE('',*,*,#99,.T.);
#520=ORIENTED_EDGE('',*,*,#111,.T.);
#521=ORIENTED_EDGE('',*,*,#163,.T.);
#522=CARTESIAN_POINT('',(7.79,7.79,0.0));
#523=DIRECTION('',(0.0,0.0,1.0));
#524=DIRECTION('',(1.0,0.0,0.0));
#525=DIRECTION('',(1.15982359913169E-011,-0.139173100977407,-0.990268068739133));
#526=DIRECTION('',(-1.15972936326794E-011,0.139173100977407,-0.990268068739133));
#527=CARTESIAN_POINT('',(1.2000000001,14.3799999999,-5.6));
#528=DIRECTION('',(0.0,0.0,1.0));
#529=DIRECTION('',(-8.33364858602672E-011,1.0,0.0));
#530=DIRECTION('',(0.139173100977407,1.15976077522252E-011,-0.990268068739133));
#531=SURFACE_STYLE_FILL_AREA(#596);
#532=SURFACE_STYLE_FILL_AREA(#597);
#533=ORIENTED_EDGE('',*,*,#77,.T.);
#534=ORIENTED_EDGE('',*,*,#145,.F.);
#535=ORIENTED_EDGE('',*,*,#147,.F.);
#536=ORIENTED_EDGE('',*,*,#125,.T.);
#537=CARTESIAN_POINT('',(14.3799999999,1.2000000001,0.0));
#538=DIRECTION('',(-0.0,-0.0,1.0));
#539=DIRECTION('',(8.33318599309982E-011,-1.0,0.0));
#540=SURFACE_STYLE_FILL_AREA(#598);
#541=ORIENTED_EDGE('',*,*,#127,.T.);
#542=ORIENTED_EDGE('',*,*,#175,.F.);
#543=ORIENTED_EDGE('',*,*,#99,.F.);
#544=ORIENTED_EDGE('',*,*,#123,.T.);
#545=CARTESIAN_POINT('',(1.2000000001,14.3799999999,0.0));
#546=DIRECTION('',(-0.0,-0.0,1.0));
#547=DIRECTION('',(-8.33364858602672E-011,1.0,0.0));
#548=CARTESIAN_POINT('',(14.3799999999,14.3799999999,0.0));
#549=DIRECTION('',(0.0,-0.0,1.0));
#550=DIRECTION('',(1.0,8.33363008230964E-011,0.0));
#551=SURFACE_STYLE_FILL_AREA(#599);
#552=ORIENTED_EDGE('',*,*,#77,.F.);
#553=ORIENTED_EDGE('',*,*,#109,.F.);
#554=ORIENTED_EDGE('',*,*,#75,.F.);
#555=ORIENTED_EDGE('',*,*,#167,.F.);
#556=ORIENTED_EDGE('',*,*,#127,.F.);
#557=ORIENTED_EDGE('',*,*,#165,.F.);
#558=ORIENTED_EDGE('',*,*,#93,.F.);
#559=ORIENTED_EDGE('',*,*,#89,.F.);
#560=CARTESIAN_POINT('',(7.79,7.79,-5.6));
#561=DIRECTION('',(0.0,0.0,1.0));
#562=DIRECTION('',(1.0,0.0,0.0));
#563=DIRECTION('',(-0.139173100942725,0.0,-0.990268068744007));
#564=CARTESIAN_POINT('',(14.3799999999,1.2000000001,0.0));
#565=DIRECTION('',(0.0,0.0,1.0));
#566=DIRECTION('',(8.33318599309982E-011,-1.0,0.0));
#567=DIRECTION('',(0.0,-0.139173100942725,-0.990268068744008));
#568=DIRECTION('',(-1.0,0.0,0.0));
#569=SURFACE_STYLE_FILL_AREA(#600);
#570=ORIENTED_EDGE('',*,*,#165,.T.);
#571=ORIENTED_EDGE('',*,*,#123,.F.);
#572=ORIENTED_EDGE('',*,*,#153,.F.);
#573=ORIENTED_EDGE('',*,*,#149,.T.);
#574=CARTESIAN_POINT('',(14.38,15.5799999999,0.0));
#575=DIRECTION('',(0.0,0.990268068744007,-0.139173100942725));
#576=DIRECTION('',(1.0,-0.0,0.0));
#577=CARTESIAN_POINT('',(1.2000000001,1.2000000001,0.0));
#578=DIRECTION('',(0.0,0.0,1.0));
#579=DIRECTION('',(-1.0,-8.33322300053396E-011,0.0));
#580=DIRECTION('',(-1.0,0.0,0.0));
#581=DIRECTION('',(0.0,-1.0,0.0));
#582=SURFACE_STYLE_FILL_AREA(#601);
#583=ORIENTED_EDGE('',*,*,#93,.T.);
#584=ORIENTED_EDGE('',*,*,#149,.F.);
#585=ORIENTED_EDGE('',*,*,#139,.F.);
#586=ORIENTED_EDGE('',*,*,#107,.T.);
#587=CARTESIAN_POINT('',(14.3799999999,14.3799999999,0.0));
#588=DIRECTION('',(-0.0,-0.0,1.0));
#589=DIRECTION('',(1.0,8.33363008230964E-011,0.0));
#590=DIRECTION('',(0.139173100942725,0.0,-0.990268068744007));
#591=FILL_AREA_STYLE('',(#602));
#592=FILL_AREA_STYLE('',(#603));
#593=FILL_AREA_STYLE('',(#604));
#594=FILL_AREA_STYLE('',(#605));
#595=FILL_AREA_STYLE('',(#606));
#596=FILL_AREA_STYLE('',(#607));
#597=FILL_AREA_STYLE('',(#608));
#598=FILL_AREA_STYLE('',(#609));
#599=FILL_AREA_STYLE('',(#610));
#600=FILL_AREA_STYLE('',(#611));
#601=FILL_AREA_STYLE('',(#612));
#602=FILL_AREA_STYLE_COLOUR('',#613);
#603=FILL_AREA_STYLE_COLOUR('',#614);
#604=FILL_AREA_STYLE_COLOUR('',#615);
#605=FILL_AREA_STYLE_COLOUR('',#616);
#606=FILL_AREA_STYLE_COLOUR('',#617);
#607=FILL_AREA_STYLE_COLOUR('',#618);
#608=FILL_AREA_STYLE_COLOUR('',#619);
#609=FILL_AREA_STYLE_COLOUR('',#620);
#610=FILL_AREA_STYLE_COLOUR('',#621);
#611=FILL_AREA_STYLE_COLOUR('',#622);
#612=FILL_AREA_STYLE_COLOUR('',#623);
#613=COLOUR_RGB('',0.800000011920929,0.800000011920929,0.800000011920929);
#614=COLOUR_RGB('',0.800000011920929,0.800000011920929,0.800000011920929);
#615=COLOUR_RGB('',0.800000011920929,0.800000011920929,0.800000011920929);
#616=COLOUR_RGB('',0.800000011920929,0.800000011920929,0.800000011920929);
#617=COLOUR_RGB('',0.800000011920929,0.800000011920929,0.800000011920929);
#618=COLOUR_RGB('',0.800000011920929,0.800000011920929,0.800000011920929);
#619=COLOUR_RGB('',0.800000011920929,0.800000011920929,0.800000011920929);
#620=COLOUR_RGB('',0.800000011920929,0.800000011920929,0.800000011920929);
#621=COLOUR_RGB('',0.800000011920929,0.800000011920929,0.800000011920929);
#622=COLOUR_RGB('',0.800000011920929,0.800000011920929,0.800000011920929);
#623=COLOUR_RGB('',0.800000011920929,0.800000011920929,0.800000011920929);
#624=AXIS2_PLACEMENT_3D('PCS',#625,#626,#627);
#625=CARTESIAN_POINT('',(0.0,0.0,0.0));
#626=DIRECTION('',(0.0,0.0,1.0));
#627=DIRECTION('',(1.0,0.0,0.0));
#628=AXIS2_PLACEMENT_3D('MCS',#629,#630,#631);
#629=CARTESIAN_POINT('',(7.79,7.79,0.0));
#630=DIRECTION('',(0.0,0.0,1.0));
#631=DIRECTION('',(1.0,0.0,0.0));
#632=CONSTRUCTIVE_GEOMETRY_REPRESENTATION_RELATIONSHIP('coordinate systems',$,#65,#633);
#633=CONSTRUCTIVE_GEOMETRY_REPRESENTATION('coordinate systems',(#624,#628),#6);
ENDSEC;
END-ISO-10303-21;
