ISO-10303-21;
HEADER;
FILE_DESCRIPTION(('no description'),'unknown implementation level');
FILE_NAME('solidNFi8zO0tu5qy61mE20RNv9XufgI_1.STP','  ',('CIMSOURCE GmbH'),('CADClick - KiM GmbH - www.kimweb.de'),'unknown preprocess','ACIS','unknown authorization');
FILE_SCHEMA(('automotive_design'));
ENDSEC;
DATA;
#1=MECHANICAL_DESIGN_GEOMETRIC_PRESENTATION_REPRESENTATION(' ',(#10,#11,#12,#13,#14,#15,#16,#17,#18,#19,#20,#21,#22,#23,#24,#25,#26,#27,#28,#29,#30,#31,#32,#33,#34,#35,#36,#37,#38,#39,#40,#41,#42,#43,#44,#45,#46,#47,#48,#49,#50,#51,#52,#53,#54,#55,#56,#57,#58,#59,#60),#6);
#2=PRODUCT_DEFINITION_CONTEXT('',#61,'design');
#3=APPLICATION_PROTOCOL_DEFINITION('INTERNATIONAL STANDARD','automotive_design',1994,#61);
#4=PRODUCT_CATEGORY_RELATIONSHIP('NONE','NONE',#62,#63);
#5=SHAPE_DEFINITION_REPRESENTATION(#64,#65);
#6= (GEOMETRIC_REPRESENTATION_CONTEXT(3)GLOBAL_UNCERTAINTY_ASSIGNED_CONTEXT((#68))GLOBAL_UNIT_ASSIGNED_CONTEXT((#70,#71,#72))REPRESENTATION_CONTEXT('NONE','WORKSPACE'));
#10=STYLED_ITEM('',(#74),#75);
#11=STYLED_ITEM('',(#76),#77);
#12=STYLED_ITEM('',(#78),#79);
#13=STYLED_ITEM('',(#80),#81);
#14=STYLED_ITEM('',(#82),#83);
#15=STYLED_ITEM('',(#84),#85);
#16=STYLED_ITEM('',(#86),#87);
#17=STYLED_ITEM('',(#88),#89);
#18=STYLED_ITEM('',(#90),#91);
#19=STYLED_ITEM('',(#92),#93);
#20=STYLED_ITEM('',(#94),#95);
#21=STYLED_ITEM('',(#96),#97);
#22=STYLED_ITEM('',(#98),#99);
#23=STYLED_ITEM('',(#100),#101);
#24=STYLED_ITEM('',(#102),#103);
#25=STYLED_ITEM('',(#104),#105);
#26=STYLED_ITEM('',(#106),#107);
#27=STYLED_ITEM('',(#108),#109);
#28=STYLED_ITEM('',(#110),#111);
#29=STYLED_ITEM('',(#112),#113);
#30=STYLED_ITEM('',(#114),#115);
#31=STYLED_ITEM('',(#116),#117);
#32=STYLED_ITEM('',(#118),#119);
#33=STYLED_ITEM('',(#120),#121);
#34=STYLED_ITEM('',(#122),#123);
#35=STYLED_ITEM('',(#124),#125);
#36=STYLED_ITEM('',(#126),#127);
#37=STYLED_ITEM('',(#128),#129);
#38=STYLED_ITEM('',(#130),#131);
#39=STYLED_ITEM('',(#132),#133);
#40=STYLED_ITEM('',(#134),#135);
#41=STYLED_ITEM('',(#136),#137);
#42=STYLED_ITEM('',(#138),#139);
#43=STYLED_ITEM('',(#140),#141);
#44=STYLED_ITEM('',(#142),#143);
#45=STYLED_ITEM('',(#144),#145);
#46=STYLED_ITEM('',(#146),#147);
#47=STYLED_ITEM('',(#148),#149);
#48=STYLED_ITEM('',(#150),#151);
#49=STYLED_ITEM('',(#152),#153);
#50=STYLED_ITEM('',(#154),#155);
#51=STYLED_ITEM('',(#156),#157);
#52=STYLED_ITEM('',(#158),#159);
#53=STYLED_ITEM('',(#160),#161);
#54=STYLED_ITEM('',(#162),#163);
#55=STYLED_ITEM('',(#164),#165);
#56=STYLED_ITEM('',(#166),#167);
#57=STYLED_ITEM('',(#168),#169);
#58=STYLED_ITEM('',(#170),#171);
#59=STYLED_ITEM('',(#172),#173);
#60=STYLED_ITEM('',(#174),#175);
#61=APPLICATION_CONTEXT(' ');
#62=PRODUCT_CATEGORY('part','NONE');
#63=PRODUCT_RELATED_PRODUCT_CATEGORY('detail',' ',(#176));
#64=PRODUCT_DEFINITION_SHAPE('NONE','NONE',#177);
#65=ADVANCED_BREP_SHAPE_REPRESENTATION('1',(#165,#178),#6);
#68=UNCERTAINTY_MEASURE_WITH_UNIT(LENGTH_MEASURE(1.0E-006),#70,'','');
#70= (CONVERSION_BASED_UNIT('MILLIMETRE',#181)LENGTH_UNIT()NAMED_UNIT(#184));
#71= (NAMED_UNIT(#186)PLANE_ANGLE_UNIT()SI_UNIT($,.RADIAN.));
#72= (NAMED_UNIT(#186)SOLID_ANGLE_UNIT()SI_UNIT($,.STERADIAN.));
#74=PRESENTATION_STYLE_ASSIGNMENT((#192));
#75=EDGE_CURVE('',#173,#123,#193,.T.);
#76=PRESENTATION_STYLE_ASSIGNMENT((#194));
#77=EDGE_CURVE('',#105,#109,#195,.T.);
#78=PRESENTATION_STYLE_ASSIGNMENT((#196));
#79=EDGE_CURVE('',#123,#127,#197,.T.);
#80=PRESENTATION_STYLE_ASSIGNMENT((#198));
#81=ADVANCED_FACE('',(#199),#200,.T.);
#82=PRESENTATION_STYLE_ASSIGNMENT((#201));
#83=EDGE_CURVE('',#103,#171,#202,.T.);
#84=PRESENTATION_STYLE_ASSIGNMENT((#203));
#85=EDGE_CURVE('',#127,#129,#204,.T.);
#86=PRESENTATION_STYLE_ASSIGNMENT((#205));
#87=ADVANCED_FACE('',(#206),#207,.T.);
#88=PRESENTATION_STYLE_ASSIGNMENT((#208));
#89=VERTEX_POINT('',#209);
#90=PRESENTATION_STYLE_ASSIGNMENT((#210));
#91=EDGE_CURVE('',#141,#103,#211,.T.);
#92=PRESENTATION_STYLE_ASSIGNMENT((#212));
#93=EDGE_CURVE('',#129,#175,#213,.T.);
#94=PRESENTATION_STYLE_ASSIGNMENT((#214));
#95=VERTEX_POINT('',#215);
#96=PRESENTATION_STYLE_ASSIGNMENT((#216));
#97=EDGE_CURVE('',#175,#95,#217,.T.);
#98=PRESENTATION_STYLE_ASSIGNMENT((#218));
#99=EDGE_CURVE('',#175,#89,#219,.T.);
#100=PRESENTATION_STYLE_ASSIGNMENT((#220));
#101=EDGE_CURVE('',#171,#145,#221,.T.);
#102=PRESENTATION_STYLE_ASSIGNMENT((#222));
#103=VERTEX_POINT('',#223);
#104=PRESENTATION_STYLE_ASSIGNMENT((#224));
#105=VERTEX_POINT('',#225);
#106=PRESENTATION_STYLE_ASSIGNMENT((#226));
#107=EDGE_CURVE('',#109,#171,#227,.T.);
#108=PRESENTATION_STYLE_ASSIGNMENT((#228));
#109=VERTEX_POINT('',#229);
#110=PRESENTATION_STYLE_ASSIGNMENT((#230));
#111=EDGE_CURVE('',#141,#109,#231,.T.);
#112=PRESENTATION_STYLE_ASSIGNMENT((#232));
#113=ADVANCED_FACE('',(#233),#234,.T.);
#114=PRESENTATION_STYLE_ASSIGNMENT((#235));
#115=ADVANCED_FACE('',(#236),#237,.T.);
#116=PRESENTATION_STYLE_ASSIGNMENT((#238));
#117=EDGE_CURVE('',#103,#173,#239,.T.);
#118=PRESENTATION_STYLE_ASSIGNMENT((#240));
#119=ADVANCED_FACE('',(#241),#242,.T.);
#120=PRESENTATION_STYLE_ASSIGNMENT((#243));
#121=EDGE_CURVE('',#145,#157,#244,.T.);
#122=PRESENTATION_STYLE_ASSIGNMENT((#245));
#123=VERTEX_POINT('',#246);
#124=PRESENTATION_STYLE_ASSIGNMENT((#247));
#125=EDGE_CURVE('',#123,#157,#248,.T.);
#126=PRESENTATION_STYLE_ASSIGNMENT((#249));
#127=VERTEX_POINT('',#250);
#128=PRESENTATION_STYLE_ASSIGNMENT((#251));
#129=VERTEX_POINT('',#252);
#130=PRESENTATION_STYLE_ASSIGNMENT((#253));
#131=EDGE_CURVE('',#129,#135,#254,.T.);
#132=PRESENTATION_STYLE_ASSIGNMENT((#255));
#133=EDGE_CURVE('',#135,#89,#256,.T.);
#134=PRESENTATION_STYLE_ASSIGNMENT((#257));
#135=VERTEX_POINT('',#258);
#136=PRESENTATION_STYLE_ASSIGNMENT((#259));
#137=EDGE_CURVE('',#89,#105,#260,.T.);
#138=PRESENTATION_STYLE_ASSIGNMENT((#261));
#139=ADVANCED_FACE('',(#262),#263,.T.);
#140=PRESENTATION_STYLE_ASSIGNMENT((#264));
#141=VERTEX_POINT('',#265);
#142=PRESENTATION_STYLE_ASSIGNMENT((#266));
#143=ADVANCED_FACE('',(#267),#268,.T.);
#144=PRESENTATION_STYLE_ASSIGNMENT((#269));
#145=VERTEX_POINT('',#270);
#146=PRESENTATION_STYLE_ASSIGNMENT((#271));
#147=EDGE_CURVE('',#173,#145,#272,.T.);
#148=PRESENTATION_STYLE_ASSIGNMENT((#273));
#149=VERTEX_POINT('',#274);
#150=PRESENTATION_STYLE_ASSIGNMENT((#275));
#151=EDGE_CURVE('',#127,#149,#276,.T.);
#152=PRESENTATION_STYLE_ASSIGNMENT((#277));
#153=ADVANCED_FACE('',(#278),#279,.F.);
#154=PRESENTATION_STYLE_ASSIGNMENT((#280));
#155=ADVANCED_FACE('',(#281),#282,.T.);
#156=PRESENTATION_STYLE_ASSIGNMENT((#283));
#157=VERTEX_POINT('',#284);
#158=PRESENTATION_STYLE_ASSIGNMENT((#285));
#159=EDGE_CURVE('',#149,#135,#286,.T.);
#160=PRESENTATION_STYLE_ASSIGNMENT((#287));
#161=EDGE_CURVE('',#95,#141,#288,.T.);
#162=PRESENTATION_STYLE_ASSIGNMENT((#289));
#163=ADVANCED_FACE('',(#290),#291,.T.);
#164=PRESENTATION_STYLE_ASSIGNMENT((#292));
#165=MANIFOLD_SOLID_BREP('1',#293);
#166=PRESENTATION_STYLE_ASSIGNMENT((#294));
#167=EDGE_CURVE('',#95,#105,#295,.T.);
#168=PRESENTATION_STYLE_ASSIGNMENT((#296));
#169=EDGE_CURVE('',#157,#149,#297,.T.);
#170=PRESENTATION_STYLE_ASSIGNMENT((#298));
#171=VERTEX_POINT('',#299);
#172=PRESENTATION_STYLE_ASSIGNMENT((#300));
#173=VERTEX_POINT('',#301);
#174=PRESENTATION_STYLE_ASSIGNMENT((#302));
#175=VERTEX_POINT('',#303);
#176=PRODUCT('1','1','PART-1-DESC',(#304));
#177=PRODUCT_DEFINITION('NONE','NONE',#305,#2);
#178=AXIS2_PLACEMENT_3D('',#306,#307,#308);
#181=LENGTH_MEASURE_WITH_UNIT(LENGTH_MEASURE(1.0),#309);
#184=DIMENSIONAL_EXPONENTS(1.0,0.0,0.0,0.0,0.0,0.0,0.0);
#186=DIMENSIONAL_EXPONENTS(0.0,0.0,0.0,0.0,0.0,0.0,0.0);
#192=CURVE_STYLE('',#310,POSITIVE_LENGTH_MEASURE(1.0E-006),#311);
#193=CIRCLE('',#312,1.2);
#194=CURVE_STYLE('',#313,POSITIVE_LENGTH_MEASURE(1.0E-006),#314);
#195=LINE('',#315,#316);
#196=CURVE_STYLE('',#317,POSITIVE_LENGTH_MEASURE(1.0E-006),#318);
#197=LINE('',#319,#320);
#198=SURFACE_STYLE_USAGE(.BOTH.,#321);
#199=FACE_OUTER_BOUND('',#322,.T.);
#200=CONICAL_SURFACE('',#323,1.2,0.139626340159547);
#201=CURVE_STYLE('',#324,POSITIVE_LENGTH_MEASURE(1.0E-006),#325);
#202=LINE('',#326,#327);
#203=CURVE_STYLE('',#328,POSITIVE_LENGTH_MEASURE(1.0E-006),#329);
#204=CIRCLE('',#330,1.2);
#205=SURFACE_STYLE_USAGE(.BOTH.,#331);
#206=FACE_OUTER_BOUND('',#332,.T.);
#207=PLANE('',#333);
#208=POINT_STYLE(' ',#334,POSITIVE_LENGTH_MEASURE(1.0E-006),#335);
#209=CARTESIAN_POINT('',(0.829190924844112,1.2000000000691,-5.9));
#210=CURVE_STYLE('',#336,POSITIVE_LENGTH_MEASURE(1.0E-006),#337);
#211=CIRCLE('',#338,1.2);
#212=CURVE_STYLE('',#339,POSITIVE_LENGTH_MEASURE(1.0E-006),#340);
#213=LINE('',#341,#342);
#214=POINT_STYLE(' ',#343,POSITIVE_LENGTH_MEASURE(1.0E-006),#344);
#215=CARTESIAN_POINT('',(1.2,0.0,0.0));
#216=CURVE_STYLE('',#345,POSITIVE_LENGTH_MEASURE(1.0E-006),#346);
#217=CIRCLE('',#347,1.2);
#218=CURVE_STYLE('',#348,POSITIVE_LENGTH_MEASURE(1.0E-006),#349);
#219=LINE('',#350,#351);
#220=CURVE_STYLE('',#352,POSITIVE_LENGTH_MEASURE(1.0E-006),#353);
#221=LINE('',#354,#355);
#222=POINT_STYLE(' ',#356,POSITIVE_LENGTH_MEASURE(1.0E-006),#357);
#223=CARTESIAN_POINT('',(17.2799999999,1.2,0.0));
#224=POINT_STYLE(' ',#358,POSITIVE_LENGTH_MEASURE(1.0E-006),#359);
#225=CARTESIAN_POINT('',(1.2,0.829190924744112,-5.9));
#226=CURVE_STYLE('',#360,POSITIVE_LENGTH_MEASURE(1.0E-006),#361);
#227=CIRCLE('',#362,0.370809075255888);
#228=POINT_STYLE(' ',#363,POSITIVE_LENGTH_MEASURE(1.0E-006),#364);
#229=CARTESIAN_POINT('',(16.0799999999309,0.829190924844112,-5.9));
#230=CURVE_STYLE('',#365,POSITIVE_LENGTH_MEASURE(1.0E-006),#366);
#231=LINE('',#367,#368);
#232=SURFACE_STYLE_USAGE(.BOTH.,#369);
#233=FACE_OUTER_BOUND('',#370,.T.);
#234=PLANE('',#371);
#235=SURFACE_STYLE_USAGE(.BOTH.,#372);
#236=FACE_OUTER_BOUND('',#373,.T.);
#237=PLANE('',#374);
#238=CURVE_STYLE('',#375,POSITIVE_LENGTH_MEASURE(1.0E-006),#376);
#239=LINE('',#377,#378);
#240=SURFACE_STYLE_USAGE(.BOTH.,#379);
#241=FACE_OUTER_BOUND('',#380,.T.);
#242=CONICAL_SURFACE('',#381,1.2,0.139626340159547);
#243=CURVE_STYLE('',#382,POSITIVE_LENGTH_MEASURE(1.0E-006),#383);
#244=CIRCLE('',#384,0.370809075255891);
#245=POINT_STYLE(' ',#385,POSITIVE_LENGTH_MEASURE(1.0E-006),#386);
#246=CARTESIAN_POINT('',(16.08,17.2799999999,0.0));
#247=CURVE_STYLE('',#387,POSITIVE_LENGTH_MEASURE(1.0E-006),#388);
#248=LINE('',#389,#390);
#249=POINT_STYLE(' ',#391,POSITIVE_LENGTH_MEASURE(1.0E-006),#392);
#250=CARTESIAN_POINT('',(1.2,17.28,0.0));
#251=POINT_STYLE(' ',#393,POSITIVE_LENGTH_MEASURE(1.0E-006),#394);
#252=CARTESIAN_POINT('',(9.99997862294322E-011,16.08,0.0));
#253=CURVE_STYLE('',#395,POSITIVE_LENGTH_MEASURE(1.0E-006),#396);
#254=LINE('',#397,#398);
#255=CURVE_STYLE('',#399,POSITIVE_LENGTH_MEASURE(1.0E-006),#400);
#256=LINE('',#401,#402);
#257=POINT_STYLE(' ',#403,POSITIVE_LENGTH_MEASURE(1.0E-006),#404);
#258=CARTESIAN_POINT('',(0.829190924744112,16.08,-5.9));
#259=CURVE_STYLE('',#405,POSITIVE_LENGTH_MEASURE(1.0E-006),#406);
#260=CIRCLE('',#407,0.370809075255888);
#261=SURFACE_STYLE_USAGE(.BOTH.,#408);
#262=FACE_OUTER_BOUND('',#409,.T.);
#263=PLANE('',#410);
#264=POINT_STYLE(' ',#411,POSITIVE_LENGTH_MEASURE(1.0E-006),#412);
#265=CARTESIAN_POINT('',(16.08,0.0,0.0));
#266=SURFACE_STYLE_USAGE(.BOTH.,#413);
#267=FACE_OUTER_BOUND('',#414,.T.);
#268=PLANE('',#415);
#269=POINT_STYLE(' ',#416,POSITIVE_LENGTH_MEASURE(1.0E-006),#417);
#270=CARTESIAN_POINT('',(16.4508090751559,16.0799999999309,-5.9));
#271=CURVE_STYLE('',#418,POSITIVE_LENGTH_MEASURE(1.0E-006),#419);
#272=LINE('',#420,#421);
#273=POINT_STYLE(' ',#422,POSITIVE_LENGTH_MEASURE(1.0E-006),#423);
#274=CARTESIAN_POINT('',(1.2000000000691,16.4508090751559,-5.9));
#275=CURVE_STYLE('',#424,POSITIVE_LENGTH_MEASURE(1.0E-006),#425);
#276=LINE('',#426,#427);
#277=SURFACE_STYLE_USAGE(.BOTH.,#428);
#278=FACE_OUTER_BOUND('',#429,.T.);
#279=PLANE('',#430);
#280=SURFACE_STYLE_USAGE(.BOTH.,#431);
#281=FACE_OUTER_BOUND('',#432,.T.);
#282=CONICAL_SURFACE('',#433,1.2,0.139626340159547);
#283=POINT_STYLE(' ',#434,POSITIVE_LENGTH_MEASURE(1.0E-006),#435);
#284=CARTESIAN_POINT('',(16.08,16.4508090752559,-5.9));
#285=CURVE_STYLE('',#436,POSITIVE_LENGTH_MEASURE(1.0E-006),#437);
#286=CIRCLE('',#438,0.370809075255891);
#287=CURVE_STYLE('',#439,POSITIVE_LENGTH_MEASURE(1.0E-006),#440);
#288=LINE('',#441,#442);
#289=SURFACE_STYLE_USAGE(.BOTH.,#443);
#290=FACE_OUTER_BOUND('',#444,.T.);
#291=CONICAL_SURFACE('',#445,1.2,0.139626340159547);
#292=SURFACE_STYLE_USAGE(.BOTH.,#446);
#293=CLOSED_SHELL('',(#155,#113,#119,#139,#163,#115,#81,#87,#153,#143));
#294=CURVE_STYLE('',#447,POSITIVE_LENGTH_MEASURE(1.0E-006),#448);
#295=LINE('',#449,#450);
#296=CURVE_STYLE('',#451,POSITIVE_LENGTH_MEASURE(1.0E-006),#452);
#297=LINE('',#453,#454);
#298=POINT_STYLE(' ',#455,POSITIVE_LENGTH_MEASURE(1.0E-006),#456);
#299=CARTESIAN_POINT('',(16.4508090752559,1.2,-5.9));
#300=POINT_STYLE(' ',#457,POSITIVE_LENGTH_MEASURE(1.0E-006),#458);
#301=CARTESIAN_POINT('',(17.28,16.08,0.0));
#302=POINT_STYLE(' ',#459,POSITIVE_LENGTH_MEASURE(1.0E-006),#460);
#303=CARTESIAN_POINT('',(0.0,1.2,0.0));
#304=PRODUCT_CONTEXT('',#61,'mechanical');
#305=PRODUCT_DEFINITION_FORMATION_WITH_SPECIFIED_SOURCE(' ','NONE',#176,.NOT_KNOWN.);
#306=CARTESIAN_POINT('',(0.0,0.0,0.0));
#307=DIRECTION('',(0.0,0.0,1.0));
#308=DIRECTION('',(1.0,0.0,0.0));
#309= (NAMED_UNIT(#184)LENGTH_UNIT()SI_UNIT(.MILLI.,.METRE.));
#310=DRAUGHTING_PRE_DEFINED_CURVE_FONT('continuous');
#311=COLOUR_RGB('',0.800000011920929,0.800000011920929,0.800000011920929);
#312=AXIS2_PLACEMENT_3D('',#462,#463,#464);
#313=DRAUGHTING_PRE_DEFINED_CURVE_FONT('continuous');
#314=COLOUR_RGB('',0.800000011920929,0.800000011920929,0.800000011920929);
#315=CARTESIAN_POINT('',(1.2,0.829190924744112,-5.9));
#316=VECTOR('',#465,1.0);
#317=DRAUGHTING_PRE_DEFINED_CURVE_FONT('continuous');
#318=COLOUR_RGB('',0.800000011920929,0.800000011920929,0.800000011920929);
#319=CARTESIAN_POINT('',(16.08,17.28,0.0));
#320=VECTOR('',#466,1.0);
#321=SURFACE_SIDE_STYLE('',(#467));
#322=EDGE_LOOP('',(#468,#469,#470,#471));
#323=AXIS2_PLACEMENT_3D('',#472,#473,#474);
#324=DRAUGHTING_PRE_DEFINED_CURVE_FONT('continuous');
#325=COLOUR_RGB('',0.800000011920929,0.800000011920929,0.800000011920929);
#326=CARTESIAN_POINT('',(17.2799999999,1.2,0.0));
#327=VECTOR('',#475,1.0);
#328=DRAUGHTING_PRE_DEFINED_CURVE_FONT('continuous');
#329=COLOUR_RGB('',0.800000011920929,0.800000011920929,0.800000011920929);
#330=AXIS2_PLACEMENT_3D('',#476,#477,#478);
#331=SURFACE_SIDE_STYLE('',(#479));
#332=EDGE_LOOP('',(#480,#481,#482,#483));
#333=AXIS2_PLACEMENT_3D('',#484,#485,#486);
#334=PRE_DEFINED_MARKER('');
#335=COLOUR_RGB('',0.800000011920929,0.800000011920929,0.800000011920929);
#336=DRAUGHTING_PRE_DEFINED_CURVE_FONT('continuous');
#337=COLOUR_RGB('',0.800000011920929,0.800000011920929,0.800000011920929);
#338=AXIS2_PLACEMENT_3D('',#487,#488,#489);
#339=DRAUGHTING_PRE_DEFINED_CURVE_FONT('continuous');
#340=COLOUR_RGB('',0.800000011920929,0.800000011920929,0.800000011920929);
#341=CARTESIAN_POINT('',(0.0,16.08,0.0));
#342=VECTOR('',#490,1.0);
#343=PRE_DEFINED_MARKER('');
#344=COLOUR_RGB('',0.800000011920929,0.800000011920929,0.800000011920929);
#345=DRAUGHTING_PRE_DEFINED_CURVE_FONT('continuous');
#346=COLOUR_RGB('',0.800000011920929,0.800000011920929,0.800000011920929);
#347=AXIS2_PLACEMENT_3D('',#491,#492,#493);
#348=DRAUGHTING_PRE_DEFINED_CURVE_FONT('continuous');
#349=COLOUR_RGB('',0.800000011920929,0.800000011920929,0.800000011920929);
#350=CARTESIAN_POINT('',(0.0,1.2,0.0));
#351=VECTOR('',#494,1.0);
#352=DRAUGHTING_PRE_DEFINED_CURVE_FONT('continuous');
#353=COLOUR_RGB('',0.800000011920929,0.800000011920929,0.800000011920929);
#354=CARTESIAN_POINT('',(16.4508090752559,1.2,-5.9));
#355=VECTOR('',#495,1.0);
#356=PRE_DEFINED_MARKER('');
#357=COLOUR_RGB('',0.800000011920929,0.800000011920929,0.800000011920929);
#358=PRE_DEFINED_MARKER('');
#359=COLOUR_RGB('',0.800000011920929,0.800000011920929,0.800000011920929);
#360=DRAUGHTING_PRE_DEFINED_CURVE_FONT('continuous');
#361=COLOUR_RGB('',0.800000011920929,0.800000011920929,0.800000011920929);
#362=AXIS2_PLACEMENT_3D('',#496,#497,#498);
#363=PRE_DEFINED_MARKER('');
#364=COLOUR_RGB('',0.800000011920929,0.800000011920929,0.800000011920929);
#365=DRAUGHTING_PRE_DEFINED_CURVE_FONT('continuous');
#366=COLOUR_RGB('',0.800000011920929,0.800000011920929,0.800000011920929);
#367=CARTESIAN_POINT('',(16.08,0.0,0.0));
#368=VECTOR('',#499,1.0);
#369=SURFACE_SIDE_STYLE('',(#500));
#370=EDGE_LOOP('',(#501,#502,#503,#504));
#371=AXIS2_PLACEMENT_3D('',#505,#506,#507);
#372=SURFACE_SIDE_STYLE('',(#508));
#373=EDGE_LOOP('',(#509,#510,#511,#512));
#374=AXIS2_PLACEMENT_3D('',#513,#514,#515);
#375=DRAUGHTING_PRE_DEFINED_CURVE_FONT('continuous');
#376=COLOUR_RGB('',0.800000011920929,0.800000011920929,0.800000011920929);
#377=CARTESIAN_POINT('',(17.28,1.2,0.0));
#378=VECTOR('',#516,1.0);
#379=SURFACE_SIDE_STYLE('',(#517));
#380=EDGE_LOOP('',(#518,#519,#520,#521));
#381=AXIS2_PLACEMENT_3D('',#522,#523,#524);
#382=DRAUGHTING_PRE_DEFINED_CURVE_FONT('continuous');
#383=COLOUR_RGB('',0.800000011920929,0.800000011920929,0.800000011920929);
#384=AXIS2_PLACEMENT_3D('',#525,#526,#527);
#385=PRE_DEFINED_MARKER('');
#386=COLOUR_RGB('',0.800000011920929,0.800000011920929,0.800000011920929);
#387=DRAUGHTING_PRE_DEFINED_CURVE_FONT('continuous');
#388=COLOUR_RGB('',0.800000011920929,0.800000011920929,0.800000011920929);
#389=CARTESIAN_POINT('',(16.08,17.2799999999,0.0));
#390=VECTOR('',#528,1.0);
#391=PRE_DEFINED_MARKER('');
#392=COLOUR_RGB('',0.800000011920929,0.800000011920929,0.800000011920929);
#393=PRE_DEFINED_MARKER('');
#394=COLOUR_RGB('',0.800000011920929,0.800000011920929,0.800000011920929);
#395=DRAUGHTING_PRE_DEFINED_CURVE_FONT('continuous');
#396=COLOUR_RGB('',0.800000011920929,0.800000011920929,0.800000011920929);
#397=CARTESIAN_POINT('',(9.99997862294322E-011,16.08,0.0));
#398=VECTOR('',#529,1.0);
#399=DRAUGHTING_PRE_DEFINED_CURVE_FONT('continuous');
#400=COLOUR_RGB('',0.800000011920929,0.800000011920929,0.800000011920929);
#401=CARTESIAN_POINT('',(0.829190924744112,16.08,-5.9));
#402=VECTOR('',#530,1.0);
#403=PRE_DEFINED_MARKER('');
#404=COLOUR_RGB('',0.800000011920929,0.800000011920929,0.800000011920929);
#405=DRAUGHTING_PRE_DEFINED_CURVE_FONT('continuous');
#406=COLOUR_RGB('',0.800000011920929,0.800000011920929,0.800000011920929);
#407=AXIS2_PLACEMENT_3D('',#531,#532,#533);
#408=SURFACE_SIDE_STYLE('',(#534));
#409=EDGE_LOOP('',(#535,#536,#537,#538));
#410=AXIS2_PLACEMENT_3D('',#539,#540,#541);
#411=PRE_DEFINED_MARKER('');
#412=COLOUR_RGB('',0.800000011920929,0.800000011920929,0.800000011920929);
#413=SURFACE_SIDE_STYLE('',(#542));
#414=EDGE_LOOP('',(#543,#544,#545,#546,#547,#548,#549,#550));
#415=AXIS2_PLACEMENT_3D('',#551,#552,#553);
#416=PRE_DEFINED_MARKER('');
#417=COLOUR_RGB('',0.800000011920929,0.800000011920929,0.800000011920929);
#418=DRAUGHTING_PRE_DEFINED_CURVE_FONT('continuous');
#419=COLOUR_RGB('',0.800000011920929,0.800000011920929,0.800000011920929);
#420=CARTESIAN_POINT('',(17.28,16.08,0.0));
#421=VECTOR('',#554,1.0);
#422=PRE_DEFINED_MARKER('');
#423=COLOUR_RGB('',0.800000011920929,0.800000011920929,0.800000011920929);
#424=DRAUGHTING_PRE_DEFINED_CURVE_FONT('continuous');
#425=COLOUR_RGB('',0.800000011920929,0.800000011920929,0.800000011920929);
#426=CARTESIAN_POINT('',(1.2,17.28,0.0));
#427=VECTOR('',#555,1.0);
#428=SURFACE_SIDE_STYLE('',(#556));
#429=EDGE_LOOP('',(#557,#558,#559,#560,#561,#562,#563,#564));
#430=AXIS2_PLACEMENT_3D('',#565,#566,#567);
#431=SURFACE_SIDE_STYLE('',(#568));
#432=EDGE_LOOP('',(#569,#570,#571,#572));
#433=AXIS2_PLACEMENT_3D('',#573,#574,#575);
#434=PRE_DEFINED_MARKER('');
#435=COLOUR_RGB('',0.800000011920929,0.800000011920929,0.800000011920929);
#436=DRAUGHTING_PRE_DEFINED_CURVE_FONT('continuous');
#437=COLOUR_RGB('',0.800000011920929,0.800000011920929,0.800000011920929);
#438=AXIS2_PLACEMENT_3D('',#576,#577,#578);
#439=DRAUGHTING_PRE_DEFINED_CURVE_FONT('continuous');
#440=COLOUR_RGB('',0.800000011920929,0.800000011920929,0.800000011920929);
#441=CARTESIAN_POINT('',(1.2,0.0,0.0));
#442=VECTOR('',#579,1.0);
#443=SURFACE_SIDE_STYLE('',(#580));
#444=EDGE_LOOP('',(#581,#582,#583,#584));
#445=AXIS2_PLACEMENT_3D('',#585,#586,#587);
#446=SURFACE_SIDE_STYLE('',(#588));
#447=DRAUGHTING_PRE_DEFINED_CURVE_FONT('continuous');
#448=COLOUR_RGB('',0.800000011920929,0.800000011920929,0.800000011920929);
#449=CARTESIAN_POINT('',(1.2,0.0,0.0));
#450=VECTOR('',#589,1.0);
#451=DRAUGHTING_PRE_DEFINED_CURVE_FONT('continuous');
#452=COLOUR_RGB('',0.800000011920929,0.800000011920929,0.800000011920929);
#453=CARTESIAN_POINT('',(16.08,16.4508090752559,-5.9));
#454=VECTOR('',#590,1.0);
#455=PRE_DEFINED_MARKER('');
#456=COLOUR_RGB('',0.800000011920929,0.800000011920929,0.800000011920929);
#457=PRE_DEFINED_MARKER('');
#458=COLOUR_RGB('',0.800000011920929,0.800000011920929,0.800000011920929);
#459=PRE_DEFINED_MARKER('');
#460=COLOUR_RGB('',0.800000011920929,0.800000011920929,0.800000011920929);
#462=CARTESIAN_POINT('',(16.0799999999,16.0799999999,0.0));
#463=DIRECTION('',(0.0,-0.0,1.0));
#464=DIRECTION('',(1.0,8.33348205257302E-011,0.0));
#465=DIRECTION('',(1.0,0.0,0.0));
#466=DIRECTION('',(-1.0,0.0,0.0));
#467=SURFACE_STYLE_FILL_AREA(#591);
#468=ORIENTED_EDGE('',*,*,#137,.T.);
#469=ORIENTED_EDGE('',*,*,#167,.F.);
#470=ORIENTED_EDGE('',*,*,#97,.F.);
#471=ORIENTED_EDGE('',*,*,#99,.T.);
#472=CARTESIAN_POINT('',(1.2000000001,1.2000000001,0.0));
#473=DIRECTION('',(0.0,-0.0,1.0));
#474=DIRECTION('',(-1.0,-8.33322300053396E-011,0.0));
#475=DIRECTION('',(-0.139173100943606,0.0,-0.990268068743884));
#476=CARTESIAN_POINT('',(1.2000000001,16.0799999999,0.0));
#477=DIRECTION('',(0.0,0.0,1.0));
#478=DIRECTION('',(-8.33357457115841E-011,1.0,0.0));
#479=SURFACE_STYLE_FILL_AREA(#592);
#480=ORIENTED_EDGE('',*,*,#77,.T.);
#481=ORIENTED_EDGE('',*,*,#111,.F.);
#482=ORIENTED_EDGE('',*,*,#161,.F.);
#483=ORIENTED_EDGE('',*,*,#167,.T.);
#484=CARTESIAN_POINT('',(1.2,0.0,0.0));
#485=DIRECTION('',(-0.0,-0.99026806874157,-0.139173100960066));
#486=DIRECTION('',(-1.0,0.0,0.0));
#487=CARTESIAN_POINT('',(16.0799999999,1.2000000001,0.0));
#488=DIRECTION('',(0.0,0.0,1.0));
#489=DIRECTION('',(8.33348205257304E-011,-1.0,0.0));
#490=DIRECTION('',(0.0,-1.0,0.0));
#491=CARTESIAN_POINT('',(1.2000000001,1.2000000001,0.0));
#492=DIRECTION('',(0.0,0.0,1.0));
#493=DIRECTION('',(-1.0,-8.33322300053396E-011,0.0));
#494=DIRECTION('',(0.139173100976525,1.15978207146307E-011,-0.990268068739257));
#495=DIRECTION('',(0.0,1.0,0.0));
#496=CARTESIAN_POINT('',(16.0799999999,1.2000000001,-5.9));
#497=DIRECTION('',(0.0,0.0,1.0));
#498=DIRECTION('',(8.33348205257304E-011,-1.0,0.0));
#499=DIRECTION('',(-1.15979325198927E-011,0.139173100976525,-0.990268068739257));
#500=SURFACE_STYLE_FILL_AREA(#593);
#501=ORIENTED_EDGE('',*,*,#101,.T.);
#502=ORIENTED_EDGE('',*,*,#147,.F.);
#503=ORIENTED_EDGE('',*,*,#117,.F.);
#504=ORIENTED_EDGE('',*,*,#83,.T.);
#505=CARTESIAN_POINT('',(17.2799999999,1.2,0.0));
#506=DIRECTION('',(0.990268068743884,-0.0,-0.139173100943606));
#507=DIRECTION('',(-0.0,-1.0,0.0));
#508=SURFACE_STYLE_FILL_AREA(#594);
#509=ORIENTED_EDGE('',*,*,#133,.T.);
#510=ORIENTED_EDGE('',*,*,#99,.F.);
#511=ORIENTED_EDGE('',*,*,#93,.F.);
#512=ORIENTED_EDGE('',*,*,#131,.T.);
#513=CARTESIAN_POINT('',(9.99997862294322E-011,16.08,0.0));
#514=DIRECTION('',(-0.990268068743884,0.0,-0.139173100943607));
#515=DIRECTION('',(0.0,1.0,0.0));
#516=DIRECTION('',(0.0,1.0,0.0));
#517=SURFACE_STYLE_FILL_AREA(#595);
#518=ORIENTED_EDGE('',*,*,#121,.T.);
#519=ORIENTED_EDGE('',*,*,#125,.F.);
#520=ORIENTED_EDGE('',*,*,#75,.F.);
#521=ORIENTED_EDGE('',*,*,#147,.T.);
#522=CARTESIAN_POINT('',(16.0799999999,16.0799999999,0.0));
#523=DIRECTION('',(-0.0,-0.0,1.0));
#524=DIRECTION('',(1.0,8.33348205257302E-011,0.0));
#525=CARTESIAN_POINT('',(16.0799999999,16.0799999999,-5.9));
#526=DIRECTION('',(0.0,-0.0,1.0));
#527=DIRECTION('',(1.0,8.33348205257302E-011,0.0));
#528=DIRECTION('',(0.0,-0.139173100943607,-0.990268068743884));
#529=DIRECTION('',(0.139173100943607,0.0,-0.990268068743884));
#530=DIRECTION('',(0.0,-1.0,0.0));
#531=CARTESIAN_POINT('',(1.2000000001,1.2000000001,-5.9));
#532=DIRECTION('',(0.0,0.0,1.0));
#533=DIRECTION('',(-1.0,-8.33322300053397E-011,0.0));
#534=SURFACE_STYLE_FILL_AREA(#596);
#535=ORIENTED_EDGE('',*,*,#169,.T.);
#536=ORIENTED_EDGE('',*,*,#151,.F.);
#537=ORIENTED_EDGE('',*,*,#79,.F.);
#538=ORIENTED_EDGE('',*,*,#125,.T.);
#539=CARTESIAN_POINT('',(16.08,17.2799999999,0.0));
#540=DIRECTION('',(0.0,0.990268068743884,-0.139173100943607));
#541=DIRECTION('',(1.0,-0.0,0.0));
#542=SURFACE_STYLE_FILL_AREA(#597);
#543=ORIENTED_EDGE('',*,*,#161,.T.);
#544=ORIENTED_EDGE('',*,*,#91,.T.);
#545=ORIENTED_EDGE('',*,*,#117,.T.);
#546=ORIENTED_EDGE('',*,*,#75,.T.);
#547=ORIENTED_EDGE('',*,*,#79,.T.);
#548=ORIENTED_EDGE('',*,*,#85,.T.);
#549=ORIENTED_EDGE('',*,*,#93,.T.);
#550=ORIENTED_EDGE('',*,*,#97,.T.);
#551=CARTESIAN_POINT('',(8.64,8.64,0.0));
#552=DIRECTION('',(0.0,0.0,1.0));
#553=DIRECTION('',(1.0,0.0,0.0));
#554=DIRECTION('',(-0.139173100976525,-1.15979325198927E-011,-0.990268068739257));
#555=DIRECTION('',(1.15981188619962E-011,-0.139173100976525,-0.990268068739257));
#556=SURFACE_STYLE_FILL_AREA(#598);
#557=ORIENTED_EDGE('',*,*,#107,.F.);
#558=ORIENTED_EDGE('',*,*,#77,.F.);
#559=ORIENTED_EDGE('',*,*,#137,.F.);
#560=ORIENTED_EDGE('',*,*,#133,.F.);
#561=ORIENTED_EDGE('',*,*,#159,.F.);
#562=ORIENTED_EDGE('',*,*,#169,.F.);
#563=ORIENTED_EDGE('',*,*,#121,.F.);
#564=ORIENTED_EDGE('',*,*,#101,.F.);
#565=CARTESIAN_POINT('',(8.64,8.64,-5.9));
#566=DIRECTION('',(0.0,0.0,1.0));
#567=DIRECTION('',(1.0,0.0,0.0));
#568=SURFACE_STYLE_FILL_AREA(#599);
#569=ORIENTED_EDGE('',*,*,#107,.T.);
#570=ORIENTED_EDGE('',*,*,#83,.F.);
#571=ORIENTED_EDGE('',*,*,#91,.F.);
#572=ORIENTED_EDGE('',*,*,#111,.T.);
#573=CARTESIAN_POINT('',(16.0799999999,1.2000000001,0.0));
#574=DIRECTION('',(-0.0,-0.0,1.0));
#575=DIRECTION('',(8.33348205257304E-011,-1.0,0.0));
#576=CARTESIAN_POINT('',(1.2000000001,16.0799999999,-5.9));
#577=DIRECTION('',(0.0,0.0,1.0));
#578=DIRECTION('',(-8.33357457115841E-011,1.0,0.0));
#579=DIRECTION('',(1.0,0.0,0.0));
#580=SURFACE_STYLE_FILL_AREA(#600);
#581=ORIENTED_EDGE('',*,*,#159,.T.);
#582=ORIENTED_EDGE('',*,*,#131,.F.);
#583=ORIENTED_EDGE('',*,*,#85,.F.);
#584=ORIENTED_EDGE('',*,*,#151,.T.);
#585=CARTESIAN_POINT('',(1.2000000001,16.0799999999,0.0));
#586=DIRECTION('',(-0.0,-0.0,1.0));
#587=DIRECTION('',(-8.33357457115841E-011,1.0,0.0));
#588=SURFACE_STYLE_FILL_AREA(#601);
#589=DIRECTION('',(0.0,0.139173100960066,-0.99026806874157));
#590=DIRECTION('',(-1.0,0.0,0.0));
#591=FILL_AREA_STYLE('',(#602));
#592=FILL_AREA_STYLE('',(#603));
#593=FILL_AREA_STYLE('',(#604));
#594=FILL_AREA_STYLE('',(#605));
#595=FILL_AREA_STYLE('',(#606));
#596=FILL_AREA_STYLE('',(#607));
#597=FILL_AREA_STYLE('',(#608));
#598=FILL_AREA_STYLE('',(#609));
#599=FILL_AREA_STYLE('',(#610));
#600=FILL_AREA_STYLE('',(#611));
#601=FILL_AREA_STYLE('',(#612));
#602=FILL_AREA_STYLE_COLOUR('',#613);
#603=FILL_AREA_STYLE_COLOUR('',#614);
#604=FILL_AREA_STYLE_COLOUR('',#615);
#605=FILL_AREA_STYLE_COLOUR('',#616);
#606=FILL_AREA_STYLE_COLOUR('',#617);
#607=FILL_AREA_STYLE_COLOUR('',#618);
#608=FILL_AREA_STYLE_COLOUR('',#619);
#609=FILL_AREA_STYLE_COLOUR('',#620);
#610=FILL_AREA_STYLE_COLOUR('',#621);
#611=FILL_AREA_STYLE_COLOUR('',#622);
#612=FILL_AREA_STYLE_COLOUR('',#623);
#613=COLOUR_RGB('',0.800000011920929,0.800000011920929,0.800000011920929);
#614=COLOUR_RGB('',0.800000011920929,0.800000011920929,0.800000011920929);
#615=COLOUR_RGB('',0.800000011920929,0.800000011920929,0.800000011920929);
#616=COLOUR_RGB('',0.800000011920929,0.800000011920929,0.800000011920929);
#617=COLOUR_RGB('',0.800000011920929,0.800000011920929,0.800000011920929);
#618=COLOUR_RGB('',0.800000011920929,0.800000011920929,0.800000011920929);
#619=COLOUR_RGB('',0.800000011920929,0.800000011920929,0.800000011920929);
#620=COLOUR_RGB('',0.800000011920929,0.800000011920929,0.800000011920929);
#621=COLOUR_RGB('',0.800000011920929,0.800000011920929,0.800000011920929);
#622=COLOUR_RGB('',0.800000011920929,0.800000011920929,0.800000011920929);
#623=COLOUR_RGB('',0.800000011920929,0.800000011920929,0.800000011920929);
#624=AXIS2_PLACEMENT_3D('PCS',#625,#626,#627);
#625=CARTESIAN_POINT('',(0.0,0.0,0.0));
#626=DIRECTION('',(0.0,0.0,1.0));
#627=DIRECTION('',(1.0,0.0,0.0));
#628=AXIS2_PLACEMENT_3D('MCS',#629,#630,#631);
#629=CARTESIAN_POINT('',(8.64,8.64,0.0));
#630=DIRECTION('',(0.0,0.0,1.0));
#631=DIRECTION('',(1.0,0.0,0.0));
#632=CONSTRUCTIVE_GEOMETRY_REPRESENTATION_RELATIONSHIP('coordinate systems',$,#65,#633);
#633=CONSTRUCTIVE_GEOMETRY_REPRESENTATION('coordinate systems',(#624,#628),#6);
ENDSEC;
END-ISO-10303-21;
