ISO-10303-21;
HEADER;
FILE_DESCRIPTION(('no description'),'unknown implementation level');
FILE_NAME('solidH4uIpIppEAWmG_ajYM6b9UXoYO8_1.STP','  ',('CIMSOURCE GmbH'),('CADClick - KiM GmbH - www.kimweb.de'),'unknown preprocess','ACIS','unknown authorization');
FILE_SCHEMA(('automotive_design'));
ENDSEC;
DATA;
#1=MECHANICAL_DESIGN_GEOMETRIC_PRESENTATION_REPRESENTATION(' ',(#10,#11,#12,#13,#14,#15,#16,#17,#18,#19,#20,#21,#22,#23,#24),#6);
#2=PRODUCT_DEFINITION_CONTEXT('',#25,'design');
#3=APPLICATION_PROTOCOL_DEFINITION('INTERNATIONAL STANDARD','automotive_design',1994,#25);
#4=PRODUCT_CATEGORY_RELATIONSHIP('NONE','NONE',#26,#27);
#5=SHAPE_DEFINITION_REPRESENTATION(#28,#29);
#6= (GEOMETRIC_REPRESENTATION_CONTEXT(3)GLOBAL_UNCERTAINTY_ASSIGNED_CONTEXT((#32))GLOBAL_UNIT_ASSIGNED_CONTEXT((#34,#35,#36))REPRESENTATION_CONTEXT('NONE','WORKSPACE'));
#10=STYLED_ITEM('',(#38),#39);
#11=STYLED_ITEM('',(#40),#41);
#12=STYLED_ITEM('',(#42),#43);
#13=STYLED_ITEM('',(#44),#45);
#14=STYLED_ITEM('',(#46),#47);
#15=STYLED_ITEM('',(#48),#49);
#16=STYLED_ITEM('',(#50),#51);
#17=STYLED_ITEM('',(#52),#53);
#18=STYLED_ITEM('',(#54),#55);
#19=STYLED_ITEM('',(#56),#57);
#20=STYLED_ITEM('',(#58),#59);
#21=STYLED_ITEM('',(#60),#61);
#22=STYLED_ITEM('',(#62),#63);
#23=STYLED_ITEM('',(#64),#65);
#24=STYLED_ITEM('',(#66),#67);
#25=APPLICATION_CONTEXT(' ');
#26=PRODUCT_CATEGORY('part','NONE');
#27=PRODUCT_RELATED_PRODUCT_CATEGORY('detail',' ',(#68));
#28=PRODUCT_DEFINITION_SHAPE('NONE','NONE',#69);
#29=ADVANCED_BREP_SHAPE_REPRESENTATION('1',(#57,#70),#6);
#32=UNCERTAINTY_MEASURE_WITH_UNIT(LENGTH_MEASURE(1.0E-006),#34,'','');
#34= (CONVERSION_BASED_UNIT('MILLIMETRE',#73)LENGTH_UNIT()NAMED_UNIT(#76));
#35= (NAMED_UNIT(#78)PLANE_ANGLE_UNIT()SI_UNIT($,.RADIAN.));
#36= (NAMED_UNIT(#78)SOLID_ANGLE_UNIT()SI_UNIT($,.STERADIAN.));
#38=PRESENTATION_STYLE_ASSIGNMENT((#84));
#39=EDGE_CURVE('',#51,#53,#85,.T.);
#40=PRESENTATION_STYLE_ASSIGNMENT((#86));
#41=EDGE_CURVE('',#65,#59,#87,.T.);
#42=PRESENTATION_STYLE_ASSIGNMENT((#88));
#43=EDGE_CURVE('',#53,#51,#89,.T.);
#44=PRESENTATION_STYLE_ASSIGNMENT((#90));
#45=EDGE_CURVE('',#53,#65,#91,.T.);
#46=PRESENTATION_STYLE_ASSIGNMENT((#92));
#47=EDGE_CURVE('',#59,#51,#93,.T.);
#48=PRESENTATION_STYLE_ASSIGNMENT((#94));
#49=ADVANCED_FACE('',(#95),#96,.T.);
#50=PRESENTATION_STYLE_ASSIGNMENT((#97));
#51=VERTEX_POINT('',#98);
#52=PRESENTATION_STYLE_ASSIGNMENT((#99));
#53=VERTEX_POINT('',#100);
#54=PRESENTATION_STYLE_ASSIGNMENT((#101));
#55=ADVANCED_FACE('',(#102),#103,.F.);
#56=PRESENTATION_STYLE_ASSIGNMENT((#104));
#57=MANIFOLD_SOLID_BREP('1',#105);
#58=PRESENTATION_STYLE_ASSIGNMENT((#106));
#59=VERTEX_POINT('',#107);
#60=PRESENTATION_STYLE_ASSIGNMENT((#108));
#61=ADVANCED_FACE('',(#109),#110,.T.);
#62=PRESENTATION_STYLE_ASSIGNMENT((#111));
#63=EDGE_CURVE('',#59,#65,#112,.T.);
#64=PRESENTATION_STYLE_ASSIGNMENT((#113));
#65=VERTEX_POINT('',#114);
#66=PRESENTATION_STYLE_ASSIGNMENT((#115));
#67=ADVANCED_FACE('',(#116),#117,.T.);
#68=PRODUCT('1','1','PART-1-DESC',(#118));
#69=PRODUCT_DEFINITION('NONE','NONE',#119,#2);
#70=AXIS2_PLACEMENT_3D('',#120,#121,#122);
#73=LENGTH_MEASURE_WITH_UNIT(LENGTH_MEASURE(1.0),#123);
#76=DIMENSIONAL_EXPONENTS(1.0,0.0,0.0,0.0,0.0,0.0,0.0);
#78=DIMENSIONAL_EXPONENTS(0.0,0.0,0.0,0.0,0.0,0.0,0.0);
#84=CURVE_STYLE('',#124,POSITIVE_LENGTH_MEASURE(1.0E-006),#125);
#85=CIRCLE('',#126,5.0);
#86=CURVE_STYLE('',#127,POSITIVE_LENGTH_MEASURE(1.0E-006),#128);
#87=CIRCLE('',#129,4.22831017272326);
#88=CURVE_STYLE('',#130,POSITIVE_LENGTH_MEASURE(1.0E-006),#131);
#89=CIRCLE('',#132,5.0);
#90=CURVE_STYLE('',#133,POSITIVE_LENGTH_MEASURE(1.0E-006),#134);
#91=LINE('',#135,#136);
#92=CURVE_STYLE('',#137,POSITIVE_LENGTH_MEASURE(1.0E-006),#138);
#93=LINE('',#139,#140);
#94=SURFACE_STYLE_USAGE(.BOTH.,#141);
#95=FACE_OUTER_BOUND('',#142,.T.);
#96=CONICAL_SURFACE('',#143,5.0,0.191986217719376);
#97=POINT_STYLE(' ',#144,POSITIVE_LENGTH_MEASURE(1.0E-006),#145);
#98=CARTESIAN_POINT('',(0.0,5.0,0.0));
#99=POINT_STYLE(' ',#146,POSITIVE_LENGTH_MEASURE(1.0E-006),#147);
#100=CARTESIAN_POINT('',(10.0,5.0,0.0));
#101=SURFACE_STYLE_USAGE(.BOTH.,#148);
#102=FACE_OUTER_BOUND('',#149,.T.);
#103=PLANE('',#150);
#104=SURFACE_STYLE_USAGE(.BOTH.,#151);
#105=CLOSED_SHELL('',(#61,#49,#55,#67));
#106=POINT_STYLE(' ',#152,POSITIVE_LENGTH_MEASURE(1.0E-006),#153);
#107=CARTESIAN_POINT('',(0.771689827276743,5.0,-3.97));
#108=SURFACE_STYLE_USAGE(.BOTH.,#154);
#109=FACE_OUTER_BOUND('',#155,.T.);
#110=CONICAL_SURFACE('',#156,5.0,0.191986217719376);
#111=CURVE_STYLE('',#157,POSITIVE_LENGTH_MEASURE(1.0E-006),#158);
#112=CIRCLE('',#159,4.22831017272326);
#113=POINT_STYLE(' ',#160,POSITIVE_LENGTH_MEASURE(1.0E-006),#161);
#114=CARTESIAN_POINT('',(9.22831017272326,5.0,-3.97));
#115=SURFACE_STYLE_USAGE(.BOTH.,#162);
#116=FACE_OUTER_BOUND('',#163,.T.);
#117=PLANE('',#164);
#118=PRODUCT_CONTEXT('',#25,'mechanical');
#119=PRODUCT_DEFINITION_FORMATION_WITH_SPECIFIED_SOURCE(' ','NONE',#68,.NOT_KNOWN.);
#120=CARTESIAN_POINT('',(0.0,0.0,0.0));
#121=DIRECTION('',(0.0,0.0,1.0));
#122=DIRECTION('',(1.0,0.0,0.0));
#123= (NAMED_UNIT(#76)LENGTH_UNIT()SI_UNIT(.MILLI.,.METRE.));
#124=DRAUGHTING_PRE_DEFINED_CURVE_FONT('continuous');
#125=COLOUR_RGB('',0.800000011920929,0.800000011920929,0.800000011920929);
#126=AXIS2_PLACEMENT_3D('',#166,#167,#168);
#127=DRAUGHTING_PRE_DEFINED_CURVE_FONT('continuous');
#128=COLOUR_RGB('',0.800000011920929,0.800000011920929,0.800000011920929);
#129=AXIS2_PLACEMENT_3D('',#169,#170,#171);
#130=DRAUGHTING_PRE_DEFINED_CURVE_FONT('continuous');
#131=COLOUR_RGB('',0.800000011920929,0.800000011920929,0.800000011920929);
#132=AXIS2_PLACEMENT_3D('',#172,#173,#174);
#133=DRAUGHTING_PRE_DEFINED_CURVE_FONT('continuous');
#134=COLOUR_RGB('',0.800000011920929,0.800000011920929,0.800000011920929);
#135=CARTESIAN_POINT('',(10.0,5.0,0.0));
#136=VECTOR('',#175,1.0);
#137=DRAUGHTING_PRE_DEFINED_CURVE_FONT('continuous');
#138=COLOUR_RGB('',0.800000011920929,0.800000011920929,0.800000011920929);
#139=CARTESIAN_POINT('',(8.88178419700125E-016,5.0,0.0));
#140=VECTOR('',#176,1.0);
#141=SURFACE_SIDE_STYLE('',(#177));
#142=EDGE_LOOP('',(#178,#179,#180,#181));
#143=AXIS2_PLACEMENT_3D('',#182,#183,#184);
#144=PRE_DEFINED_MARKER('');
#145=COLOUR_RGB('',0.800000011920929,0.800000011920929,0.800000011920929);
#146=PRE_DEFINED_MARKER('');
#147=COLOUR_RGB('',0.800000011920929,0.800000011920929,0.800000011920929);
#148=SURFACE_SIDE_STYLE('',(#185));
#149=EDGE_LOOP('',(#186,#187));
#150=AXIS2_PLACEMENT_3D('',#188,#189,#190);
#151=SURFACE_SIDE_STYLE('',(#191));
#152=PRE_DEFINED_MARKER('');
#153=COLOUR_RGB('',0.800000011920929,0.800000011920929,0.800000011920929);
#154=SURFACE_SIDE_STYLE('',(#192));
#155=EDGE_LOOP('',(#193,#194,#195,#196));
#156=AXIS2_PLACEMENT_3D('',#197,#198,#199);
#157=DRAUGHTING_PRE_DEFINED_CURVE_FONT('continuous');
#158=COLOUR_RGB('',0.800000011920929,0.800000011920929,0.800000011920929);
#159=AXIS2_PLACEMENT_3D('',#200,#201,#202);
#160=PRE_DEFINED_MARKER('');
#161=COLOUR_RGB('',0.800000011920929,0.800000011920929,0.800000011920929);
#162=SURFACE_SIDE_STYLE('',(#203));
#163=EDGE_LOOP('',(#204,#205));
#164=AXIS2_PLACEMENT_3D('',#206,#207,#208);
#166=CARTESIAN_POINT('',(5.0,5.0,0.0));
#167=DIRECTION('',(0.0,0.0,1.0));
#168=DIRECTION('',(1.0,0.0,0.0));
#169=CARTESIAN_POINT('',(5.0,5.0,-3.97));
#170=DIRECTION('',(0.0,0.0,1.0));
#171=DIRECTION('',(-1.0,5.32907051820075E-016,0.0));
#172=CARTESIAN_POINT('',(5.0,5.0,0.0));
#173=DIRECTION('',(0.0,0.0,1.0));
#174=DIRECTION('',(1.0,0.0,0.0));
#175=DIRECTION('',(-0.190808995376545,-3.38944863956216E-017,-0.981627183447664));
#176=DIRECTION('',(-0.190808995376545,-3.38944863956216E-017,0.981627183447664));
#177=SURFACE_STYLE_FILL_AREA(#209);
#178=ORIENTED_EDGE('',*,*,#45,.T.);
#179=ORIENTED_EDGE('',*,*,#41,.T.);
#180=ORIENTED_EDGE('',*,*,#47,.T.);
#181=ORIENTED_EDGE('',*,*,#43,.F.);
#182=CARTESIAN_POINT('',(5.0,5.0,0.0));
#183=DIRECTION('',(-0.0,-0.0,1.0));
#184=DIRECTION('',(1.0,0.0,0.0));
#185=SURFACE_STYLE_FILL_AREA(#210);
#186=ORIENTED_EDGE('',*,*,#41,.F.);
#187=ORIENTED_EDGE('',*,*,#63,.F.);
#188=CARTESIAN_POINT('',(5.0,5.0,-3.97));
#189=DIRECTION('',(0.0,0.0,1.0));
#190=DIRECTION('',(1.0,0.0,0.0));
#191=SURFACE_STYLE_FILL_AREA(#211);
#192=SURFACE_STYLE_FILL_AREA(#212);
#193=ORIENTED_EDGE('',*,*,#45,.F.);
#194=ORIENTED_EDGE('',*,*,#39,.F.);
#195=ORIENTED_EDGE('',*,*,#47,.F.);
#196=ORIENTED_EDGE('',*,*,#63,.T.);
#197=CARTESIAN_POINT('',(5.0,5.0,0.0));
#198=DIRECTION('',(-0.0,-0.0,1.0));
#199=DIRECTION('',(1.0,0.0,0.0));
#200=CARTESIAN_POINT('',(5.0,5.0,-3.97));
#201=DIRECTION('',(0.0,0.0,1.0));
#202=DIRECTION('',(-1.0,5.32907051820075E-016,0.0));
#203=SURFACE_STYLE_FILL_AREA(#213);
#204=ORIENTED_EDGE('',*,*,#39,.T.);
#205=ORIENTED_EDGE('',*,*,#43,.T.);
#206=CARTESIAN_POINT('',(5.0,5.0,0.0));
#207=DIRECTION('',(0.0,0.0,1.0));
#208=DIRECTION('',(1.0,0.0,0.0));
#209=FILL_AREA_STYLE('',(#214));
#210=FILL_AREA_STYLE('',(#215));
#211=FILL_AREA_STYLE('',(#216));
#212=FILL_AREA_STYLE('',(#217));
#213=FILL_AREA_STYLE('',(#218));
#214=FILL_AREA_STYLE_COLOUR('',#219);
#215=FILL_AREA_STYLE_COLOUR('',#220);
#216=FILL_AREA_STYLE_COLOUR('',#221);
#217=FILL_AREA_STYLE_COLOUR('',#222);
#218=FILL_AREA_STYLE_COLOUR('',#223);
#219=COLOUR_RGB('',0.800000011920929,0.800000011920929,0.800000011920929);
#220=COLOUR_RGB('',0.800000011920929,0.800000011920929,0.800000011920929);
#221=COLOUR_RGB('',0.800000011920929,0.800000011920929,0.800000011920929);
#222=COLOUR_RGB('',0.800000011920929,0.800000011920929,0.800000011920929);
#223=COLOUR_RGB('',0.800000011920929,0.800000011920929,0.800000011920929);
#224=AXIS2_PLACEMENT_3D('PCS',#225,#226,#227);
#225=CARTESIAN_POINT('',(0.0,0.0,0.0));
#226=DIRECTION('',(0.0,0.0,1.0));
#227=DIRECTION('',(1.0,0.0,0.0));
#228=AXIS2_PLACEMENT_3D('MCS',#229,#230,#231);
#229=CARTESIAN_POINT('',(5.0,5.0,0.0));
#230=DIRECTION('',(0.0,0.0,1.0));
#231=DIRECTION('',(1.0,0.0,0.0));
#232=CONSTRUCTIVE_GEOMETRY_REPRESENTATION_RELATIONSHIP('coordinate systems',$,#29,#233);
#233=CONSTRUCTIVE_GEOMETRY_REPRESENTATION('coordinate systems',(#224,#228),#6);
ENDSEC;
END-ISO-10303-21;
