ISO-10303-21;
HEADER;
FILE_DESCRIPTION(('no description'),'unknown implementation level');
FILE_NAME('solidAgLmNuXpyiQVkatrmSuoW6R3LDU_1.STP','  ',('CIMSOURCE GmbH'),('CADClick - KiM GmbH - www.kimweb.de'),'unknown preprocess','ACIS','unknown authorization');
FILE_SCHEMA(('automotive_design'));
ENDSEC;
DATA;
#1=MECHANICAL_DESIGN_GEOMETRIC_PRESENTATION_REPRESENTATION(' ',(#10,#11,#12,#13,#14,#15,#16,#17,#18,#19,#20,#21,#22,#23,#24),#6);
#2=PRODUCT_DEFINITION_CONTEXT('',#25,'design');
#3=APPLICATION_PROTOCOL_DEFINITION('INTERNATIONAL STANDARD','automotive_design',1994,#25);
#4=PRODUCT_CATEGORY_RELATIONSHIP('NONE','NONE',#26,#27);
#5=SHAPE_DEFINITION_REPRESENTATION(#28,#29);
#6= (GEOMETRIC_REPRESENTATION_CONTEXT(3)GLOBAL_UNCERTAINTY_ASSIGNED_CONTEXT((#32))GLOBAL_UNIT_ASSIGNED_CONTEXT((#34,#35,#36))REPRESENTATION_CONTEXT('NONE','WORKSPACE'));
#10=STYLED_ITEM('',(#38),#39);
#11=STYLED_ITEM('',(#40),#41);
#12=STYLED_ITEM('',(#42),#43);
#13=STYLED_ITEM('',(#44),#45);
#14=STYLED_ITEM('',(#46),#47);
#15=STYLED_ITEM('',(#48),#49);
#16=STYLED_ITEM('',(#50),#51);
#17=STYLED_ITEM('',(#52),#53);
#18=STYLED_ITEM('',(#54),#55);
#19=STYLED_ITEM('',(#56),#57);
#20=STYLED_ITEM('',(#58),#59);
#21=STYLED_ITEM('',(#60),#61);
#22=STYLED_ITEM('',(#62),#63);
#23=STYLED_ITEM('',(#64),#65);
#24=STYLED_ITEM('',(#66),#67);
#25=APPLICATION_CONTEXT(' ');
#26=PRODUCT_CATEGORY('part','NONE');
#27=PRODUCT_RELATED_PRODUCT_CATEGORY('detail',' ',(#68));
#28=PRODUCT_DEFINITION_SHAPE('NONE','NONE',#69);
#29=ADVANCED_BREP_SHAPE_REPRESENTATION('1',(#49,#70),#6);
#32=UNCERTAINTY_MEASURE_WITH_UNIT(LENGTH_MEASURE(1.0E-006),#34,'','');
#34= (CONVERSION_BASED_UNIT('MILLIMETRE',#73)LENGTH_UNIT()NAMED_UNIT(#76));
#35= (NAMED_UNIT(#78)PLANE_ANGLE_UNIT()SI_UNIT($,.RADIAN.));
#36= (NAMED_UNIT(#78)SOLID_ANGLE_UNIT()SI_UNIT($,.STERADIAN.));
#38=PRESENTATION_STYLE_ASSIGNMENT((#84));
#39=EDGE_CURVE('',#53,#43,#85,.T.);
#40=PRESENTATION_STYLE_ASSIGNMENT((#86));
#41=EDGE_CURVE('',#63,#57,#87,.T.);
#42=PRESENTATION_STYLE_ASSIGNMENT((#88));
#43=VERTEX_POINT('',#89);
#44=PRESENTATION_STYLE_ASSIGNMENT((#90));
#45=ADVANCED_FACE('',(#91),#92,.T.);
#46=PRESENTATION_STYLE_ASSIGNMENT((#93));
#47=EDGE_CURVE('',#63,#53,#94,.T.);
#48=PRESENTATION_STYLE_ASSIGNMENT((#95));
#49=MANIFOLD_SOLID_BREP('1',#96);
#50=PRESENTATION_STYLE_ASSIGNMENT((#97));
#51=EDGE_CURVE('',#43,#53,#98,.T.);
#52=PRESENTATION_STYLE_ASSIGNMENT((#99));
#53=VERTEX_POINT('',#100);
#54=PRESENTATION_STYLE_ASSIGNMENT((#101));
#55=ADVANCED_FACE('',(#102),#103,.T.);
#56=PRESENTATION_STYLE_ASSIGNMENT((#104));
#57=VERTEX_POINT('',#105);
#58=PRESENTATION_STYLE_ASSIGNMENT((#106));
#59=EDGE_CURVE('',#57,#63,#107,.T.);
#60=PRESENTATION_STYLE_ASSIGNMENT((#108));
#61=ADVANCED_FACE('',(#109),#110,.T.);
#62=PRESENTATION_STYLE_ASSIGNMENT((#111));
#63=VERTEX_POINT('',#112);
#64=PRESENTATION_STYLE_ASSIGNMENT((#113));
#65=EDGE_CURVE('',#43,#57,#114,.T.);
#66=PRESENTATION_STYLE_ASSIGNMENT((#115));
#67=ADVANCED_FACE('',(#116),#117,.F.);
#68=PRODUCT('1','1','PART-1-DESC',(#118));
#69=PRODUCT_DEFINITION('NONE','NONE',#119,#2);
#70=AXIS2_PLACEMENT_3D('',#120,#121,#122);
#73=LENGTH_MEASURE_WITH_UNIT(LENGTH_MEASURE(1.0),#123);
#76=DIMENSIONAL_EXPONENTS(1.0,0.0,0.0,0.0,0.0,0.0,0.0);
#78=DIMENSIONAL_EXPONENTS(0.0,0.0,0.0,0.0,0.0,0.0,0.0);
#84=CURVE_STYLE('',#124,POSITIVE_LENGTH_MEASURE(1.0E-006),#125);
#85=CIRCLE('',#126,4.22831017272326);
#86=CURVE_STYLE('',#127,POSITIVE_LENGTH_MEASURE(1.0E-006),#128);
#87=CIRCLE('',#129,5.0);
#88=POINT_STYLE(' ',#130,POSITIVE_LENGTH_MEASURE(1.0E-006),#131);
#89=CARTESIAN_POINT('',(0.771689827276743,5.0,-3.97));
#90=SURFACE_STYLE_USAGE(.BOTH.,#132);
#91=FACE_OUTER_BOUND('',#133,.T.);
#92=CONICAL_SURFACE('',#134,5.0,0.191986217719376);
#93=CURVE_STYLE('',#135,POSITIVE_LENGTH_MEASURE(1.0E-006),#136);
#94=LINE('',#137,#138);
#95=SURFACE_STYLE_USAGE(.BOTH.,#139);
#96=CLOSED_SHELL('',(#61,#45,#67,#55));
#97=CURVE_STYLE('',#140,POSITIVE_LENGTH_MEASURE(1.0E-006),#141);
#98=CIRCLE('',#142,4.22831017272326);
#99=POINT_STYLE(' ',#143,POSITIVE_LENGTH_MEASURE(1.0E-006),#144);
#100=CARTESIAN_POINT('',(9.22831017272326,5.0,-3.97));
#101=SURFACE_STYLE_USAGE(.BOTH.,#145);
#102=FACE_OUTER_BOUND('',#146,.T.);
#103=PLANE('',#147);
#104=POINT_STYLE(' ',#148,POSITIVE_LENGTH_MEASURE(1.0E-006),#149);
#105=CARTESIAN_POINT('',(0.0,5.0,0.0));
#106=CURVE_STYLE('',#150,POSITIVE_LENGTH_MEASURE(1.0E-006),#151);
#107=CIRCLE('',#152,5.0);
#108=SURFACE_STYLE_USAGE(.BOTH.,#153);
#109=FACE_OUTER_BOUND('',#154,.T.);
#110=CONICAL_SURFACE('',#155,5.0,0.191986217719376);
#111=POINT_STYLE(' ',#156,POSITIVE_LENGTH_MEASURE(1.0E-006),#157);
#112=CARTESIAN_POINT('',(10.0,5.0,0.0));
#113=CURVE_STYLE('',#158,POSITIVE_LENGTH_MEASURE(1.0E-006),#159);
#114=LINE('',#160,#161);
#115=SURFACE_STYLE_USAGE(.BOTH.,#162);
#116=FACE_OUTER_BOUND('',#163,.T.);
#117=PLANE('',#164);
#118=PRODUCT_CONTEXT('',#25,'mechanical');
#119=PRODUCT_DEFINITION_FORMATION_WITH_SPECIFIED_SOURCE(' ','NONE',#68,.NOT_KNOWN.);
#120=CARTESIAN_POINT('',(0.0,0.0,0.0));
#121=DIRECTION('',(0.0,0.0,1.0));
#122=DIRECTION('',(1.0,0.0,0.0));
#123= (NAMED_UNIT(#76)LENGTH_UNIT()SI_UNIT(.MILLI.,.METRE.));
#124=DRAUGHTING_PRE_DEFINED_CURVE_FONT('continuous');
#125=COLOUR_RGB('',0.800000011920929,0.800000011920929,0.800000011920929);
#126=AXIS2_PLACEMENT_3D('',#166,#167,#168);
#127=DRAUGHTING_PRE_DEFINED_CURVE_FONT('continuous');
#128=COLOUR_RGB('',0.800000011920929,0.800000011920929,0.800000011920929);
#129=AXIS2_PLACEMENT_3D('',#169,#170,#171);
#130=PRE_DEFINED_MARKER('');
#131=COLOUR_RGB('',0.800000011920929,0.800000011920929,0.800000011920929);
#132=SURFACE_SIDE_STYLE('',(#172));
#133=EDGE_LOOP('',(#173,#174,#175,#176));
#134=AXIS2_PLACEMENT_3D('',#177,#178,#179);
#135=DRAUGHTING_PRE_DEFINED_CURVE_FONT('continuous');
#136=COLOUR_RGB('',0.800000011920929,0.800000011920929,0.800000011920929);
#137=CARTESIAN_POINT('',(10.0,5.0,0.0));
#138=VECTOR('',#180,1.0);
#139=SURFACE_SIDE_STYLE('',(#181));
#140=DRAUGHTING_PRE_DEFINED_CURVE_FONT('continuous');
#141=COLOUR_RGB('',0.800000011920929,0.800000011920929,0.800000011920929);
#142=AXIS2_PLACEMENT_3D('',#182,#183,#184);
#143=PRE_DEFINED_MARKER('');
#144=COLOUR_RGB('',0.800000011920929,0.800000011920929,0.800000011920929);
#145=SURFACE_SIDE_STYLE('',(#185));
#146=EDGE_LOOP('',(#186,#187));
#147=AXIS2_PLACEMENT_3D('',#188,#189,#190);
#148=PRE_DEFINED_MARKER('');
#149=COLOUR_RGB('',0.800000011920929,0.800000011920929,0.800000011920929);
#150=DRAUGHTING_PRE_DEFINED_CURVE_FONT('continuous');
#151=COLOUR_RGB('',0.800000011920929,0.800000011920929,0.800000011920929);
#152=AXIS2_PLACEMENT_3D('',#191,#192,#193);
#153=SURFACE_SIDE_STYLE('',(#194));
#154=EDGE_LOOP('',(#195,#196,#197,#198));
#155=AXIS2_PLACEMENT_3D('',#199,#200,#201);
#156=PRE_DEFINED_MARKER('');
#157=COLOUR_RGB('',0.800000011920929,0.800000011920929,0.800000011920929);
#158=DRAUGHTING_PRE_DEFINED_CURVE_FONT('continuous');
#159=COLOUR_RGB('',0.800000011920929,0.800000011920929,0.800000011920929);
#160=CARTESIAN_POINT('',(8.88178419700125E-016,5.0,0.0));
#161=VECTOR('',#202,1.0);
#162=SURFACE_SIDE_STYLE('',(#203));
#163=EDGE_LOOP('',(#204,#205));
#164=AXIS2_PLACEMENT_3D('',#206,#207,#208);
#166=CARTESIAN_POINT('',(5.0,5.0,-3.97));
#167=DIRECTION('',(0.0,0.0,1.0));
#168=DIRECTION('',(-1.0,5.32907051820075E-016,0.0));
#169=CARTESIAN_POINT('',(5.0,5.0,0.0));
#170=DIRECTION('',(0.0,0.0,1.0));
#171=DIRECTION('',(1.0,0.0,0.0));
#172=SURFACE_STYLE_FILL_AREA(#209);
#173=ORIENTED_EDGE('',*,*,#47,.T.);
#174=ORIENTED_EDGE('',*,*,#39,.T.);
#175=ORIENTED_EDGE('',*,*,#65,.T.);
#176=ORIENTED_EDGE('',*,*,#41,.F.);
#177=CARTESIAN_POINT('',(5.0,5.0,0.0));
#178=DIRECTION('',(-0.0,-0.0,1.0));
#179=DIRECTION('',(1.0,0.0,0.0));
#180=DIRECTION('',(-0.190808995376545,-3.38944863956216E-017,-0.981627183447664));
#181=SURFACE_STYLE_FILL_AREA(#210);
#182=CARTESIAN_POINT('',(5.0,5.0,-3.97));
#183=DIRECTION('',(0.0,0.0,1.0));
#184=DIRECTION('',(-1.0,5.32907051820075E-016,0.0));
#185=SURFACE_STYLE_FILL_AREA(#211);
#186=ORIENTED_EDGE('',*,*,#59,.T.);
#187=ORIENTED_EDGE('',*,*,#41,.T.);
#188=CARTESIAN_POINT('',(5.0,5.0,0.0));
#189=DIRECTION('',(0.0,0.0,1.0));
#190=DIRECTION('',(1.0,0.0,0.0));
#191=CARTESIAN_POINT('',(5.0,5.0,0.0));
#192=DIRECTION('',(0.0,0.0,1.0));
#193=DIRECTION('',(1.0,0.0,0.0));
#194=SURFACE_STYLE_FILL_AREA(#212);
#195=ORIENTED_EDGE('',*,*,#47,.F.);
#196=ORIENTED_EDGE('',*,*,#59,.F.);
#197=ORIENTED_EDGE('',*,*,#65,.F.);
#198=ORIENTED_EDGE('',*,*,#51,.T.);
#199=CARTESIAN_POINT('',(5.0,5.0,0.0));
#200=DIRECTION('',(-0.0,-0.0,1.0));
#201=DIRECTION('',(1.0,0.0,0.0));
#202=DIRECTION('',(-0.190808995376545,-3.38944863956216E-017,0.981627183447664));
#203=SURFACE_STYLE_FILL_AREA(#213);
#204=ORIENTED_EDGE('',*,*,#39,.F.);
#205=ORIENTED_EDGE('',*,*,#51,.F.);
#206=CARTESIAN_POINT('',(5.0,5.0,-3.97));
#207=DIRECTION('',(0.0,0.0,1.0));
#208=DIRECTION('',(1.0,0.0,0.0));
#209=FILL_AREA_STYLE('',(#214));
#210=FILL_AREA_STYLE('',(#215));
#211=FILL_AREA_STYLE('',(#216));
#212=FILL_AREA_STYLE('',(#217));
#213=FILL_AREA_STYLE('',(#218));
#214=FILL_AREA_STYLE_COLOUR('',#219);
#215=FILL_AREA_STYLE_COLOUR('',#220);
#216=FILL_AREA_STYLE_COLOUR('',#221);
#217=FILL_AREA_STYLE_COLOUR('',#222);
#218=FILL_AREA_STYLE_COLOUR('',#223);
#219=COLOUR_RGB('',0.800000011920929,0.800000011920929,0.800000011920929);
#220=COLOUR_RGB('',0.800000011920929,0.800000011920929,0.800000011920929);
#221=COLOUR_RGB('',0.800000011920929,0.800000011920929,0.800000011920929);
#222=COLOUR_RGB('',0.800000011920929,0.800000011920929,0.800000011920929);
#223=COLOUR_RGB('',0.800000011920929,0.800000011920929,0.800000011920929);
#224=AXIS2_PLACEMENT_3D('PCS',#225,#226,#227);
#225=CARTESIAN_POINT('',(0.0,0.0,0.0));
#226=DIRECTION('',(0.0,0.0,1.0));
#227=DIRECTION('',(1.0,0.0,0.0));
#228=AXIS2_PLACEMENT_3D('MCS',#229,#230,#231);
#229=CARTESIAN_POINT('',(5.0,5.0,0.0));
#230=DIRECTION('',(0.0,0.0,1.0));
#231=DIRECTION('',(1.0,0.0,0.0));
#232=CONSTRUCTIVE_GEOMETRY_REPRESENTATION_RELATIONSHIP('coordinate systems',$,#29,#233);
#233=CONSTRUCTIVE_GEOMETRY_REPRESENTATION('coordinate systems',(#224,#228),#6);
ENDSEC;
END-ISO-10303-21;
