ISO-10303-21;
HEADER;
FILE_DESCRIPTION(('no description'),'unknown implementation level');
FILE_NAME('solidlu45IPj3d_q27vDj3KTtX7chGKg_1.STP','  ',('CIMSOURCE GmbH'),('CADClick - KiM GmbH - www.kimweb.de'),'unknown preprocess','ACIS','unknown authorization');
FILE_SCHEMA(('automotive_design'));
ENDSEC;
DATA;
#1=MECHANICAL_DESIGN_GEOMETRIC_PRESENTATION_REPRESENTATION(' ',(#10,#11,#12,#13,#14,#15,#16,#17,#18,#19,#20,#21,#22,#23,#24),#6);
#2=PRODUCT_DEFINITION_CONTEXT('',#25,'design');
#3=APPLICATION_PROTOCOL_DEFINITION('INTERNATIONAL STANDARD','automotive_design',1994,#25);
#4=PRODUCT_CATEGORY_RELATIONSHIP('NONE','NONE',#26,#27);
#5=SHAPE_DEFINITION_REPRESENTATION(#28,#29);
#6= (GEOMETRIC_REPRESENTATION_CONTEXT(3)GLOBAL_UNCERTAINTY_ASSIGNED_CONTEXT((#32))GLOBAL_UNIT_ASSIGNED_CONTEXT((#34,#35,#36))REPRESENTATION_CONTEXT('NONE','WORKSPACE'));
#10=STYLED_ITEM('',(#38),#39);
#11=STYLED_ITEM('',(#40),#41);
#12=STYLED_ITEM('',(#42),#43);
#13=STYLED_ITEM('',(#44),#45);
#14=STYLED_ITEM('',(#46),#47);
#15=STYLED_ITEM('',(#48),#49);
#16=STYLED_ITEM('',(#50),#51);
#17=STYLED_ITEM('',(#52),#53);
#18=STYLED_ITEM('',(#54),#55);
#19=STYLED_ITEM('',(#56),#57);
#20=STYLED_ITEM('',(#58),#59);
#21=STYLED_ITEM('',(#60),#61);
#22=STYLED_ITEM('',(#62),#63);
#23=STYLED_ITEM('',(#64),#65);
#24=STYLED_ITEM('',(#66),#67);
#25=APPLICATION_CONTEXT(' ');
#26=PRODUCT_CATEGORY('part','NONE');
#27=PRODUCT_RELATED_PRODUCT_CATEGORY('detail',' ',(#68));
#28=PRODUCT_DEFINITION_SHAPE('NONE','NONE',#69);
#29=ADVANCED_BREP_SHAPE_REPRESENTATION('1',(#67,#70),#6);
#32=UNCERTAINTY_MEASURE_WITH_UNIT(LENGTH_MEASURE(1.0E-006),#34,'','');
#34= (CONVERSION_BASED_UNIT('MILLIMETRE',#73)LENGTH_UNIT()NAMED_UNIT(#76));
#35= (NAMED_UNIT(#78)PLANE_ANGLE_UNIT()SI_UNIT($,.RADIAN.));
#36= (NAMED_UNIT(#78)SOLID_ANGLE_UNIT()SI_UNIT($,.STERADIAN.));
#38=PRESENTATION_STYLE_ASSIGNMENT((#84));
#39=VERTEX_POINT('',#85);
#40=PRESENTATION_STYLE_ASSIGNMENT((#86));
#41=ADVANCED_FACE('',(#87),#88,.F.);
#42=PRESENTATION_STYLE_ASSIGNMENT((#89));
#43=EDGE_CURVE('',#39,#45,#90,.T.);
#44=PRESENTATION_STYLE_ASSIGNMENT((#91));
#45=VERTEX_POINT('',#92);
#46=PRESENTATION_STYLE_ASSIGNMENT((#93));
#47=VERTEX_POINT('',#94);
#48=PRESENTATION_STYLE_ASSIGNMENT((#95));
#49=EDGE_CURVE('',#53,#45,#96,.T.);
#50=PRESENTATION_STYLE_ASSIGNMENT((#97));
#51=ADVANCED_FACE('',(#98),#99,.T.);
#52=PRESENTATION_STYLE_ASSIGNMENT((#100));
#53=VERTEX_POINT('',#101);
#54=PRESENTATION_STYLE_ASSIGNMENT((#102));
#55=EDGE_CURVE('',#53,#47,#103,.T.);
#56=PRESENTATION_STYLE_ASSIGNMENT((#104));
#57=EDGE_CURVE('',#39,#47,#105,.T.);
#58=PRESENTATION_STYLE_ASSIGNMENT((#106));
#59=EDGE_CURVE('',#47,#39,#107,.T.);
#60=PRESENTATION_STYLE_ASSIGNMENT((#108));
#61=ADVANCED_FACE('',(#109),#110,.T.);
#62=PRESENTATION_STYLE_ASSIGNMENT((#111));
#63=EDGE_CURVE('',#45,#53,#112,.T.);
#64=PRESENTATION_STYLE_ASSIGNMENT((#113));
#65=ADVANCED_FACE('',(#114),#115,.T.);
#66=PRESENTATION_STYLE_ASSIGNMENT((#116));
#67=MANIFOLD_SOLID_BREP('1',#117);
#68=PRODUCT('1','1','PART-1-DESC',(#118));
#69=PRODUCT_DEFINITION('NONE','NONE',#119,#2);
#70=AXIS2_PLACEMENT_3D('',#120,#121,#122);
#73=LENGTH_MEASURE_WITH_UNIT(LENGTH_MEASURE(1.0),#123);
#76=DIMENSIONAL_EXPONENTS(1.0,0.0,0.0,0.0,0.0,0.0,0.0);
#78=DIMENSIONAL_EXPONENTS(0.0,0.0,0.0,0.0,0.0,0.0,0.0);
#84=POINT_STYLE(' ',#124,POSITIVE_LENGTH_MEASURE(1.0E-006),#125);
#85=CARTESIAN_POINT('',(10.0,5.0,0.0));
#86=SURFACE_STYLE_USAGE(.BOTH.,#126);
#87=FACE_OUTER_BOUND('',#127,.T.);
#88=PLANE('',#128);
#89=CURVE_STYLE('',#129,POSITIVE_LENGTH_MEASURE(1.0E-006),#130);
#90=LINE('',#131,#132);
#91=POINT_STYLE(' ',#133,POSITIVE_LENGTH_MEASURE(1.0E-006),#134);
#92=CARTESIAN_POINT('',(9.22831017272326,5.0,-3.97));
#93=POINT_STYLE(' ',#135,POSITIVE_LENGTH_MEASURE(1.0E-006),#136);
#94=CARTESIAN_POINT('',(0.0,5.0,0.0));
#95=CURVE_STYLE('',#137,POSITIVE_LENGTH_MEASURE(1.0E-006),#138);
#96=CIRCLE('',#139,4.22831017272326);
#97=SURFACE_STYLE_USAGE(.BOTH.,#140);
#98=FACE_OUTER_BOUND('',#141,.T.);
#99=CONICAL_SURFACE('',#142,5.0,0.191986217719376);
#100=POINT_STYLE(' ',#143,POSITIVE_LENGTH_MEASURE(1.0E-006),#144);
#101=CARTESIAN_POINT('',(0.771689827276743,5.0,-3.97));
#102=CURVE_STYLE('',#145,POSITIVE_LENGTH_MEASURE(1.0E-006),#146);
#103=LINE('',#147,#148);
#104=CURVE_STYLE('',#149,POSITIVE_LENGTH_MEASURE(1.0E-006),#150);
#105=CIRCLE('',#151,5.0);
#106=CURVE_STYLE('',#152,POSITIVE_LENGTH_MEASURE(1.0E-006),#153);
#107=CIRCLE('',#154,5.0);
#108=SURFACE_STYLE_USAGE(.BOTH.,#155);
#109=FACE_OUTER_BOUND('',#156,.T.);
#110=PLANE('',#157);
#111=CURVE_STYLE('',#158,POSITIVE_LENGTH_MEASURE(1.0E-006),#159);
#112=CIRCLE('',#160,4.22831017272326);
#113=SURFACE_STYLE_USAGE(.BOTH.,#161);
#114=FACE_OUTER_BOUND('',#162,.T.);
#115=CONICAL_SURFACE('',#163,5.0,0.191986217719376);
#116=SURFACE_STYLE_USAGE(.BOTH.,#164);
#117=CLOSED_SHELL('',(#65,#51,#41,#61));
#118=PRODUCT_CONTEXT('',#25,'mechanical');
#119=PRODUCT_DEFINITION_FORMATION_WITH_SPECIFIED_SOURCE(' ','NONE',#68,.NOT_KNOWN.);
#120=CARTESIAN_POINT('',(0.0,0.0,0.0));
#121=DIRECTION('',(0.0,0.0,1.0));
#122=DIRECTION('',(1.0,0.0,0.0));
#123= (NAMED_UNIT(#76)LENGTH_UNIT()SI_UNIT(.MILLI.,.METRE.));
#124=PRE_DEFINED_MARKER('');
#125=COLOUR_RGB('',0.800000011920929,0.800000011920929,0.800000011920929);
#126=SURFACE_SIDE_STYLE('',(#166));
#127=EDGE_LOOP('',(#167,#168));
#128=AXIS2_PLACEMENT_3D('',#169,#170,#171);
#129=DRAUGHTING_PRE_DEFINED_CURVE_FONT('continuous');
#130=COLOUR_RGB('',0.800000011920929,0.800000011920929,0.800000011920929);
#131=CARTESIAN_POINT('',(10.0,5.0,0.0));
#132=VECTOR('',#172,1.0);
#133=PRE_DEFINED_MARKER('');
#134=COLOUR_RGB('',0.800000011920929,0.800000011920929,0.800000011920929);
#135=PRE_DEFINED_MARKER('');
#136=COLOUR_RGB('',0.800000011920929,0.800000011920929,0.800000011920929);
#137=DRAUGHTING_PRE_DEFINED_CURVE_FONT('continuous');
#138=COLOUR_RGB('',0.800000011920929,0.800000011920929,0.800000011920929);
#139=AXIS2_PLACEMENT_3D('',#173,#174,#175);
#140=SURFACE_SIDE_STYLE('',(#176));
#141=EDGE_LOOP('',(#177,#178,#179,#180));
#142=AXIS2_PLACEMENT_3D('',#181,#182,#183);
#143=PRE_DEFINED_MARKER('');
#144=COLOUR_RGB('',0.800000011920929,0.800000011920929,0.800000011920929);
#145=DRAUGHTING_PRE_DEFINED_CURVE_FONT('continuous');
#146=COLOUR_RGB('',0.800000011920929,0.800000011920929,0.800000011920929);
#147=CARTESIAN_POINT('',(8.88178419700125E-016,5.0,0.0));
#148=VECTOR('',#184,1.0);
#149=DRAUGHTING_PRE_DEFINED_CURVE_FONT('continuous');
#150=COLOUR_RGB('',0.800000011920929,0.800000011920929,0.800000011920929);
#151=AXIS2_PLACEMENT_3D('',#185,#186,#187);
#152=DRAUGHTING_PRE_DEFINED_CURVE_FONT('continuous');
#153=COLOUR_RGB('',0.800000011920929,0.800000011920929,0.800000011920929);
#154=AXIS2_PLACEMENT_3D('',#188,#189,#190);
#155=SURFACE_SIDE_STYLE('',(#191));
#156=EDGE_LOOP('',(#192,#193));
#157=AXIS2_PLACEMENT_3D('',#194,#195,#196);
#158=DRAUGHTING_PRE_DEFINED_CURVE_FONT('continuous');
#159=COLOUR_RGB('',0.800000011920929,0.800000011920929,0.800000011920929);
#160=AXIS2_PLACEMENT_3D('',#197,#198,#199);
#161=SURFACE_SIDE_STYLE('',(#200));
#162=EDGE_LOOP('',(#201,#202,#203,#204));
#163=AXIS2_PLACEMENT_3D('',#205,#206,#207);
#164=SURFACE_SIDE_STYLE('',(#208));
#166=SURFACE_STYLE_FILL_AREA(#209);
#167=ORIENTED_EDGE('',*,*,#63,.F.);
#168=ORIENTED_EDGE('',*,*,#49,.F.);
#169=CARTESIAN_POINT('',(5.0,5.0,-3.97));
#170=DIRECTION('',(0.0,0.0,1.0));
#171=DIRECTION('',(1.0,0.0,0.0));
#172=DIRECTION('',(-0.190808995376545,-3.38944863956216E-017,-0.981627183447664));
#173=CARTESIAN_POINT('',(5.0,5.0,-3.97));
#174=DIRECTION('',(0.0,0.0,1.0));
#175=DIRECTION('',(-1.0,5.32907051820075E-016,0.0));
#176=SURFACE_STYLE_FILL_AREA(#210);
#177=ORIENTED_EDGE('',*,*,#43,.T.);
#178=ORIENTED_EDGE('',*,*,#63,.T.);
#179=ORIENTED_EDGE('',*,*,#55,.T.);
#180=ORIENTED_EDGE('',*,*,#57,.F.);
#181=CARTESIAN_POINT('',(5.0,5.0,0.0));
#182=DIRECTION('',(-0.0,-0.0,1.0));
#183=DIRECTION('',(1.0,0.0,0.0));
#184=DIRECTION('',(-0.190808995376545,-3.38944863956216E-017,0.981627183447664));
#185=CARTESIAN_POINT('',(5.0,5.0,0.0));
#186=DIRECTION('',(0.0,0.0,1.0));
#187=DIRECTION('',(1.0,0.0,0.0));
#188=CARTESIAN_POINT('',(5.0,5.0,0.0));
#189=DIRECTION('',(0.0,0.0,1.0));
#190=DIRECTION('',(1.0,0.0,0.0));
#191=SURFACE_STYLE_FILL_AREA(#211);
#192=ORIENTED_EDGE('',*,*,#59,.T.);
#193=ORIENTED_EDGE('',*,*,#57,.T.);
#194=CARTESIAN_POINT('',(5.0,5.0,0.0));
#195=DIRECTION('',(0.0,0.0,1.0));
#196=DIRECTION('',(1.0,0.0,0.0));
#197=CARTESIAN_POINT('',(5.0,5.0,-3.97));
#198=DIRECTION('',(0.0,0.0,1.0));
#199=DIRECTION('',(-1.0,5.32907051820075E-016,0.0));
#200=SURFACE_STYLE_FILL_AREA(#212);
#201=ORIENTED_EDGE('',*,*,#43,.F.);
#202=ORIENTED_EDGE('',*,*,#59,.F.);
#203=ORIENTED_EDGE('',*,*,#55,.F.);
#204=ORIENTED_EDGE('',*,*,#49,.T.);
#205=CARTESIAN_POINT('',(5.0,5.0,0.0));
#206=DIRECTION('',(-0.0,-0.0,1.0));
#207=DIRECTION('',(1.0,0.0,0.0));
#208=SURFACE_STYLE_FILL_AREA(#213);
#209=FILL_AREA_STYLE('',(#214));
#210=FILL_AREA_STYLE('',(#215));
#211=FILL_AREA_STYLE('',(#216));
#212=FILL_AREA_STYLE('',(#217));
#213=FILL_AREA_STYLE('',(#218));
#214=FILL_AREA_STYLE_COLOUR('',#219);
#215=FILL_AREA_STYLE_COLOUR('',#220);
#216=FILL_AREA_STYLE_COLOUR('',#221);
#217=FILL_AREA_STYLE_COLOUR('',#222);
#218=FILL_AREA_STYLE_COLOUR('',#223);
#219=COLOUR_RGB('',0.800000011920929,0.800000011920929,0.800000011920929);
#220=COLOUR_RGB('',0.800000011920929,0.800000011920929,0.800000011920929);
#221=COLOUR_RGB('',0.800000011920929,0.800000011920929,0.800000011920929);
#222=COLOUR_RGB('',0.800000011920929,0.800000011920929,0.800000011920929);
#223=COLOUR_RGB('',0.800000011920929,0.800000011920929,0.800000011920929);
#224=AXIS2_PLACEMENT_3D('PCS',#225,#226,#227);
#225=CARTESIAN_POINT('',(0.0,0.0,0.0));
#226=DIRECTION('',(0.0,0.0,1.0));
#227=DIRECTION('',(1.0,0.0,0.0));
#228=AXIS2_PLACEMENT_3D('MCS',#229,#230,#231);
#229=CARTESIAN_POINT('',(5.0,5.0,0.0));
#230=DIRECTION('',(0.0,0.0,1.0));
#231=DIRECTION('',(1.0,0.0,0.0));
#232=CONSTRUCTIVE_GEOMETRY_REPRESENTATION_RELATIONSHIP('coordinate systems',$,#29,#233);
#233=CONSTRUCTIVE_GEOMETRY_REPRESENTATION('coordinate systems',(#224,#228),#6);
ENDSEC;
END-ISO-10303-21;
