ISO-10303-21;
HEADER;
FILE_DESCRIPTION(('no description'),'unknown implementation level');
FILE_NAME('solid8rzDPHBllShoiCwWYbKNfSQu1Tw_1.STP','  ',('CIMSOURCE GmbH'),('CADClick - KiM GmbH - www.kimweb.de'),'unknown preprocess','ACIS','unknown authorization');
FILE_SCHEMA(('automotive_design'));
ENDSEC;
DATA;
#1=MECHANICAL_DESIGN_GEOMETRIC_PRESENTATION_REPRESENTATION(' ',(#10,#11,#12,#13,#14,#15,#16,#17,#18,#19,#20,#21,#22,#23,#24,#25,#26,#27,#28,#29,#30,#31,#32,#33,#34,#35,#36,#37,#38,#39,#40,#41,#42,#43,#44,#45,#46,#47,#48,#49,#50,#51,#52,#53,#54,#55,#56,#57,#58,#59,#60),#6);
#2=PRODUCT_DEFINITION_CONTEXT('',#61,'design');
#3=APPLICATION_PROTOCOL_DEFINITION('INTERNATIONAL STANDARD','automotive_design',1994,#61);
#4=PRODUCT_CATEGORY_RELATIONSHIP('NONE','NONE',#62,#63);
#5=SHAPE_DEFINITION_REPRESENTATION(#64,#65);
#6= (GEOMETRIC_REPRESENTATION_CONTEXT(3)GLOBAL_UNCERTAINTY_ASSIGNED_CONTEXT((#68))GLOBAL_UNIT_ASSIGNED_CONTEXT((#70,#71,#72))REPRESENTATION_CONTEXT('NONE','WORKSPACE'));
#10=STYLED_ITEM('',(#74),#75);
#11=STYLED_ITEM('',(#76),#77);
#12=STYLED_ITEM('',(#78),#79);
#13=STYLED_ITEM('',(#80),#81);
#14=STYLED_ITEM('',(#82),#83);
#15=STYLED_ITEM('',(#84),#85);
#16=STYLED_ITEM('',(#86),#87);
#17=STYLED_ITEM('',(#88),#89);
#18=STYLED_ITEM('',(#90),#91);
#19=STYLED_ITEM('',(#92),#93);
#20=STYLED_ITEM('',(#94),#95);
#21=STYLED_ITEM('',(#96),#97);
#22=STYLED_ITEM('',(#98),#99);
#23=STYLED_ITEM('',(#100),#101);
#24=STYLED_ITEM('',(#102),#103);
#25=STYLED_ITEM('',(#104),#105);
#26=STYLED_ITEM('',(#106),#107);
#27=STYLED_ITEM('',(#108),#109);
#28=STYLED_ITEM('',(#110),#111);
#29=STYLED_ITEM('',(#112),#113);
#30=STYLED_ITEM('',(#114),#115);
#31=STYLED_ITEM('',(#116),#117);
#32=STYLED_ITEM('',(#118),#119);
#33=STYLED_ITEM('',(#120),#121);
#34=STYLED_ITEM('',(#122),#123);
#35=STYLED_ITEM('',(#124),#125);
#36=STYLED_ITEM('',(#126),#127);
#37=STYLED_ITEM('',(#128),#129);
#38=STYLED_ITEM('',(#130),#131);
#39=STYLED_ITEM('',(#132),#133);
#40=STYLED_ITEM('',(#134),#135);
#41=STYLED_ITEM('',(#136),#137);
#42=STYLED_ITEM('',(#138),#139);
#43=STYLED_ITEM('',(#140),#141);
#44=STYLED_ITEM('',(#142),#143);
#45=STYLED_ITEM('',(#144),#145);
#46=STYLED_ITEM('',(#146),#147);
#47=STYLED_ITEM('',(#148),#149);
#48=STYLED_ITEM('',(#150),#151);
#49=STYLED_ITEM('',(#152),#153);
#50=STYLED_ITEM('',(#154),#155);
#51=STYLED_ITEM('',(#156),#157);
#52=STYLED_ITEM('',(#158),#159);
#53=STYLED_ITEM('',(#160),#161);
#54=STYLED_ITEM('',(#162),#163);
#55=STYLED_ITEM('',(#164),#165);
#56=STYLED_ITEM('',(#166),#167);
#57=STYLED_ITEM('',(#168),#169);
#58=STYLED_ITEM('',(#170),#171);
#59=STYLED_ITEM('',(#172),#173);
#60=STYLED_ITEM('',(#174),#175);
#61=APPLICATION_CONTEXT(' ');
#62=PRODUCT_CATEGORY('part','NONE');
#63=PRODUCT_RELATED_PRODUCT_CATEGORY('detail',' ',(#176));
#64=PRODUCT_DEFINITION_SHAPE('NONE','NONE',#177);
#65=ADVANCED_BREP_SHAPE_REPRESENTATION('1',(#163,#178),#6);
#68=UNCERTAINTY_MEASURE_WITH_UNIT(LENGTH_MEASURE(1.0E-006),#70,'','');
#70= (CONVERSION_BASED_UNIT('MILLIMETRE',#181)LENGTH_UNIT()NAMED_UNIT(#184));
#71= (NAMED_UNIT(#186)PLANE_ANGLE_UNIT()SI_UNIT($,.RADIAN.));
#72= (NAMED_UNIT(#186)SOLID_ANGLE_UNIT()SI_UNIT($,.STERADIAN.));
#74=PRESENTATION_STYLE_ASSIGNMENT((#192));
#75=VERTEX_POINT('',#193);
#76=PRESENTATION_STYLE_ASSIGNMENT((#194));
#77=ADVANCED_FACE('',(#195),#196,.T.);
#78=PRESENTATION_STYLE_ASSIGNMENT((#197));
#79=EDGE_CURVE('',#173,#143,#198,.T.);
#80=PRESENTATION_STYLE_ASSIGNMENT((#199));
#81=VERTEX_POINT('',#200);
#82=PRESENTATION_STYLE_ASSIGNMENT((#201));
#83=EDGE_CURVE('',#137,#153,#202,.T.);
#84=PRESENTATION_STYLE_ASSIGNMENT((#203));
#85=EDGE_CURVE('',#81,#137,#204,.T.);
#86=PRESENTATION_STYLE_ASSIGNMENT((#205));
#87=ADVANCED_FACE('',(#206),#207,.T.);
#88=PRESENTATION_STYLE_ASSIGNMENT((#208));
#89=EDGE_CURVE('',#81,#119,#209,.T.);
#90=PRESENTATION_STYLE_ASSIGNMENT((#210));
#91=VERTEX_POINT('',#211);
#92=PRESENTATION_STYLE_ASSIGNMENT((#212));
#93=EDGE_CURVE('',#129,#75,#213,.T.);
#94=PRESENTATION_STYLE_ASSIGNMENT((#214));
#95=EDGE_CURVE('',#143,#101,#215,.T.);
#96=PRESENTATION_STYLE_ASSIGNMENT((#216));
#97=ADVANCED_FACE('',(#217),#218,.T.);
#98=PRESENTATION_STYLE_ASSIGNMENT((#219));
#99=EDGE_CURVE('',#121,#173,#220,.T.);
#100=PRESENTATION_STYLE_ASSIGNMENT((#221));
#101=VERTEX_POINT('',#222);
#102=PRESENTATION_STYLE_ASSIGNMENT((#223));
#103=VERTEX_POINT('',#224);
#104=PRESENTATION_STYLE_ASSIGNMENT((#225));
#105=EDGE_CURVE('',#173,#103,#226,.T.);
#106=PRESENTATION_STYLE_ASSIGNMENT((#227));
#107=VERTEX_POINT('',#228);
#108=PRESENTATION_STYLE_ASSIGNMENT((#229));
#109=EDGE_CURVE('',#137,#91,#230,.T.);
#110=PRESENTATION_STYLE_ASSIGNMENT((#231));
#111=EDGE_CURVE('',#161,#121,#232,.T.);
#112=PRESENTATION_STYLE_ASSIGNMENT((#233));
#113=EDGE_CURVE('',#121,#171,#234,.T.);
#114=PRESENTATION_STYLE_ASSIGNMENT((#235));
#115=EDGE_CURVE('',#103,#101,#236,.T.);
#116=PRESENTATION_STYLE_ASSIGNMENT((#237));
#117=EDGE_CURVE('',#101,#119,#238,.T.);
#118=PRESENTATION_STYLE_ASSIGNMENT((#239));
#119=VERTEX_POINT('',#240);
#120=PRESENTATION_STYLE_ASSIGNMENT((#241));
#121=VERTEX_POINT('',#242);
#122=PRESENTATION_STYLE_ASSIGNMENT((#243));
#123=EDGE_CURVE('',#153,#107,#244,.T.);
#124=PRESENTATION_STYLE_ASSIGNMENT((#245));
#125=EDGE_CURVE('',#107,#75,#246,.T.);
#126=PRESENTATION_STYLE_ASSIGNMENT((#247));
#127=EDGE_CURVE('',#119,#153,#248,.T.);
#128=PRESENTATION_STYLE_ASSIGNMENT((#249));
#129=VERTEX_POINT('',#250);
#130=PRESENTATION_STYLE_ASSIGNMENT((#251));
#131=EDGE_CURVE('',#91,#129,#252,.T.);
#132=PRESENTATION_STYLE_ASSIGNMENT((#253));
#133=EDGE_CURVE('',#129,#161,#254,.T.);
#134=PRESENTATION_STYLE_ASSIGNMENT((#255));
#135=ADVANCED_FACE('',(#256),#257,.T.);
#136=PRESENTATION_STYLE_ASSIGNMENT((#258));
#137=VERTEX_POINT('',#259);
#138=PRESENTATION_STYLE_ASSIGNMENT((#260));
#139=EDGE_CURVE('',#149,#171,#261,.T.);
#140=PRESENTATION_STYLE_ASSIGNMENT((#262));
#141=EDGE_CURVE('',#171,#143,#263,.T.);
#142=PRESENTATION_STYLE_ASSIGNMENT((#264));
#143=VERTEX_POINT('',#265);
#144=PRESENTATION_STYLE_ASSIGNMENT((#266));
#145=EDGE_CURVE('',#161,#149,#267,.T.);
#146=PRESENTATION_STYLE_ASSIGNMENT((#268));
#147=ADVANCED_FACE('',(#269),#270,.F.);
#148=PRESENTATION_STYLE_ASSIGNMENT((#271));
#149=VERTEX_POINT('',#272);
#150=PRESENTATION_STYLE_ASSIGNMENT((#273));
#151=ADVANCED_FACE('',(#274),#275,.T.);
#152=PRESENTATION_STYLE_ASSIGNMENT((#276));
#153=VERTEX_POINT('',#277);
#154=PRESENTATION_STYLE_ASSIGNMENT((#278));
#155=EDGE_CURVE('',#103,#81,#279,.T.);
#156=PRESENTATION_STYLE_ASSIGNMENT((#280));
#157=EDGE_CURVE('',#91,#107,#281,.T.);
#158=PRESENTATION_STYLE_ASSIGNMENT((#282));
#159=ADVANCED_FACE('',(#283),#284,.T.);
#160=PRESENTATION_STYLE_ASSIGNMENT((#285));
#161=VERTEX_POINT('',#286);
#162=PRESENTATION_STYLE_ASSIGNMENT((#287));
#163=MANIFOLD_SOLID_BREP('1',#288);
#164=PRESENTATION_STYLE_ASSIGNMENT((#289));
#165=ADVANCED_FACE('',(#290),#291,.T.);
#166=PRESENTATION_STYLE_ASSIGNMENT((#292));
#167=ADVANCED_FACE('',(#293),#294,.T.);
#168=PRESENTATION_STYLE_ASSIGNMENT((#295));
#169=ADVANCED_FACE('',(#296),#297,.T.);
#170=PRESENTATION_STYLE_ASSIGNMENT((#298));
#171=VERTEX_POINT('',#299);
#172=PRESENTATION_STYLE_ASSIGNMENT((#300));
#173=VERTEX_POINT('',#301);
#174=PRESENTATION_STYLE_ASSIGNMENT((#302));
#175=EDGE_CURVE('',#75,#149,#303,.T.);
#176=PRODUCT('1','1','PART-1-DESC',(#304));
#177=PRODUCT_DEFINITION('NONE','NONE',#305,#2);
#178=AXIS2_PLACEMENT_3D('',#306,#307,#308);
#181=LENGTH_MEASURE_WITH_UNIT(LENGTH_MEASURE(1.0),#309);
#184=DIMENSIONAL_EXPONENTS(1.0,0.0,0.0,0.0,0.0,0.0,0.0);
#186=DIMENSIONAL_EXPONENTS(0.0,0.0,0.0,0.0,0.0,0.0,0.0);
#192=POINT_STYLE(' ',#310,POSITIVE_LENGTH_MEASURE(1.0E-006),#311);
#193=CARTESIAN_POINT('',(0.753909936044794,1.00000000007539,-4.76));
#194=SURFACE_STYLE_USAGE(.BOTH.,#312);
#195=FACE_OUTER_BOUND('',#313,.T.);
#196=CONICAL_SURFACE('',#314,1.0,0.15707963267949);
#197=CURVE_STYLE('',#315,POSITIVE_LENGTH_MEASURE(1.0E-006),#316);
#198=LINE('',#317,#318);
#199=POINT_STYLE(' ',#319,POSITIVE_LENGTH_MEASURE(1.0E-006),#320);
#200=CARTESIAN_POINT('',(11.7,12.6999999999,0.0));
#201=CURVE_STYLE('',#321,POSITIVE_LENGTH_MEASURE(1.0E-006),#322);
#202=LINE('',#323,#324);
#203=CURVE_STYLE('',#325,POSITIVE_LENGTH_MEASURE(1.0E-006),#326);
#204=LINE('',#327,#328);
#205=SURFACE_STYLE_USAGE(.BOTH.,#329);
#206=FACE_OUTER_BOUND('',#330,.T.);
#207=PLANE('',#331);
#208=CURVE_STYLE('',#332,POSITIVE_LENGTH_MEASURE(1.0E-006),#333);
#209=LINE('',#334,#335);
#210=POINT_STYLE(' ',#336,POSITIVE_LENGTH_MEASURE(1.0E-006),#337);
#211=CARTESIAN_POINT('',(1.00000008274037E-010,11.7,0.0));
#212=CURVE_STYLE('',#338,POSITIVE_LENGTH_MEASURE(1.0E-006),#339);
#213=LINE('',#340,#341);
#214=CURVE_STYLE('',#342,POSITIVE_LENGTH_MEASURE(1.0E-006),#343);
#215=LINE('',#344,#345);
#216=SURFACE_STYLE_USAGE(.BOTH.,#346);
#217=FACE_OUTER_BOUND('',#347,.T.);
#218=PLANE('',#348);
#219=CURVE_STYLE('',#349,POSITIVE_LENGTH_MEASURE(1.0E-006),#350);
#220=CIRCLE('',#351,1.0);
#221=POINT_STYLE(' ',#352,POSITIVE_LENGTH_MEASURE(1.0E-006),#353);
#222=CARTESIAN_POINT('',(11.9460900639552,11.6999999999246,-4.76));
#223=POINT_STYLE(' ',#354,POSITIVE_LENGTH_MEASURE(1.0E-006),#355);
#224=CARTESIAN_POINT('',(12.7,11.7,0.0));
#225=CURVE_STYLE('',#356,POSITIVE_LENGTH_MEASURE(1.0E-006),#357);
#226=LINE('',#358,#359);
#227=POINT_STYLE(' ',#360,POSITIVE_LENGTH_MEASURE(1.0E-006),#361);
#228=CARTESIAN_POINT('',(0.753909935944794,11.7,-4.76));
#229=CURVE_STYLE('',#362,POSITIVE_LENGTH_MEASURE(1.0E-006),#363);
#230=CIRCLE('',#364,0.999999999999998);
#231=CURVE_STYLE('',#365,POSITIVE_LENGTH_MEASURE(1.0E-006),#366);
#232=LINE('',#367,#368);
#233=CURVE_STYLE('',#369,POSITIVE_LENGTH_MEASURE(1.0E-006),#370);
#234=LINE('',#371,#372);
#235=CURVE_STYLE('',#373,POSITIVE_LENGTH_MEASURE(1.0E-006),#374);
#236=LINE('',#375,#376);
#237=CURVE_STYLE('',#377,POSITIVE_LENGTH_MEASURE(1.0E-006),#378);
#238=CIRCLE('',#379,0.246090064055204);
#239=POINT_STYLE(' ',#380,POSITIVE_LENGTH_MEASURE(1.0E-006),#381);
#240=CARTESIAN_POINT('',(11.7,11.9460900640552,-4.76));
#241=POINT_STYLE(' ',#382,POSITIVE_LENGTH_MEASURE(1.0E-006),#383);
#242=CARTESIAN_POINT('',(11.7,0.0,0.0));
#243=CURVE_STYLE('',#384,POSITIVE_LENGTH_MEASURE(1.0E-006),#385);
#244=CIRCLE('',#386,0.246090064055204);
#245=CURVE_STYLE('',#387,POSITIVE_LENGTH_MEASURE(1.0E-006),#388);
#246=LINE('',#389,#390);
#247=CURVE_STYLE('',#391,POSITIVE_LENGTH_MEASURE(1.0E-006),#392);
#248=LINE('',#393,#394);
#249=POINT_STYLE(' ',#395,POSITIVE_LENGTH_MEASURE(1.0E-006),#396);
#250=CARTESIAN_POINT('',(0.0,1.0,0.0));
#251=CURVE_STYLE('',#397,POSITIVE_LENGTH_MEASURE(1.0E-006),#398);
#252=LINE('',#399,#400);
#253=CURVE_STYLE('',#401,POSITIVE_LENGTH_MEASURE(1.0E-006),#402);
#254=CIRCLE('',#403,1.0);
#255=SURFACE_STYLE_USAGE(.BOTH.,#404);
#256=FACE_OUTER_BOUND('',#405,.T.);
#257=CONICAL_SURFACE('',#406,0.999999999999998,0.15707963267949);
#258=POINT_STYLE(' ',#407,POSITIVE_LENGTH_MEASURE(1.0E-006),#408);
#259=CARTESIAN_POINT('',(1.0,12.7,0.0));
#260=CURVE_STYLE('',#409,POSITIVE_LENGTH_MEASURE(1.0E-006),#410);
#261=LINE('',#411,#412);
#262=CURVE_STYLE('',#413,POSITIVE_LENGTH_MEASURE(1.0E-006),#414);
#263=CIRCLE('',#415,0.246090064055206);
#264=POINT_STYLE(' ',#416,POSITIVE_LENGTH_MEASURE(1.0E-006),#417);
#265=CARTESIAN_POINT('',(11.9460900640552,1.0,-4.76));
#266=CURVE_STYLE('',#418,POSITIVE_LENGTH_MEASURE(1.0E-006),#419);
#267=LINE('',#420,#421);
#268=SURFACE_STYLE_USAGE(.BOTH.,#422);
#269=FACE_OUTER_BOUND('',#423,.T.);
#270=PLANE('',#424);
#271=POINT_STYLE(' ',#425,POSITIVE_LENGTH_MEASURE(1.0E-006),#426);
#272=CARTESIAN_POINT('',(1.0,0.753909935944794,-4.76));
#273=SURFACE_STYLE_USAGE(.BOTH.,#427);
#274=FACE_OUTER_BOUND('',#428,.T.);
#275=PLANE('',#429);
#276=POINT_STYLE(' ',#430,POSITIVE_LENGTH_MEASURE(1.0E-006),#431);
#277=CARTESIAN_POINT('',(1.00000000007539,11.9460900639552,-4.76));
#278=CURVE_STYLE('',#432,POSITIVE_LENGTH_MEASURE(1.0E-006),#433);
#279=CIRCLE('',#434,0.999999999999998);
#280=CURVE_STYLE('',#435,POSITIVE_LENGTH_MEASURE(1.0E-006),#436);
#281=LINE('',#437,#438);
#282=SURFACE_STYLE_USAGE(.BOTH.,#439);
#283=FACE_OUTER_BOUND('',#440,.T.);
#284=PLANE('',#441);
#285=POINT_STYLE(' ',#442,POSITIVE_LENGTH_MEASURE(1.0E-006),#443);
#286=CARTESIAN_POINT('',(1.0,0.0,0.0));
#287=SURFACE_STYLE_USAGE(.BOTH.,#444);
#288=CLOSED_SHELL('',(#77,#169,#165,#97,#135,#87,#167,#159,#147,#151));
#289=SURFACE_STYLE_USAGE(.BOTH.,#445);
#290=FACE_OUTER_BOUND('',#446,.T.);
#291=CONICAL_SURFACE('',#447,0.999999999999998,0.15707963267949);
#292=SURFACE_STYLE_USAGE(.BOTH.,#448);
#293=FACE_OUTER_BOUND('',#449,.T.);
#294=CONICAL_SURFACE('',#450,1.0,0.15707963267949);
#295=SURFACE_STYLE_USAGE(.BOTH.,#451);
#296=FACE_OUTER_BOUND('',#452,.T.);
#297=PLANE('',#453);
#298=POINT_STYLE(' ',#454,POSITIVE_LENGTH_MEASURE(1.0E-006),#455);
#299=CARTESIAN_POINT('',(11.6999999999246,0.753909936044794,-4.76));
#300=POINT_STYLE(' ',#456,POSITIVE_LENGTH_MEASURE(1.0E-006),#457);
#301=CARTESIAN_POINT('',(12.6999999999,1.0,0.0));
#302=CURVE_STYLE('',#458,POSITIVE_LENGTH_MEASURE(1.0E-006),#459);
#303=CIRCLE('',#460,0.246090064055207);
#304=PRODUCT_CONTEXT('',#61,'mechanical');
#305=PRODUCT_DEFINITION_FORMATION_WITH_SPECIFIED_SOURCE(' ','NONE',#176,.NOT_KNOWN.);
#306=CARTESIAN_POINT('',(0.0,0.0,0.0));
#307=DIRECTION('',(0.0,0.0,1.0));
#308=DIRECTION('',(1.0,0.0,0.0));
#309= (NAMED_UNIT(#184)LENGTH_UNIT()SI_UNIT(.MILLI.,.METRE.));
#310=PRE_DEFINED_MARKER('');
#311=COLOUR_RGB('',0.800000011920929,0.800000011920929,0.800000011920929);
#312=SURFACE_SIDE_STYLE('',(#462));
#313=EDGE_LOOP('',(#463,#464,#465,#466));
#314=AXIS2_PLACEMENT_3D('',#467,#468,#469);
#315=DRAUGHTING_PRE_DEFINED_CURVE_FONT('continuous');
#316=COLOUR_RGB('',0.800000011920929,0.800000011920929,0.800000011920929);
#317=CARTESIAN_POINT('',(12.6999999999,1.0,0.0));
#318=VECTOR('',#470,1.0);
#319=PRE_DEFINED_MARKER('');
#320=COLOUR_RGB('',0.800000011920929,0.800000011920929,0.800000011920929);
#321=DRAUGHTING_PRE_DEFINED_CURVE_FONT('continuous');
#322=COLOUR_RGB('',0.800000011920929,0.800000011920929,0.800000011920929);
#323=CARTESIAN_POINT('',(1.0,12.7,0.0));
#324=VECTOR('',#471,1.0);
#325=DRAUGHTING_PRE_DEFINED_CURVE_FONT('continuous');
#326=COLOUR_RGB('',0.800000011920929,0.800000011920929,0.800000011920929);
#327=CARTESIAN_POINT('',(11.7,12.7,0.0));
#328=VECTOR('',#472,1.0);
#329=SURFACE_SIDE_STYLE('',(#473));
#330=EDGE_LOOP('',(#474,#475,#476,#477));
#331=AXIS2_PLACEMENT_3D('',#478,#479,#480);
#332=DRAUGHTING_PRE_DEFINED_CURVE_FONT('continuous');
#333=COLOUR_RGB('',0.800000011920929,0.800000011920929,0.800000011920929);
#334=CARTESIAN_POINT('',(11.7,12.6999999999,0.0));
#335=VECTOR('',#481,1.0);
#336=PRE_DEFINED_MARKER('');
#337=COLOUR_RGB('',0.800000011920929,0.800000011920929,0.800000011920929);
#338=DRAUGHTING_PRE_DEFINED_CURVE_FONT('continuous');
#339=COLOUR_RGB('',0.800000011920929,0.800000011920929,0.800000011920929);
#340=CARTESIAN_POINT('',(0.0,1.0,0.0));
#341=VECTOR('',#482,1.0);
#342=DRAUGHTING_PRE_DEFINED_CURVE_FONT('continuous');
#343=COLOUR_RGB('',0.800000011920929,0.800000011920929,0.800000011920929);
#344=CARTESIAN_POINT('',(11.9460900640552,1.0,-4.76));
#345=VECTOR('',#483,1.0);
#346=SURFACE_SIDE_STYLE('',(#484));
#347=EDGE_LOOP('',(#485,#486,#487,#488));
#348=AXIS2_PLACEMENT_3D('',#489,#490,#491);
#349=DRAUGHTING_PRE_DEFINED_CURVE_FONT('continuous');
#350=COLOUR_RGB('',0.800000011920929,0.800000011920929,0.800000011920929);
#351=AXIS2_PLACEMENT_3D('',#492,#493,#494);
#352=PRE_DEFINED_MARKER('');
#353=COLOUR_RGB('',0.800000011920929,0.800000011920929,0.800000011920929);
#354=PRE_DEFINED_MARKER('');
#355=COLOUR_RGB('',0.800000011920929,0.800000011920929,0.800000011920929);
#356=DRAUGHTING_PRE_DEFINED_CURVE_FONT('continuous');
#357=COLOUR_RGB('',0.800000011920929,0.800000011920929,0.800000011920929);
#358=CARTESIAN_POINT('',(12.7,1.0,0.0));
#359=VECTOR('',#495,1.0);
#360=PRE_DEFINED_MARKER('');
#361=COLOUR_RGB('',0.800000011920929,0.800000011920929,0.800000011920929);
#362=DRAUGHTING_PRE_DEFINED_CURVE_FONT('continuous');
#363=COLOUR_RGB('',0.800000011920929,0.800000011920929,0.800000011920929);
#364=AXIS2_PLACEMENT_3D('',#496,#497,#498);
#365=DRAUGHTING_PRE_DEFINED_CURVE_FONT('continuous');
#366=COLOUR_RGB('',0.800000011920929,0.800000011920929,0.800000011920929);
#367=CARTESIAN_POINT('',(1.0,0.0,0.0));
#368=VECTOR('',#499,1.0);
#369=DRAUGHTING_PRE_DEFINED_CURVE_FONT('continuous');
#370=COLOUR_RGB('',0.800000011920929,0.800000011920929,0.800000011920929);
#371=CARTESIAN_POINT('',(11.7,0.0,0.0));
#372=VECTOR('',#500,1.0);
#373=DRAUGHTING_PRE_DEFINED_CURVE_FONT('continuous');
#374=COLOUR_RGB('',0.800000011920929,0.800000011920929,0.800000011920929);
#375=CARTESIAN_POINT('',(12.7,11.7,0.0));
#376=VECTOR('',#501,1.0);
#377=DRAUGHTING_PRE_DEFINED_CURVE_FONT('continuous');
#378=COLOUR_RGB('',0.800000011920929,0.800000011920929,0.800000011920929);
#379=AXIS2_PLACEMENT_3D('',#502,#503,#504);
#380=PRE_DEFINED_MARKER('');
#381=COLOUR_RGB('',0.800000011920929,0.800000011920929,0.800000011920929);
#382=PRE_DEFINED_MARKER('');
#383=COLOUR_RGB('',0.800000011920929,0.800000011920929,0.800000011920929);
#384=DRAUGHTING_PRE_DEFINED_CURVE_FONT('continuous');
#385=COLOUR_RGB('',0.800000011920929,0.800000011920929,0.800000011920929);
#386=AXIS2_PLACEMENT_3D('',#505,#506,#507);
#387=DRAUGHTING_PRE_DEFINED_CURVE_FONT('continuous');
#388=COLOUR_RGB('',0.800000011920929,0.800000011920929,0.800000011920929);
#389=CARTESIAN_POINT('',(0.753909935944794,11.7,-4.76));
#390=VECTOR('',#508,1.0);
#391=DRAUGHTING_PRE_DEFINED_CURVE_FONT('continuous');
#392=COLOUR_RGB('',0.800000011920929,0.800000011920929,0.800000011920929);
#393=CARTESIAN_POINT('',(11.7,11.9460900640552,-4.76));
#394=VECTOR('',#509,1.0);
#395=PRE_DEFINED_MARKER('');
#396=COLOUR_RGB('',0.800000011920929,0.800000011920929,0.800000011920929);
#397=DRAUGHTING_PRE_DEFINED_CURVE_FONT('continuous');
#398=COLOUR_RGB('',0.800000011920929,0.800000011920929,0.800000011920929);
#399=CARTESIAN_POINT('',(0.0,11.7,0.0));
#400=VECTOR('',#510,1.0);
#401=DRAUGHTING_PRE_DEFINED_CURVE_FONT('continuous');
#402=COLOUR_RGB('',0.800000011920929,0.800000011920929,0.800000011920929);
#403=AXIS2_PLACEMENT_3D('',#511,#512,#513);
#404=SURFACE_SIDE_STYLE('',(#514));
#405=EDGE_LOOP('',(#515,#516,#517,#518));
#406=AXIS2_PLACEMENT_3D('',#519,#520,#521);
#407=PRE_DEFINED_MARKER('');
#408=COLOUR_RGB('',0.800000011920929,0.800000011920929,0.800000011920929);
#409=DRAUGHTING_PRE_DEFINED_CURVE_FONT('continuous');
#410=COLOUR_RGB('',0.800000011920929,0.800000011920929,0.800000011920929);
#411=CARTESIAN_POINT('',(1.0,0.753909935944794,-4.76));
#412=VECTOR('',#522,1.0);
#413=DRAUGHTING_PRE_DEFINED_CURVE_FONT('continuous');
#414=COLOUR_RGB('',0.800000011920929,0.800000011920929,0.800000011920929);
#415=AXIS2_PLACEMENT_3D('',#523,#524,#525);
#416=PRE_DEFINED_MARKER('');
#417=COLOUR_RGB('',0.800000011920929,0.800000011920929,0.800000011920929);
#418=DRAUGHTING_PRE_DEFINED_CURVE_FONT('continuous');
#419=COLOUR_RGB('',0.800000011920929,0.800000011920929,0.800000011920929);
#420=CARTESIAN_POINT('',(1.0,0.0,0.0));
#421=VECTOR('',#526,1.0);
#422=SURFACE_SIDE_STYLE('',(#527));
#423=EDGE_LOOP('',(#528,#529,#530,#531,#532,#533,#534,#535));
#424=AXIS2_PLACEMENT_3D('',#536,#537,#538);
#425=PRE_DEFINED_MARKER('');
#426=COLOUR_RGB('',0.800000011920929,0.800000011920929,0.800000011920929);
#427=SURFACE_SIDE_STYLE('',(#539));
#428=EDGE_LOOP('',(#540,#541,#542,#543,#544,#545,#546,#547));
#429=AXIS2_PLACEMENT_3D('',#548,#549,#550);
#430=PRE_DEFINED_MARKER('');
#431=COLOUR_RGB('',0.800000011920929,0.800000011920929,0.800000011920929);
#432=DRAUGHTING_PRE_DEFINED_CURVE_FONT('continuous');
#433=COLOUR_RGB('',0.800000011920929,0.800000011920929,0.800000011920929);
#434=AXIS2_PLACEMENT_3D('',#551,#552,#553);
#435=DRAUGHTING_PRE_DEFINED_CURVE_FONT('continuous');
#436=COLOUR_RGB('',0.800000011920929,0.800000011920929,0.800000011920929);
#437=CARTESIAN_POINT('',(1.00000008274037E-010,11.7,0.0));
#438=VECTOR('',#554,1.0);
#439=SURFACE_SIDE_STYLE('',(#555));
#440=EDGE_LOOP('',(#556,#557,#558,#559));
#441=AXIS2_PLACEMENT_3D('',#560,#561,#562);
#442=PRE_DEFINED_MARKER('');
#443=COLOUR_RGB('',0.800000011920929,0.800000011920929,0.800000011920929);
#444=SURFACE_SIDE_STYLE('',(#563));
#445=SURFACE_SIDE_STYLE('',(#564));
#446=EDGE_LOOP('',(#565,#566,#567,#568));
#447=AXIS2_PLACEMENT_3D('',#569,#570,#571);
#448=SURFACE_SIDE_STYLE('',(#572));
#449=EDGE_LOOP('',(#573,#574,#575,#576));
#450=AXIS2_PLACEMENT_3D('',#577,#578,#579);
#451=SURFACE_SIDE_STYLE('',(#580));
#452=EDGE_LOOP('',(#581,#582,#583,#584));
#453=AXIS2_PLACEMENT_3D('',#585,#586,#587);
#454=PRE_DEFINED_MARKER('');
#455=COLOUR_RGB('',0.800000011920929,0.800000011920929,0.800000011920929);
#456=PRE_DEFINED_MARKER('');
#457=COLOUR_RGB('',0.800000011920929,0.800000011920929,0.800000011920929);
#458=DRAUGHTING_PRE_DEFINED_CURVE_FONT('continuous');
#459=COLOUR_RGB('',0.800000011920929,0.800000011920929,0.800000011920929);
#460=AXIS2_PLACEMENT_3D('',#588,#589,#590);
#462=SURFACE_STYLE_FILL_AREA(#591);
#463=ORIENTED_EDGE('',*,*,#141,.T.);
#464=ORIENTED_EDGE('',*,*,#79,.F.);
#465=ORIENTED_EDGE('',*,*,#99,.F.);
#466=ORIENTED_EDGE('',*,*,#113,.T.);
#467=CARTESIAN_POINT('',(11.6999999999,1.0000000001,0.0));
#468=DIRECTION('',(-0.0,-0.0,1.0));
#469=DIRECTION('',(1.00000008274037E-010,-1.0,0.0));
#470=DIRECTION('',(-0.156434465019989,0.0,-0.987688340598344));
#471=DIRECTION('',(1.5643176942388E-011,-0.156434465060473,-0.987688340591932));
#472=DIRECTION('',(-1.0,0.0,0.0));
#473=SURFACE_STYLE_FILL_AREA(#592);
#474=ORIENTED_EDGE('',*,*,#125,.T.);
#475=ORIENTED_EDGE('',*,*,#93,.F.);
#476=ORIENTED_EDGE('',*,*,#131,.F.);
#477=ORIENTED_EDGE('',*,*,#157,.T.);
#478=CARTESIAN_POINT('',(1.00000008274037E-010,11.7,0.0));
#479=DIRECTION('',(-0.987688340598344,0.0,-0.156434465019989));
#480=DIRECTION('',(0.0,1.0,0.0));
#481=DIRECTION('',(0.0,-0.156434465019989,-0.987688340598344));
#482=DIRECTION('',(0.156434465060473,1.56434994583694E-011,-0.987688340591932));
#483=DIRECTION('',(0.0,1.0,0.0));
#484=SURFACE_STYLE_FILL_AREA(#593);
#485=ORIENTED_EDGE('',*,*,#127,.T.);
#486=ORIENTED_EDGE('',*,*,#83,.F.);
#487=ORIENTED_EDGE('',*,*,#85,.F.);
#488=ORIENTED_EDGE('',*,*,#89,.T.);
#489=CARTESIAN_POINT('',(11.7,12.6999999999,0.0));
#490=DIRECTION('',(0.0,0.987688340598344,-0.156434465019989));
#491=DIRECTION('',(1.0,-0.0,0.0));
#492=CARTESIAN_POINT('',(11.6999999999,1.0000000001,0.0));
#493=DIRECTION('',(0.0,0.0,1.0));
#494=DIRECTION('',(1.00000008274037E-010,-1.0,0.0));
#495=DIRECTION('',(0.0,1.0,0.0));
#496=CARTESIAN_POINT('',(1.0000000001,11.6999999999,0.0));
#497=DIRECTION('',(0.0,0.0,1.0));
#498=DIRECTION('',(-9.99983429395003E-011,1.0,0.0));
#499=DIRECTION('',(1.0,0.0,0.0));
#500=DIRECTION('',(-1.56433151635229E-011,0.156434465060473,-0.987688340591932));
#501=DIRECTION('',(-0.156434465060473,-1.56433151635229E-011,-0.987688340591932));
#502=CARTESIAN_POINT('',(11.6999999999,11.6999999999,-4.76));
#503=DIRECTION('',(0.0,-0.0,1.0));
#504=DIRECTION('',(1.0,9.99982319171979E-011,0.0));
#505=CARTESIAN_POINT('',(1.0000000001,11.6999999999,-4.76));
#506=DIRECTION('',(0.0,0.0,1.0));
#507=DIRECTION('',(-9.99983429395003E-011,1.0,0.0));
#508=DIRECTION('',(0.0,-1.0,0.0));
#509=DIRECTION('',(-1.0,0.0,0.0));
#510=DIRECTION('',(0.0,-1.0,0.0));
#511=CARTESIAN_POINT('',(1.0000000001,1.0000000001,0.0));
#512=DIRECTION('',(0.0,0.0,1.0));
#513=DIRECTION('',(-1.0,-9.99991200956174E-011,0.0));
#514=SURFACE_STYLE_FILL_AREA(#594);
#515=ORIENTED_EDGE('',*,*,#123,.T.);
#516=ORIENTED_EDGE('',*,*,#157,.F.);
#517=ORIENTED_EDGE('',*,*,#109,.F.);
#518=ORIENTED_EDGE('',*,*,#83,.T.);
#519=CARTESIAN_POINT('',(1.0000000001,11.6999999999,0.0));
#520=DIRECTION('',(-0.0,-0.0,1.0));
#521=DIRECTION('',(-9.99983429395003E-011,1.0,0.0));
#522=DIRECTION('',(1.0,0.0,0.0));
#523=CARTESIAN_POINT('',(11.6999999999,1.0000000001,-4.76));
#524=DIRECTION('',(0.0,0.0,1.0));
#525=DIRECTION('',(1.00000008274037E-010,-1.0,0.0));
#526=DIRECTION('',(0.0,0.156434465040231,-0.987688340595138));
#527=SURFACE_STYLE_FILL_AREA(#595);
#528=ORIENTED_EDGE('',*,*,#141,.F.);
#529=ORIENTED_EDGE('',*,*,#139,.F.);
#530=ORIENTED_EDGE('',*,*,#175,.F.);
#531=ORIENTED_EDGE('',*,*,#125,.F.);
#532=ORIENTED_EDGE('',*,*,#123,.F.);
#533=ORIENTED_EDGE('',*,*,#127,.F.);
#534=ORIENTED_EDGE('',*,*,#117,.F.);
#535=ORIENTED_EDGE('',*,*,#95,.F.);
#536=CARTESIAN_POINT('',(6.35,6.35,-4.76));
#537=DIRECTION('',(0.0,0.0,1.0));
#538=DIRECTION('',(1.0,0.0,0.0));
#539=SURFACE_STYLE_FILL_AREA(#596);
#540=ORIENTED_EDGE('',*,*,#111,.T.);
#541=ORIENTED_EDGE('',*,*,#99,.T.);
#542=ORIENTED_EDGE('',*,*,#105,.T.);
#543=ORIENTED_EDGE('',*,*,#155,.T.);
#544=ORIENTED_EDGE('',*,*,#85,.T.);
#545=ORIENTED_EDGE('',*,*,#109,.T.);
#546=ORIENTED_EDGE('',*,*,#131,.T.);
#547=ORIENTED_EDGE('',*,*,#133,.T.);
#548=CARTESIAN_POINT('',(6.35,6.35,0.0));
#549=DIRECTION('',(0.0,0.0,1.0));
#550=DIRECTION('',(1.0,0.0,0.0));
#551=CARTESIAN_POINT('',(11.6999999999,11.6999999999,0.0));
#552=DIRECTION('',(0.0,-0.0,1.0));
#553=DIRECTION('',(1.0,9.99982319171979E-011,0.0));
#554=DIRECTION('',(0.156434465019989,0.0,-0.987688340598344));
#555=SURFACE_STYLE_FILL_AREA(#597);
#556=ORIENTED_EDGE('',*,*,#139,.T.);
#557=ORIENTED_EDGE('',*,*,#113,.F.);
#558=ORIENTED_EDGE('',*,*,#111,.F.);
#559=ORIENTED_EDGE('',*,*,#145,.T.);
#560=CARTESIAN_POINT('',(1.0,0.0,0.0));
#561=DIRECTION('',(-0.0,-0.987688340595138,-0.156434465040231));
#562=DIRECTION('',(-1.0,0.0,0.0));
#563=SURFACE_STYLE_FILL_AREA(#598);
#564=SURFACE_STYLE_FILL_AREA(#599);
#565=ORIENTED_EDGE('',*,*,#117,.T.);
#566=ORIENTED_EDGE('',*,*,#89,.F.);
#567=ORIENTED_EDGE('',*,*,#155,.F.);
#568=ORIENTED_EDGE('',*,*,#115,.T.);
#569=CARTESIAN_POINT('',(11.6999999999,11.6999999999,0.0));
#570=DIRECTION('',(-0.0,-0.0,1.0));
#571=DIRECTION('',(1.0,9.99982319171979E-011,0.0));
#572=SURFACE_STYLE_FILL_AREA(#600);
#573=ORIENTED_EDGE('',*,*,#175,.T.);
#574=ORIENTED_EDGE('',*,*,#145,.F.);
#575=ORIENTED_EDGE('',*,*,#133,.F.);
#576=ORIENTED_EDGE('',*,*,#93,.T.);
#577=CARTESIAN_POINT('',(1.0000000001,1.0000000001,0.0));
#578=DIRECTION('',(0.0,-0.0,1.0));
#579=DIRECTION('',(-1.0,-9.99991200956174E-011,0.0));
#580=SURFACE_STYLE_FILL_AREA(#601);
#581=ORIENTED_EDGE('',*,*,#95,.T.);
#582=ORIENTED_EDGE('',*,*,#115,.F.);
#583=ORIENTED_EDGE('',*,*,#105,.F.);
#584=ORIENTED_EDGE('',*,*,#79,.T.);
#585=CARTESIAN_POINT('',(12.6999999999,1.0,0.0));
#586=DIRECTION('',(0.987688340598344,-0.0,-0.156434465019989));
#587=DIRECTION('',(-0.0,-1.0,0.0));
#588=CARTESIAN_POINT('',(1.0000000001,1.0000000001,-4.76));
#589=DIRECTION('',(0.0,0.0,1.0));
#590=DIRECTION('',(-1.0,-9.99991200956174E-011,0.0));
#591=FILL_AREA_STYLE('',(#602));
#592=FILL_AREA_STYLE('',(#603));
#593=FILL_AREA_STYLE('',(#604));
#594=FILL_AREA_STYLE('',(#605));
#595=FILL_AREA_STYLE('',(#606));
#596=FILL_AREA_STYLE('',(#607));
#597=FILL_AREA_STYLE('',(#608));
#598=FILL_AREA_STYLE('',(#609));
#599=FILL_AREA_STYLE('',(#610));
#600=FILL_AREA_STYLE('',(#611));
#601=FILL_AREA_STYLE('',(#612));
#602=FILL_AREA_STYLE_COLOUR('',#613);
#603=FILL_AREA_STYLE_COLOUR('',#614);
#604=FILL_AREA_STYLE_COLOUR('',#615);
#605=FILL_AREA_STYLE_COLOUR('',#616);
#606=FILL_AREA_STYLE_COLOUR('',#617);
#607=FILL_AREA_STYLE_COLOUR('',#618);
#608=FILL_AREA_STYLE_COLOUR('',#619);
#609=FILL_AREA_STYLE_COLOUR('',#620);
#610=FILL_AREA_STYLE_COLOUR('',#621);
#611=FILL_AREA_STYLE_COLOUR('',#622);
#612=FILL_AREA_STYLE_COLOUR('',#623);
#613=COLOUR_RGB('',0.800000011920929,0.800000011920929,0.800000011920929);
#614=COLOUR_RGB('',0.800000011920929,0.800000011920929,0.800000011920929);
#615=COLOUR_RGB('',0.800000011920929,0.800000011920929,0.800000011920929);
#616=COLOUR_RGB('',0.800000011920929,0.800000011920929,0.800000011920929);
#617=COLOUR_RGB('',0.800000011920929,0.800000011920929,0.800000011920929);
#618=COLOUR_RGB('',0.800000011920929,0.800000011920929,0.800000011920929);
#619=COLOUR_RGB('',0.800000011920929,0.800000011920929,0.800000011920929);
#620=COLOUR_RGB('',0.800000011920929,0.800000011920929,0.800000011920929);
#621=COLOUR_RGB('',0.800000011920929,0.800000011920929,0.800000011920929);
#622=COLOUR_RGB('',0.800000011920929,0.800000011920929,0.800000011920929);
#623=COLOUR_RGB('',0.800000011920929,0.800000011920929,0.800000011920929);
#624=AXIS2_PLACEMENT_3D('PCS',#625,#626,#627);
#625=CARTESIAN_POINT('',(0.0,0.0,0.0));
#626=DIRECTION('',(0.0,0.0,1.0));
#627=DIRECTION('',(1.0,0.0,0.0));
#628=AXIS2_PLACEMENT_3D('MCS',#629,#630,#631);
#629=CARTESIAN_POINT('',(6.35,6.35,0.0));
#630=DIRECTION('',(0.0,0.0,1.0));
#631=DIRECTION('',(1.0,0.0,0.0));
#632=CONSTRUCTIVE_GEOMETRY_REPRESENTATION_RELATIONSHIP('coordinate systems',$,#65,#633);
#633=CONSTRUCTIVE_GEOMETRY_REPRESENTATION('coordinate systems',(#624,#628),#6);
ENDSEC;
END-ISO-10303-21;
