ISO-10303-21;
HEADER;
FILE_DESCRIPTION(('no description'),'unknown implementation level');
FILE_NAME('solidigqPKMWb6RLFbi01VqMrHkoykKw_1.STP','  ',('CIMSOURCE GmbH'),('CADClick - KiM GmbH - www.kimweb.de'),'unknown preprocess','ACIS','unknown authorization');
FILE_SCHEMA(('automotive_design'));
ENDSEC;
DATA;
#1=MECHANICAL_DESIGN_GEOMETRIC_PRESENTATION_REPRESENTATION(' ',(#10,#11,#12,#13,#14,#15,#16,#17,#18,#19,#20,#21,#22,#23,#24,#25,#26,#27,#28,#29,#30,#31,#32,#33,#34,#35,#36,#37,#38,#39,#40,#41,#42,#43,#44,#45,#46,#47,#48),#6);
#2=PRODUCT_DEFINITION_CONTEXT('',#49,'design');
#3=APPLICATION_PROTOCOL_DEFINITION('INTERNATIONAL STANDARD','automotive_design',1994,#49);
#4=PRODUCT_CATEGORY_RELATIONSHIP('NONE','NONE',#50,#51);
#5=SHAPE_DEFINITION_REPRESENTATION(#52,#53);
#6= (GEOMETRIC_REPRESENTATION_CONTEXT(3)GLOBAL_UNCERTAINTY_ASSIGNED_CONTEXT((#56))GLOBAL_UNIT_ASSIGNED_CONTEXT((#58,#59,#60))REPRESENTATION_CONTEXT('NONE','WORKSPACE'));
#10=STYLED_ITEM('',(#62),#63);
#11=STYLED_ITEM('',(#64),#65);
#12=STYLED_ITEM('',(#66),#67);
#13=STYLED_ITEM('',(#68),#69);
#14=STYLED_ITEM('',(#70),#71);
#15=STYLED_ITEM('',(#72),#73);
#16=STYLED_ITEM('',(#74),#75);
#17=STYLED_ITEM('',(#76),#77);
#18=STYLED_ITEM('',(#78),#79);
#19=STYLED_ITEM('',(#80),#81);
#20=STYLED_ITEM('',(#82),#83);
#21=STYLED_ITEM('',(#84),#85);
#22=STYLED_ITEM('',(#86),#87);
#23=STYLED_ITEM('',(#88),#89);
#24=STYLED_ITEM('',(#90),#91);
#25=STYLED_ITEM('',(#92),#93);
#26=STYLED_ITEM('',(#94),#95);
#27=STYLED_ITEM('',(#96),#97);
#28=STYLED_ITEM('',(#98),#99);
#29=STYLED_ITEM('',(#100),#101);
#30=STYLED_ITEM('',(#102),#103);
#31=STYLED_ITEM('',(#104),#105);
#32=STYLED_ITEM('',(#106),#107);
#33=STYLED_ITEM('',(#108),#109);
#34=STYLED_ITEM('',(#110),#111);
#35=STYLED_ITEM('',(#112),#113);
#36=STYLED_ITEM('',(#114),#115);
#37=STYLED_ITEM('',(#116),#117);
#38=STYLED_ITEM('',(#118),#119);
#39=STYLED_ITEM('',(#120),#121);
#40=STYLED_ITEM('',(#122),#123);
#41=STYLED_ITEM('',(#124),#125);
#42=STYLED_ITEM('',(#126),#127);
#43=STYLED_ITEM('',(#128),#129);
#44=STYLED_ITEM('',(#130),#131);
#45=STYLED_ITEM('',(#132),#133);
#46=STYLED_ITEM('',(#134),#135);
#47=STYLED_ITEM('',(#136),#137);
#48=STYLED_ITEM('',(#138),#139);
#49=APPLICATION_CONTEXT(' ');
#50=PRODUCT_CATEGORY('part','NONE');
#51=PRODUCT_RELATED_PRODUCT_CATEGORY('detail',' ',(#140));
#52=PRODUCT_DEFINITION_SHAPE('NONE','NONE',#141);
#53=ADVANCED_BREP_SHAPE_REPRESENTATION('1',(#73,#142),#6);
#56=UNCERTAINTY_MEASURE_WITH_UNIT(LENGTH_MEASURE(1.0E-006),#58,'','');
#58= (CONVERSION_BASED_UNIT('MILLIMETRE',#145)LENGTH_UNIT()NAMED_UNIT(#148));
#59= (NAMED_UNIT(#150)PLANE_ANGLE_UNIT()SI_UNIT($,.RADIAN.));
#60= (NAMED_UNIT(#150)SOLID_ANGLE_UNIT()SI_UNIT($,.STERADIAN.));
#62=PRESENTATION_STYLE_ASSIGNMENT((#156));
#63=EDGE_CURVE('',#109,#139,#157,.T.);
#64=PRESENTATION_STYLE_ASSIGNMENT((#158));
#65=EDGE_CURVE('',#127,#131,#159,.T.);
#66=PRESENTATION_STYLE_ASSIGNMENT((#160));
#67=ADVANCED_FACE('',(#161),#162,.T.);
#68=PRESENTATION_STYLE_ASSIGNMENT((#163));
#69=VERTEX_POINT('',#164);
#70=PRESENTATION_STYLE_ASSIGNMENT((#165));
#71=EDGE_CURVE('',#139,#127,#166,.T.);
#72=PRESENTATION_STYLE_ASSIGNMENT((#167));
#73=MANIFOLD_SOLID_BREP('1',#168);
#74=PRESENTATION_STYLE_ASSIGNMENT((#169));
#75=EDGE_CURVE('',#119,#113,#170,.T.);
#76=PRESENTATION_STYLE_ASSIGNMENT((#171));
#77=EDGE_CURVE('',#139,#119,#172,.T.);
#78=PRESENTATION_STYLE_ASSIGNMENT((#173));
#79=ADVANCED_FACE('',(#174),#175,.T.);
#80=PRESENTATION_STYLE_ASSIGNMENT((#176));
#81=EDGE_CURVE('',#113,#103,#177,.T.);
#82=PRESENTATION_STYLE_ASSIGNMENT((#178));
#83=EDGE_CURVE('',#119,#131,#179,.T.);
#84=PRESENTATION_STYLE_ASSIGNMENT((#180));
#85=EDGE_CURVE('',#135,#105,#181,.T.);
#86=PRESENTATION_STYLE_ASSIGNMENT((#182));
#87=VERTEX_POINT('',#183);
#88=PRESENTATION_STYLE_ASSIGNMENT((#184));
#89=EDGE_CURVE('',#113,#135,#185,.T.);
#90=PRESENTATION_STYLE_ASSIGNMENT((#186));
#91=EDGE_CURVE('',#87,#69,#187,.T.);
#92=PRESENTATION_STYLE_ASSIGNMENT((#188));
#93=EDGE_CURVE('',#105,#69,#189,.T.);
#94=PRESENTATION_STYLE_ASSIGNMENT((#190));
#95=EDGE_CURVE('',#131,#103,#191,.T.);
#96=PRESENTATION_STYLE_ASSIGNMENT((#192));
#97=EDGE_CURVE('',#109,#133,#193,.T.);
#98=PRESENTATION_STYLE_ASSIGNMENT((#194));
#99=ADVANCED_FACE('',(#195),#196,.T.);
#100=PRESENTATION_STYLE_ASSIGNMENT((#197));
#101=ADVANCED_FACE('',(#198),#199,.T.);
#102=PRESENTATION_STYLE_ASSIGNMENT((#200));
#103=VERTEX_POINT('',#201);
#104=PRESENTATION_STYLE_ASSIGNMENT((#202));
#105=VERTEX_POINT('',#203);
#106=PRESENTATION_STYLE_ASSIGNMENT((#204));
#107=EDGE_CURVE('',#69,#133,#205,.T.);
#108=PRESENTATION_STYLE_ASSIGNMENT((#206));
#109=VERTEX_POINT('',#207);
#110=PRESENTATION_STYLE_ASSIGNMENT((#208));
#111=EDGE_CURVE('',#103,#87,#209,.T.);
#112=PRESENTATION_STYLE_ASSIGNMENT((#210));
#113=VERTEX_POINT('',#211);
#114=PRESENTATION_STYLE_ASSIGNMENT((#212));
#115=ADVANCED_FACE('',(#213),#214,.T.);
#116=PRESENTATION_STYLE_ASSIGNMENT((#215));
#117=ADVANCED_FACE('',(#216),#217,.T.);
#118=PRESENTATION_STYLE_ASSIGNMENT((#218));
#119=VERTEX_POINT('',#219);
#120=PRESENTATION_STYLE_ASSIGNMENT((#220));
#121=EDGE_CURVE('',#135,#87,#221,.T.);
#122=PRESENTATION_STYLE_ASSIGNMENT((#222));
#123=ADVANCED_FACE('',(#223),#224,.F.);
#124=PRESENTATION_STYLE_ASSIGNMENT((#225));
#125=ADVANCED_FACE('',(#226),#227,.T.);
#126=PRESENTATION_STYLE_ASSIGNMENT((#228));
#127=VERTEX_POINT('',#229);
#128=PRESENTATION_STYLE_ASSIGNMENT((#230));
#129=EDGE_CURVE('',#133,#127,#231,.T.);
#130=PRESENTATION_STYLE_ASSIGNMENT((#232));
#131=VERTEX_POINT('',#233);
#132=PRESENTATION_STYLE_ASSIGNMENT((#234));
#133=VERTEX_POINT('',#235);
#134=PRESENTATION_STYLE_ASSIGNMENT((#236));
#135=VERTEX_POINT('',#237);
#136=PRESENTATION_STYLE_ASSIGNMENT((#238));
#137=EDGE_CURVE('',#105,#109,#239,.T.);
#138=PRESENTATION_STYLE_ASSIGNMENT((#240));
#139=VERTEX_POINT('',#241);
#140=PRODUCT('1','1','PART-1-DESC',(#242));
#141=PRODUCT_DEFINITION('NONE','NONE',#243,#2);
#142=AXIS2_PLACEMENT_3D('',#244,#245,#246);
#145=LENGTH_MEASURE_WITH_UNIT(LENGTH_MEASURE(1.0),#247);
#148=DIMENSIONAL_EXPONENTS(1.0,0.0,0.0,0.0,0.0,0.0,0.0);
#150=DIMENSIONAL_EXPONENTS(0.0,0.0,0.0,0.0,0.0,0.0,0.0);
#156=CURVE_STYLE('',#248,POSITIVE_LENGTH_MEASURE(1.0E-006),#249);
#157=CIRCLE('',#250,0.8);
#158=CURVE_STYLE('',#251,POSITIVE_LENGTH_MEASURE(1.0E-006),#252);
#159=LINE('',#253,#254);
#160=SURFACE_STYLE_USAGE(.BOTH.,#255);
#161=FACE_OUTER_BOUND('',#256,.T.);
#162=PLANE('',#257);
#163=POINT_STYLE(' ',#258,POSITIVE_LENGTH_MEASURE(1.0E-006),#259);
#164=CARTESIAN_POINT('',(8.66025403793099,14.99999999995,-6.55));
#165=CURVE_STYLE('',#260,POSITIVE_LENGTH_MEASURE(1.0E-006),#261);
#166=LINE('',#262,#263);
#167=SURFACE_STYLE_USAGE(.BOTH.,#264);
#168=CLOSED_SHELL('',(#99,#79,#117,#125,#115,#67,#123,#101));
#169=CURVE_STYLE('',#265,POSITIVE_LENGTH_MEASURE(1.0E-006),#266);
#170=CIRCLE('',#267,0.800000000000001);
#171=CURVE_STYLE('',#268,POSITIVE_LENGTH_MEASURE(1.0E-006),#269);
#172=LINE('',#270,#271);
#173=SURFACE_STYLE_USAGE(.BOTH.,#272);
#174=FACE_OUTER_BOUND('',#273,.T.);
#175=PLANE('',#274);
#176=CURVE_STYLE('',#275,POSITIVE_LENGTH_MEASURE(1.0E-006),#276);
#177=LINE('',#277,#278);
#178=CURVE_STYLE('',#279,POSITIVE_LENGTH_MEASURE(1.0E-006),#280);
#179=LINE('',#281,#282);
#180=CURVE_STYLE('',#283,POSITIVE_LENGTH_MEASURE(1.0E-006),#284);
#181=CIRCLE('',#285,0.800000000000002);
#182=POINT_STYLE(' ',#286,POSITIVE_LENGTH_MEASURE(1.0E-006),#287);
#183=CARTESIAN_POINT('',(10.0458946838995,15.0,-6.55));
#184=CURVE_STYLE('',#288,POSITIVE_LENGTH_MEASURE(1.0E-006),#289);
#185=LINE('',#290,#291);
#186=CURVE_STYLE('',#292,POSITIVE_LENGTH_MEASURE(1.0E-006),#293);
#187=CIRCLE('',#294,0.800000000000002);
#188=CURVE_STYLE('',#295,POSITIVE_LENGTH_MEASURE(1.0E-006),#296);
#189=LINE('',#297,#298);
#190=CURVE_STYLE('',#299,POSITIVE_LENGTH_MEASURE(1.0E-006),#300);
#191=CIRCLE('',#301,0.800000000000001);
#192=CURVE_STYLE('',#302,POSITIVE_LENGTH_MEASURE(1.0E-006),#303);
#193=LINE('',#304,#305);
#194=SURFACE_STYLE_USAGE(.BOTH.,#306);
#195=FACE_OUTER_BOUND('',#307,.T.);
#196=CYLINDRICAL_SURFACE('',#308,0.800000000000001);
#197=SURFACE_STYLE_USAGE(.BOTH.,#309);
#198=FACE_OUTER_BOUND('',#310,.T.);
#199=PLANE('',#311);
#200=POINT_STYLE(' ',#312,POSITIVE_LENGTH_MEASURE(1.0E-006),#313);
#201=CARTESIAN_POINT('',(18.0133283986297,1.19999999995,-6.55));
#202=POINT_STYLE(' ',#314,POSITIVE_LENGTH_MEASURE(1.0E-006),#315);
#203=CARTESIAN_POINT('',(8.66025403793099,14.99999999995,0.0));
#204=CURVE_STYLE('',#316,POSITIVE_LENGTH_MEASURE(1.0E-006),#317);
#205=LINE('',#318,#319);
#206=POINT_STYLE(' ',#320,POSITIVE_LENGTH_MEASURE(1.0E-006),#321);
#207=CARTESIAN_POINT('',(0.692820323027551,1.2,0.0));
#208=CURVE_STYLE('',#322,POSITIVE_LENGTH_MEASURE(1.0E-006),#323);
#209=LINE('',#324,#325);
#210=POINT_STYLE(' ',#326,POSITIVE_LENGTH_MEASURE(1.0E-006),#327);
#211=CARTESIAN_POINT('',(18.0133283986297,1.19999999995,0.0));
#212=SURFACE_STYLE_USAGE(.BOTH.,#328);
#213=FACE_OUTER_BOUND('',#329,.T.);
#214=CYLINDRICAL_SURFACE('',#330,0.8);
#215=SURFACE_STYLE_USAGE(.BOTH.,#331);
#216=FACE_OUTER_BOUND('',#332,.T.);
#217=CYLINDRICAL_SURFACE('',#333,0.800000000000002);
#218=POINT_STYLE(' ',#334,POSITIVE_LENGTH_MEASURE(1.0E-006),#335);
#219=CARTESIAN_POINT('',(17.3205080756888,0.0,0.0));
#220=CURVE_STYLE('',#336,POSITIVE_LENGTH_MEASURE(1.0E-006),#337);
#221=LINE('',#338,#339);
#222=SURFACE_STYLE_USAGE(.BOTH.,#340);
#223=FACE_OUTER_BOUND('',#341,.T.);
#224=PLANE('',#342);
#225=SURFACE_STYLE_USAGE(.BOTH.,#343);
#226=FACE_OUTER_BOUND('',#344,.T.);
#227=PLANE('',#345);
#228=POINT_STYLE(' ',#346,POSITIVE_LENGTH_MEASURE(1.0E-006),#347);
#229=CARTESIAN_POINT('',(1.3856406460551,0.0,-6.55));
#230=CURVE_STYLE('',#348,POSITIVE_LENGTH_MEASURE(1.0E-006),#349);
#231=CIRCLE('',#350,0.8);
#232=POINT_STYLE(' ',#351,POSITIVE_LENGTH_MEASURE(1.0E-006),#352);
#233=CARTESIAN_POINT('',(17.3205080756888,0.0,-6.55));
#234=POINT_STYLE(' ',#353,POSITIVE_LENGTH_MEASURE(1.0E-006),#354);
#235=CARTESIAN_POINT('',(0.692820323027551,1.2,-6.55));
#236=POINT_STYLE(' ',#355,POSITIVE_LENGTH_MEASURE(1.0E-006),#356);
#237=CARTESIAN_POINT('',(10.0458946838995,15.0,0.0));
#238=CURVE_STYLE('',#357,POSITIVE_LENGTH_MEASURE(1.0E-006),#358);
#239=LINE('',#359,#360);
#240=POINT_STYLE(' ',#361,POSITIVE_LENGTH_MEASURE(1.0E-006),#362);
#241=CARTESIAN_POINT('',(1.3856406460551,0.0,0.0));
#242=PRODUCT_CONTEXT('',#49,'mechanical');
#243=PRODUCT_DEFINITION_FORMATION_WITH_SPECIFIED_SOURCE(' ','NONE',#140,.NOT_KNOWN.);
#244=CARTESIAN_POINT('',(0.0,0.0,0.0));
#245=DIRECTION('',(0.0,0.0,1.0));
#246=DIRECTION('',(1.0,0.0,0.0));
#247= (NAMED_UNIT(#148)LENGTH_UNIT()SI_UNIT(.MILLI.,.METRE.));
#248=DRAUGHTING_PRE_DEFINED_CURVE_FONT('continuous');
#249=COLOUR_RGB('',0.800000011920929,0.800000011920929,0.800000011920929);
#250=AXIS2_PLACEMENT_3D('',#364,#365,#366);
#251=DRAUGHTING_PRE_DEFINED_CURVE_FONT('continuous');
#252=COLOUR_RGB('',0.800000011920929,0.800000011920929,0.800000011920929);
#253=CARTESIAN_POINT('',(1.3856406460551,0.0,-6.55));
#254=VECTOR('',#367,1.0);
#255=SURFACE_SIDE_STYLE('',(#368));
#256=EDGE_LOOP('',(#369,#370,#371,#372));
#257=AXIS2_PLACEMENT_3D('',#373,#374,#375);
#258=PRE_DEFINED_MARKER('');
#259=COLOUR_RGB('',0.800000011920929,0.800000011920929,0.800000011920929);
#260=DRAUGHTING_PRE_DEFINED_CURVE_FONT('continuous');
#261=COLOUR_RGB('',0.800000011920929,0.800000011920929,0.800000011920929);
#262=CARTESIAN_POINT('',(1.3856406460551,0.0,0.0));
#263=VECTOR('',#376,1.0);
#264=SURFACE_SIDE_STYLE('',(#377));
#265=DRAUGHTING_PRE_DEFINED_CURVE_FONT('continuous');
#266=COLOUR_RGB('',0.800000011920929,0.800000011920929,0.800000011920929);
#267=AXIS2_PLACEMENT_3D('',#378,#379,#380);
#268=DRAUGHTING_PRE_DEFINED_CURVE_FONT('continuous');
#269=COLOUR_RGB('',0.800000011920929,0.800000011920929,0.800000011920929);
#270=CARTESIAN_POINT('',(1.3856406460551,0.0,0.0));
#271=VECTOR('',#381,1.0);
#272=SURFACE_SIDE_STYLE('',(#382));
#273=EDGE_LOOP('',(#383,#384,#385,#386));
#274=AXIS2_PLACEMENT_3D('',#387,#388,#389);
#275=DRAUGHTING_PRE_DEFINED_CURVE_FONT('continuous');
#276=COLOUR_RGB('',0.800000011920929,0.800000011920929,0.800000011920929);
#277=CARTESIAN_POINT('',(18.0133283986297,1.19999999995,0.0));
#278=VECTOR('',#390,1.0);
#279=DRAUGHTING_PRE_DEFINED_CURVE_FONT('continuous');
#280=COLOUR_RGB('',0.800000011920929,0.800000011920929,0.800000011920929);
#281=CARTESIAN_POINT('',(17.3205080756888,0.0,0.0));
#282=VECTOR('',#391,1.0);
#283=DRAUGHTING_PRE_DEFINED_CURVE_FONT('continuous');
#284=COLOUR_RGB('',0.800000011920929,0.800000011920929,0.800000011920929);
#285=AXIS2_PLACEMENT_3D('',#392,#393,#394);
#286=PRE_DEFINED_MARKER('');
#287=COLOUR_RGB('',0.800000011920929,0.800000011920929,0.800000011920929);
#288=DRAUGHTING_PRE_DEFINED_CURVE_FONT('continuous');
#289=COLOUR_RGB('',0.800000011920929,0.800000011920929,0.800000011920929);
#290=CARTESIAN_POINT('',(18.0133283987163,1.2,0.0));
#291=VECTOR('',#395,1.0);
#292=DRAUGHTING_PRE_DEFINED_CURVE_FONT('continuous');
#293=COLOUR_RGB('',0.800000011920929,0.800000011920929,0.800000011920929);
#294=AXIS2_PLACEMENT_3D('',#396,#397,#398);
#295=DRAUGHTING_PRE_DEFINED_CURVE_FONT('continuous');
#296=COLOUR_RGB('',0.800000011920929,0.800000011920929,0.800000011920929);
#297=CARTESIAN_POINT('',(8.66025403793099,14.99999999995,0.0));
#298=VECTOR('',#399,1.0);
#299=DRAUGHTING_PRE_DEFINED_CURVE_FONT('continuous');
#300=COLOUR_RGB('',0.800000011920929,0.800000011920929,0.800000011920929);
#301=AXIS2_PLACEMENT_3D('',#400,#401,#402);
#302=DRAUGHTING_PRE_DEFINED_CURVE_FONT('continuous');
#303=COLOUR_RGB('',0.800000011920929,0.800000011920929,0.800000011920929);
#304=CARTESIAN_POINT('',(0.692820323027551,1.2,0.0));
#305=VECTOR('',#403,1.0);
#306=SURFACE_SIDE_STYLE('',(#404));
#307=EDGE_LOOP('',(#405,#406,#407,#408));
#308=AXIS2_PLACEMENT_3D('',#409,#410,#411);
#309=SURFACE_SIDE_STYLE('',(#412));
#310=EDGE_LOOP('',(#413,#414,#415,#416,#417,#418));
#311=AXIS2_PLACEMENT_3D('',#419,#420,#421);
#312=PRE_DEFINED_MARKER('');
#313=COLOUR_RGB('',0.800000011920929,0.800000011920929,0.800000011920929);
#314=PRE_DEFINED_MARKER('');
#315=COLOUR_RGB('',0.800000011920929,0.800000011920929,0.800000011920929);
#316=DRAUGHTING_PRE_DEFINED_CURVE_FONT('continuous');
#317=COLOUR_RGB('',0.800000011920929,0.800000011920929,0.800000011920929);
#318=CARTESIAN_POINT('',(8.66025403784439,15.0,-6.55));
#319=VECTOR('',#422,1.0);
#320=PRE_DEFINED_MARKER('');
#321=COLOUR_RGB('',0.800000011920929,0.800000011920929,0.800000011920929);
#322=DRAUGHTING_PRE_DEFINED_CURVE_FONT('continuous');
#323=COLOUR_RGB('',0.800000011920929,0.800000011920929,0.800000011920929);
#324=CARTESIAN_POINT('',(18.0133283987163,1.2,-6.55));
#325=VECTOR('',#423,1.0);
#326=PRE_DEFINED_MARKER('');
#327=COLOUR_RGB('',0.800000011920929,0.800000011920929,0.800000011920929);
#328=SURFACE_SIDE_STYLE('',(#424));
#329=EDGE_LOOP('',(#425,#426,#427,#428));
#330=AXIS2_PLACEMENT_3D('',#429,#430,#431);
#331=SURFACE_SIDE_STYLE('',(#432));
#332=EDGE_LOOP('',(#433,#434,#435,#436));
#333=AXIS2_PLACEMENT_3D('',#437,#438,#439);
#334=PRE_DEFINED_MARKER('');
#335=COLOUR_RGB('',0.800000011920929,0.800000011920929,0.800000011920929);
#336=DRAUGHTING_PRE_DEFINED_CURVE_FONT('continuous');
#337=COLOUR_RGB('',0.800000011920929,0.800000011920929,0.800000011920929);
#338=CARTESIAN_POINT('',(10.0458946838995,15.0,0.0));
#339=VECTOR('',#440,1.0);
#340=SURFACE_SIDE_STYLE('',(#441));
#341=EDGE_LOOP('',(#442,#443,#444,#445,#446,#447));
#342=AXIS2_PLACEMENT_3D('',#448,#449,#450);
#343=SURFACE_SIDE_STYLE('',(#451));
#344=EDGE_LOOP('',(#452,#453,#454,#455));
#345=AXIS2_PLACEMENT_3D('',#456,#457,#458);
#346=PRE_DEFINED_MARKER('');
#347=COLOUR_RGB('',0.800000011920929,0.800000011920929,0.800000011920929);
#348=DRAUGHTING_PRE_DEFINED_CURVE_FONT('continuous');
#349=COLOUR_RGB('',0.800000011920929,0.800000011920929,0.800000011920929);
#350=AXIS2_PLACEMENT_3D('',#459,#460,#461);
#351=PRE_DEFINED_MARKER('');
#352=COLOUR_RGB('',0.800000011920929,0.800000011920929,0.800000011920929);
#353=PRE_DEFINED_MARKER('');
#354=COLOUR_RGB('',0.800000011920929,0.800000011920929,0.800000011920929);
#355=PRE_DEFINED_MARKER('');
#356=COLOUR_RGB('',0.800000011920929,0.800000011920929,0.800000011920929);
#357=DRAUGHTING_PRE_DEFINED_CURVE_FONT('continuous');
#358=COLOUR_RGB('',0.800000011920929,0.800000011920929,0.800000011920929);
#359=CARTESIAN_POINT('',(8.66025403784439,15.0,0.0));
#360=VECTOR('',#462,1.0);
#361=PRE_DEFINED_MARKER('');
#362=COLOUR_RGB('',0.800000011920929,0.800000011920929,0.800000011920929);
#364=CARTESIAN_POINT('',(1.38564064622831,0.8000000001,0.0));
#365=DIRECTION('',(0.0,0.0,1.0));
#366=DIRECTION('',(-0.866025403892692,0.499999999812499,0.0));
#367=DIRECTION('',(1.0,0.0,0.0));
#368=SURFACE_STYLE_FILL_AREA(#463);
#369=ORIENTED_EDGE('',*,*,#65,.T.);
#370=ORIENTED_EDGE('',*,*,#83,.F.);
#371=ORIENTED_EDGE('',*,*,#77,.F.);
#372=ORIENTED_EDGE('',*,*,#71,.T.);
#373=CARTESIAN_POINT('',(1.3856406460551,0.0,0.0));
#374=DIRECTION('',(0.0,-1.0,-0.0));
#375=DIRECTION('',(-1.0,0.0,-0.0));
#376=DIRECTION('',(0.0,0.0,-1.0));
#377=SURFACE_STYLE_FILL_AREA(#464);
#378=CARTESIAN_POINT('',(17.3205080755156,0.800000000100001,0.0));
#379=DIRECTION('',(0.0,0.0,1.0));
#380=DIRECTION('',(2.16506812478201E-010,-1.0,0.0));
#381=DIRECTION('',(1.0,0.0,0.0));
#382=SURFACE_STYLE_FILL_AREA(#465);
#383=ORIENTED_EDGE('',*,*,#111,.T.);
#384=ORIENTED_EDGE('',*,*,#121,.F.);
#385=ORIENTED_EDGE('',*,*,#89,.F.);
#386=ORIENTED_EDGE('',*,*,#81,.T.);
#387=CARTESIAN_POINT('',(18.0133283986297,1.19999999995,0.0));
#388=DIRECTION('',(0.866025403784439,0.5,0.0));
#389=DIRECTION('',(0.5,-0.866025403784439,-0.0));
#390=DIRECTION('',(0.0,0.0,-1.0));
#391=DIRECTION('',(0.0,0.0,-1.0));
#392=CARTESIAN_POINT('',(9.35307436087194,14.5999999998,0.0));
#393=DIRECTION('',(0.0,-0.0,1.0));
#394=DIRECTION('',(0.866025403676183,0.500000000187505,0.0));
#395=DIRECTION('',(-0.5,0.866025403784439,0.0));
#396=CARTESIAN_POINT('',(9.35307436087194,14.5999999998,-6.55));
#397=DIRECTION('',(0.0,-0.0,1.0));
#398=DIRECTION('',(0.866025403676183,0.500000000187505,0.0));
#399=DIRECTION('',(0.0,0.0,-1.0));
#400=CARTESIAN_POINT('',(17.3205080755156,0.800000000100001,-6.55));
#401=DIRECTION('',(0.0,0.0,1.0));
#402=DIRECTION('',(2.16506812478201E-010,-1.0,0.0));
#403=DIRECTION('',(0.0,0.0,-1.0));
#404=SURFACE_STYLE_FILL_AREA(#466);
#405=ORIENTED_EDGE('',*,*,#95,.T.);
#406=ORIENTED_EDGE('',*,*,#81,.F.);
#407=ORIENTED_EDGE('',*,*,#75,.F.);
#408=ORIENTED_EDGE('',*,*,#83,.T.);
#409=CARTESIAN_POINT('',(17.3205080755156,0.800000000100001,0.0));
#410=DIRECTION('',(-0.0,-0.0,1.0));
#411=DIRECTION('',(2.16506812478201E-010,-1.0,0.0));
#412=SURFACE_STYLE_FILL_AREA(#467);
#413=ORIENTED_EDGE('',*,*,#77,.T.);
#414=ORIENTED_EDGE('',*,*,#75,.T.);
#415=ORIENTED_EDGE('',*,*,#89,.T.);
#416=ORIENTED_EDGE('',*,*,#85,.T.);
#417=ORIENTED_EDGE('',*,*,#137,.T.);
#418=ORIENTED_EDGE('',*,*,#63,.T.);
#419=CARTESIAN_POINT('',(9.35307436087194,5.4,0.0));
#420=DIRECTION('',(0.0,0.0,1.0));
#421=DIRECTION('',(1.0,0.0,0.0));
#422=DIRECTION('',(-0.5,-0.866025403784439,0.0));
#423=DIRECTION('',(-0.5,0.866025403784439,0.0));
#424=SURFACE_STYLE_FILL_AREA(#468);
#425=ORIENTED_EDGE('',*,*,#129,.T.);
#426=ORIENTED_EDGE('',*,*,#71,.F.);
#427=ORIENTED_EDGE('',*,*,#63,.F.);
#428=ORIENTED_EDGE('',*,*,#97,.T.);
#429=CARTESIAN_POINT('',(1.38564064622831,0.8000000001,0.0));
#430=DIRECTION('',(-0.0,-0.0,1.0));
#431=DIRECTION('',(-0.866025403892692,0.499999999812499,0.0));
#432=SURFACE_STYLE_FILL_AREA(#469);
#433=ORIENTED_EDGE('',*,*,#91,.T.);
#434=ORIENTED_EDGE('',*,*,#93,.F.);
#435=ORIENTED_EDGE('',*,*,#85,.F.);
#436=ORIENTED_EDGE('',*,*,#121,.T.);
#437=CARTESIAN_POINT('',(9.35307436087194,14.5999999998,0.0));
#438=DIRECTION('',(-0.0,-0.0,1.0));
#439=DIRECTION('',(0.866025403676183,0.500000000187505,0.0));
#440=DIRECTION('',(0.0,0.0,-1.0));
#441=SURFACE_STYLE_FILL_AREA(#470);
#442=ORIENTED_EDGE('',*,*,#95,.F.);
#443=ORIENTED_EDGE('',*,*,#65,.F.);
#444=ORIENTED_EDGE('',*,*,#129,.F.);
#445=ORIENTED_EDGE('',*,*,#107,.F.);
#446=ORIENTED_EDGE('',*,*,#91,.F.);
#447=ORIENTED_EDGE('',*,*,#111,.F.);
#448=CARTESIAN_POINT('',(9.35307436087194,5.4,-6.55));
#449=DIRECTION('',(0.0,0.0,1.0));
#450=DIRECTION('',(1.0,0.0,0.0));
#451=SURFACE_STYLE_FILL_AREA(#471);
#452=ORIENTED_EDGE('',*,*,#107,.T.);
#453=ORIENTED_EDGE('',*,*,#97,.F.);
#454=ORIENTED_EDGE('',*,*,#137,.F.);
#455=ORIENTED_EDGE('',*,*,#93,.T.);
#456=CARTESIAN_POINT('',(8.66025403793099,14.99999999995,0.0));
#457=DIRECTION('',(-0.866025403784439,0.5,0.0));
#458=DIRECTION('',(0.5,0.866025403784439,-0.0));
#459=CARTESIAN_POINT('',(1.38564064622831,0.8000000001,-6.55));
#460=DIRECTION('',(0.0,0.0,1.0));
#461=DIRECTION('',(-0.866025403892692,0.499999999812499,0.0));
#462=DIRECTION('',(-0.5,-0.866025403784439,0.0));
#463=FILL_AREA_STYLE('',(#472));
#464=FILL_AREA_STYLE('',(#473));
#465=FILL_AREA_STYLE('',(#474));
#466=FILL_AREA_STYLE('',(#475));
#467=FILL_AREA_STYLE('',(#476));
#468=FILL_AREA_STYLE('',(#477));
#469=FILL_AREA_STYLE('',(#478));
#470=FILL_AREA_STYLE('',(#479));
#471=FILL_AREA_STYLE('',(#480));
#472=FILL_AREA_STYLE_COLOUR('',#481);
#473=FILL_AREA_STYLE_COLOUR('',#482);
#474=FILL_AREA_STYLE_COLOUR('',#483);
#475=FILL_AREA_STYLE_COLOUR('',#484);
#476=FILL_AREA_STYLE_COLOUR('',#485);
#477=FILL_AREA_STYLE_COLOUR('',#486);
#478=FILL_AREA_STYLE_COLOUR('',#487);
#479=FILL_AREA_STYLE_COLOUR('',#488);
#480=FILL_AREA_STYLE_COLOUR('',#489);
#481=COLOUR_RGB('',0.800000011920929,0.800000011920929,0.800000011920929);
#482=COLOUR_RGB('',0.800000011920929,0.800000011920929,0.800000011920929);
#483=COLOUR_RGB('',0.800000011920929,0.800000011920929,0.800000011920929);
#484=COLOUR_RGB('',0.800000011920929,0.800000011920929,0.800000011920929);
#485=COLOUR_RGB('',0.800000011920929,0.800000011920929,0.800000011920929);
#486=COLOUR_RGB('',0.800000011920929,0.800000011920929,0.800000011920929);
#487=COLOUR_RGB('',0.800000011920929,0.800000011920929,0.800000011920929);
#488=COLOUR_RGB('',0.800000011920929,0.800000011920929,0.800000011920929);
#489=COLOUR_RGB('',0.800000011920929,0.800000011920929,0.800000011920929);
#490=AXIS2_PLACEMENT_3D('PCS',#491,#492,#493);
#491=CARTESIAN_POINT('',(0.0,0.0,0.0));
#492=DIRECTION('',(0.0,0.0,1.0));
#493=DIRECTION('',(1.0,0.0,0.0));
#494=AXIS2_PLACEMENT_3D('MCS',#495,#496,#497);
#495=CARTESIAN_POINT('',(9.35307436,5.4,0.0));
#496=DIRECTION('',(0.0,0.0,1.0));
#497=DIRECTION('',(1.0,0.0,0.0));
#498=CONSTRUCTIVE_GEOMETRY_REPRESENTATION_RELATIONSHIP('coordinate systems',$,#53,#499);
#499=CONSTRUCTIVE_GEOMETRY_REPRESENTATION('coordinate systems',(#490,#494),#6);
ENDSEC;
END-ISO-10303-21;
