ISO-10303-21;
HEADER;
FILE_DESCRIPTION(('no description'),'unknown implementation level');
FILE_NAME('solidZqL8N_zXaB83OJTrx9BS0EG5zF4_1.STP','  ',('CIMSOURCE GmbH'),('CADClick - KiM GmbH - www.kimweb.de'),'unknown preprocess','ACIS','unknown authorization');
FILE_SCHEMA(('automotive_design'));
ENDSEC;
DATA;
#1=MECHANICAL_DESIGN_GEOMETRIC_PRESENTATION_REPRESENTATION(' ',(#10,#11,#12,#13,#14,#15,#16,#17,#18,#19,#20,#21,#22,#23,#24),#6);
#2=PRODUCT_DEFINITION_CONTEXT('',#25,'design');
#3=APPLICATION_PROTOCOL_DEFINITION('INTERNATIONAL STANDARD','automotive_design',1994,#25);
#4=PRODUCT_CATEGORY_RELATIONSHIP('NONE','NONE',#26,#27);
#5=SHAPE_DEFINITION_REPRESENTATION(#28,#29);
#6= (GEOMETRIC_REPRESENTATION_CONTEXT(3)GLOBAL_UNCERTAINTY_ASSIGNED_CONTEXT((#32))GLOBAL_UNIT_ASSIGNED_CONTEXT((#34,#35,#36))REPRESENTATION_CONTEXT('NONE','WORKSPACE'));
#10=STYLED_ITEM('',(#38),#39);
#11=STYLED_ITEM('',(#40),#41);
#12=STYLED_ITEM('',(#42),#43);
#13=STYLED_ITEM('',(#44),#45);
#14=STYLED_ITEM('',(#46),#47);
#15=STYLED_ITEM('',(#48),#49);
#16=STYLED_ITEM('',(#50),#51);
#17=STYLED_ITEM('',(#52),#53);
#18=STYLED_ITEM('',(#54),#55);
#19=STYLED_ITEM('',(#56),#57);
#20=STYLED_ITEM('',(#58),#59);
#21=STYLED_ITEM('',(#60),#61);
#22=STYLED_ITEM('',(#62),#63);
#23=STYLED_ITEM('',(#64),#65);
#24=STYLED_ITEM('',(#66),#67);
#25=APPLICATION_CONTEXT(' ');
#26=PRODUCT_CATEGORY('part','NONE');
#27=PRODUCT_RELATED_PRODUCT_CATEGORY('detail',' ',(#68));
#28=PRODUCT_DEFINITION_SHAPE('NONE','NONE',#69);
#29=ADVANCED_BREP_SHAPE_REPRESENTATION('1',(#49,#70),#6);
#32=UNCERTAINTY_MEASURE_WITH_UNIT(LENGTH_MEASURE(1.0E-006),#34,'','');
#34= (CONVERSION_BASED_UNIT('MILLIMETRE',#73)LENGTH_UNIT()NAMED_UNIT(#76));
#35= (NAMED_UNIT(#78)PLANE_ANGLE_UNIT()SI_UNIT($,.RADIAN.));
#36= (NAMED_UNIT(#78)SOLID_ANGLE_UNIT()SI_UNIT($,.STERADIAN.));
#38=PRESENTATION_STYLE_ASSIGNMENT((#84));
#39=EDGE_CURVE('',#41,#65,#85,.T.);
#40=PRESENTATION_STYLE_ASSIGNMENT((#86));
#41=VERTEX_POINT('',#87);
#42=PRESENTATION_STYLE_ASSIGNMENT((#88));
#43=ADVANCED_FACE('',(#89),#90,.T.);
#44=PRESENTATION_STYLE_ASSIGNMENT((#91));
#45=VERTEX_POINT('',#92);
#46=PRESENTATION_STYLE_ASSIGNMENT((#93));
#47=ADVANCED_FACE('',(#94),#95,.F.);
#48=PRESENTATION_STYLE_ASSIGNMENT((#96));
#49=MANIFOLD_SOLID_BREP('1',#97);
#50=PRESENTATION_STYLE_ASSIGNMENT((#98));
#51=ADVANCED_FACE('',(#99),#100,.T.);
#52=PRESENTATION_STYLE_ASSIGNMENT((#101));
#53=EDGE_CURVE('',#63,#45,#102,.T.);
#54=PRESENTATION_STYLE_ASSIGNMENT((#103));
#55=EDGE_CURVE('',#41,#63,#104,.T.);
#56=PRESENTATION_STYLE_ASSIGNMENT((#105));
#57=EDGE_CURVE('',#45,#65,#106,.T.);
#58=PRESENTATION_STYLE_ASSIGNMENT((#107));
#59=EDGE_CURVE('',#65,#41,#108,.T.);
#60=PRESENTATION_STYLE_ASSIGNMENT((#109));
#61=ADVANCED_FACE('',(#110),#111,.T.);
#62=PRESENTATION_STYLE_ASSIGNMENT((#112));
#63=VERTEX_POINT('',#113);
#64=PRESENTATION_STYLE_ASSIGNMENT((#114));
#65=VERTEX_POINT('',#115);
#66=PRESENTATION_STYLE_ASSIGNMENT((#116));
#67=EDGE_CURVE('',#45,#63,#117,.T.);
#68=PRODUCT('1','1','PART-1-DESC',(#118));
#69=PRODUCT_DEFINITION('NONE','NONE',#119,#2);
#70=AXIS2_PLACEMENT_3D('',#120,#121,#122);
#73=LENGTH_MEASURE_WITH_UNIT(LENGTH_MEASURE(1.0),#123);
#76=DIMENSIONAL_EXPONENTS(1.0,0.0,0.0,0.0,0.0,0.0,0.0);
#78=DIMENSIONAL_EXPONENTS(0.0,0.0,0.0,0.0,0.0,0.0,0.0);
#84=CURVE_STYLE('',#124,POSITIVE_LENGTH_MEASURE(1.0E-006),#125);
#85=CIRCLE('',#126,4.22831017272326);
#86=POINT_STYLE(' ',#127,POSITIVE_LENGTH_MEASURE(1.0E-006),#128);
#87=CARTESIAN_POINT('',(0.771689827276743,5.0,-3.97));
#88=SURFACE_STYLE_USAGE(.BOTH.,#129);
#89=FACE_OUTER_BOUND('',#130,.T.);
#90=PLANE('',#131);
#91=POINT_STYLE(' ',#132,POSITIVE_LENGTH_MEASURE(1.0E-006),#133);
#92=CARTESIAN_POINT('',(10.0,5.0,0.0));
#93=SURFACE_STYLE_USAGE(.BOTH.,#134);
#94=FACE_OUTER_BOUND('',#135,.T.);
#95=PLANE('',#136);
#96=SURFACE_STYLE_USAGE(.BOTH.,#137);
#97=CLOSED_SHELL('',(#61,#51,#47,#43));
#98=SURFACE_STYLE_USAGE(.BOTH.,#138);
#99=FACE_OUTER_BOUND('',#139,.T.);
#100=CONICAL_SURFACE('',#140,5.0,0.191986217719376);
#101=CURVE_STYLE('',#141,POSITIVE_LENGTH_MEASURE(1.0E-006),#142);
#102=CIRCLE('',#143,5.0);
#103=CURVE_STYLE('',#144,POSITIVE_LENGTH_MEASURE(1.0E-006),#145);
#104=LINE('',#146,#147);
#105=CURVE_STYLE('',#148,POSITIVE_LENGTH_MEASURE(1.0E-006),#149);
#106=LINE('',#150,#151);
#107=CURVE_STYLE('',#152,POSITIVE_LENGTH_MEASURE(1.0E-006),#153);
#108=CIRCLE('',#154,4.22831017272326);
#109=SURFACE_STYLE_USAGE(.BOTH.,#155);
#110=FACE_OUTER_BOUND('',#156,.T.);
#111=CONICAL_SURFACE('',#157,5.0,0.191986217719376);
#112=POINT_STYLE(' ',#158,POSITIVE_LENGTH_MEASURE(1.0E-006),#159);
#113=CARTESIAN_POINT('',(0.0,5.0,0.0));
#114=POINT_STYLE(' ',#160,POSITIVE_LENGTH_MEASURE(1.0E-006),#161);
#115=CARTESIAN_POINT('',(9.22831017272326,5.0,-3.97));
#116=CURVE_STYLE('',#162,POSITIVE_LENGTH_MEASURE(1.0E-006),#163);
#117=CIRCLE('',#164,5.0);
#118=PRODUCT_CONTEXT('',#25,'mechanical');
#119=PRODUCT_DEFINITION_FORMATION_WITH_SPECIFIED_SOURCE(' ','NONE',#68,.NOT_KNOWN.);
#120=CARTESIAN_POINT('',(0.0,0.0,0.0));
#121=DIRECTION('',(0.0,0.0,1.0));
#122=DIRECTION('',(1.0,0.0,0.0));
#123= (NAMED_UNIT(#76)LENGTH_UNIT()SI_UNIT(.MILLI.,.METRE.));
#124=DRAUGHTING_PRE_DEFINED_CURVE_FONT('continuous');
#125=COLOUR_RGB('',0.800000011920929,0.800000011920929,0.800000011920929);
#126=AXIS2_PLACEMENT_3D('',#166,#167,#168);
#127=PRE_DEFINED_MARKER('');
#128=COLOUR_RGB('',0.800000011920929,0.800000011920929,0.800000011920929);
#129=SURFACE_SIDE_STYLE('',(#169));
#130=EDGE_LOOP('',(#170,#171));
#131=AXIS2_PLACEMENT_3D('',#172,#173,#174);
#132=PRE_DEFINED_MARKER('');
#133=COLOUR_RGB('',0.800000011920929,0.800000011920929,0.800000011920929);
#134=SURFACE_SIDE_STYLE('',(#175));
#135=EDGE_LOOP('',(#176,#177));
#136=AXIS2_PLACEMENT_3D('',#178,#179,#180);
#137=SURFACE_SIDE_STYLE('',(#181));
#138=SURFACE_SIDE_STYLE('',(#182));
#139=EDGE_LOOP('',(#183,#184,#185,#186));
#140=AXIS2_PLACEMENT_3D('',#187,#188,#189);
#141=DRAUGHTING_PRE_DEFINED_CURVE_FONT('continuous');
#142=COLOUR_RGB('',0.800000011920929,0.800000011920929,0.800000011920929);
#143=AXIS2_PLACEMENT_3D('',#190,#191,#192);
#144=DRAUGHTING_PRE_DEFINED_CURVE_FONT('continuous');
#145=COLOUR_RGB('',0.800000011920929,0.800000011920929,0.800000011920929);
#146=CARTESIAN_POINT('',(8.88178419700125E-016,5.0,0.0));
#147=VECTOR('',#193,1.0);
#148=DRAUGHTING_PRE_DEFINED_CURVE_FONT('continuous');
#149=COLOUR_RGB('',0.800000011920929,0.800000011920929,0.800000011920929);
#150=CARTESIAN_POINT('',(10.0,5.0,0.0));
#151=VECTOR('',#194,1.0);
#152=DRAUGHTING_PRE_DEFINED_CURVE_FONT('continuous');
#153=COLOUR_RGB('',0.800000011920929,0.800000011920929,0.800000011920929);
#154=AXIS2_PLACEMENT_3D('',#195,#196,#197);
#155=SURFACE_SIDE_STYLE('',(#198));
#156=EDGE_LOOP('',(#199,#200,#201,#202));
#157=AXIS2_PLACEMENT_3D('',#203,#204,#205);
#158=PRE_DEFINED_MARKER('');
#159=COLOUR_RGB('',0.800000011920929,0.800000011920929,0.800000011920929);
#160=PRE_DEFINED_MARKER('');
#161=COLOUR_RGB('',0.800000011920929,0.800000011920929,0.800000011920929);
#162=DRAUGHTING_PRE_DEFINED_CURVE_FONT('continuous');
#163=COLOUR_RGB('',0.800000011920929,0.800000011920929,0.800000011920929);
#164=AXIS2_PLACEMENT_3D('',#206,#207,#208);
#166=CARTESIAN_POINT('',(5.0,5.0,-3.97));
#167=DIRECTION('',(0.0,0.0,1.0));
#168=DIRECTION('',(-1.0,5.32907051820075E-016,0.0));
#169=SURFACE_STYLE_FILL_AREA(#209);
#170=ORIENTED_EDGE('',*,*,#53,.T.);
#171=ORIENTED_EDGE('',*,*,#67,.T.);
#172=CARTESIAN_POINT('',(5.0,5.0,0.0));
#173=DIRECTION('',(0.0,0.0,1.0));
#174=DIRECTION('',(1.0,0.0,0.0));
#175=SURFACE_STYLE_FILL_AREA(#210);
#176=ORIENTED_EDGE('',*,*,#59,.F.);
#177=ORIENTED_EDGE('',*,*,#39,.F.);
#178=CARTESIAN_POINT('',(5.0,5.0,-3.97));
#179=DIRECTION('',(0.0,0.0,1.0));
#180=DIRECTION('',(1.0,0.0,0.0));
#181=SURFACE_STYLE_FILL_AREA(#211);
#182=SURFACE_STYLE_FILL_AREA(#212);
#183=ORIENTED_EDGE('',*,*,#57,.T.);
#184=ORIENTED_EDGE('',*,*,#59,.T.);
#185=ORIENTED_EDGE('',*,*,#55,.T.);
#186=ORIENTED_EDGE('',*,*,#67,.F.);
#187=CARTESIAN_POINT('',(5.0,5.0,0.0));
#188=DIRECTION('',(-0.0,-0.0,1.0));
#189=DIRECTION('',(1.0,0.0,0.0));
#190=CARTESIAN_POINT('',(5.0,5.0,0.0));
#191=DIRECTION('',(0.0,0.0,1.0));
#192=DIRECTION('',(1.0,0.0,0.0));
#193=DIRECTION('',(-0.190808995376545,-3.38944863956216E-017,0.981627183447664));
#194=DIRECTION('',(-0.190808995376545,-3.38944863956216E-017,-0.981627183447664));
#195=CARTESIAN_POINT('',(5.0,5.0,-3.97));
#196=DIRECTION('',(0.0,0.0,1.0));
#197=DIRECTION('',(-1.0,5.32907051820075E-016,0.0));
#198=SURFACE_STYLE_FILL_AREA(#213);
#199=ORIENTED_EDGE('',*,*,#57,.F.);
#200=ORIENTED_EDGE('',*,*,#53,.F.);
#201=ORIENTED_EDGE('',*,*,#55,.F.);
#202=ORIENTED_EDGE('',*,*,#39,.T.);
#203=CARTESIAN_POINT('',(5.0,5.0,0.0));
#204=DIRECTION('',(-0.0,-0.0,1.0));
#205=DIRECTION('',(1.0,0.0,0.0));
#206=CARTESIAN_POINT('',(5.0,5.0,0.0));
#207=DIRECTION('',(0.0,0.0,1.0));
#208=DIRECTION('',(1.0,0.0,0.0));
#209=FILL_AREA_STYLE('',(#214));
#210=FILL_AREA_STYLE('',(#215));
#211=FILL_AREA_STYLE('',(#216));
#212=FILL_AREA_STYLE('',(#217));
#213=FILL_AREA_STYLE('',(#218));
#214=FILL_AREA_STYLE_COLOUR('',#219);
#215=FILL_AREA_STYLE_COLOUR('',#220);
#216=FILL_AREA_STYLE_COLOUR('',#221);
#217=FILL_AREA_STYLE_COLOUR('',#222);
#218=FILL_AREA_STYLE_COLOUR('',#223);
#219=COLOUR_RGB('',0.800000011920929,0.800000011920929,0.800000011920929);
#220=COLOUR_RGB('',0.800000011920929,0.800000011920929,0.800000011920929);
#221=COLOUR_RGB('',0.800000011920929,0.800000011920929,0.800000011920929);
#222=COLOUR_RGB('',0.800000011920929,0.800000011920929,0.800000011920929);
#223=COLOUR_RGB('',0.800000011920929,0.800000011920929,0.800000011920929);
#224=AXIS2_PLACEMENT_3D('PCS',#225,#226,#227);
#225=CARTESIAN_POINT('',(0.0,0.0,0.0));
#226=DIRECTION('',(0.0,0.0,1.0));
#227=DIRECTION('',(1.0,0.0,0.0));
#228=AXIS2_PLACEMENT_3D('MCS',#229,#230,#231);
#229=CARTESIAN_POINT('',(5.0,5.0,0.0));
#230=DIRECTION('',(0.0,0.0,1.0));
#231=DIRECTION('',(1.0,0.0,0.0));
#232=CONSTRUCTIVE_GEOMETRY_REPRESENTATION_RELATIONSHIP('coordinate systems',$,#29,#233);
#233=CONSTRUCTIVE_GEOMETRY_REPRESENTATION('coordinate systems',(#224,#228),#6);
ENDSEC;
END-ISO-10303-21;
