ISO-10303-21;
HEADER;
FILE_DESCRIPTION(('no description'),'unknown implementation level');
FILE_NAME('solidZRlLwAV8ufMdddqKrNQ5d3CAjxU_1.STP','  ',('CIMSOURCE GmbH'),('CADClick - KiM GmbH - www.kimweb.de'),'unknown preprocess','ACIS','unknown authorization');
FILE_SCHEMA(('automotive_design'));
ENDSEC;
DATA;
#1=MECHANICAL_DESIGN_GEOMETRIC_PRESENTATION_REPRESENTATION(' ',(#10,#11,#12,#13,#14,#15,#16,#17,#18,#19,#20,#21,#22,#23,#24),#6);
#2=PRODUCT_DEFINITION_CONTEXT('',#25,'design');
#3=APPLICATION_PROTOCOL_DEFINITION('INTERNATIONAL STANDARD','automotive_design',1994,#25);
#4=PRODUCT_CATEGORY_RELATIONSHIP('NONE','NONE',#26,#27);
#5=SHAPE_DEFINITION_REPRESENTATION(#28,#29);
#6= (GEOMETRIC_REPRESENTATION_CONTEXT(3)GLOBAL_UNCERTAINTY_ASSIGNED_CONTEXT((#32))GLOBAL_UNIT_ASSIGNED_CONTEXT((#34,#35,#36))REPRESENTATION_CONTEXT('NONE','WORKSPACE'));
#10=STYLED_ITEM('',(#38),#39);
#11=STYLED_ITEM('',(#40),#41);
#12=STYLED_ITEM('',(#42),#43);
#13=STYLED_ITEM('',(#44),#45);
#14=STYLED_ITEM('',(#46),#47);
#15=STYLED_ITEM('',(#48),#49);
#16=STYLED_ITEM('',(#50),#51);
#17=STYLED_ITEM('',(#52),#53);
#18=STYLED_ITEM('',(#54),#55);
#19=STYLED_ITEM('',(#56),#57);
#20=STYLED_ITEM('',(#58),#59);
#21=STYLED_ITEM('',(#60),#61);
#22=STYLED_ITEM('',(#62),#63);
#23=STYLED_ITEM('',(#64),#65);
#24=STYLED_ITEM('',(#66),#67);
#25=APPLICATION_CONTEXT(' ');
#26=PRODUCT_CATEGORY('part','NONE');
#27=PRODUCT_RELATED_PRODUCT_CATEGORY('detail',' ',(#68));
#28=PRODUCT_DEFINITION_SHAPE('NONE','NONE',#69);
#29=ADVANCED_BREP_SHAPE_REPRESENTATION('1',(#61,#70),#6);
#32=UNCERTAINTY_MEASURE_WITH_UNIT(LENGTH_MEASURE(1.0E-006),#34,'','');
#34= (CONVERSION_BASED_UNIT('MILLIMETRE',#73)LENGTH_UNIT()NAMED_UNIT(#76));
#35= (NAMED_UNIT(#78)PLANE_ANGLE_UNIT()SI_UNIT($,.RADIAN.));
#36= (NAMED_UNIT(#78)SOLID_ANGLE_UNIT()SI_UNIT($,.STERADIAN.));
#38=PRESENTATION_STYLE_ASSIGNMENT((#84));
#39=VERTEX_POINT('',#85);
#40=PRESENTATION_STYLE_ASSIGNMENT((#86));
#41=ADVANCED_FACE('',(#87),#88,.F.);
#42=PRESENTATION_STYLE_ASSIGNMENT((#89));
#43=EDGE_CURVE('',#59,#67,#90,.T.);
#44=PRESENTATION_STYLE_ASSIGNMENT((#91));
#45=EDGE_CURVE('',#39,#53,#92,.T.);
#46=PRESENTATION_STYLE_ASSIGNMENT((#93));
#47=ADVANCED_FACE('',(#94),#95,.T.);
#48=PRESENTATION_STYLE_ASSIGNMENT((#96));
#49=ADVANCED_FACE('',(#97),#98,.T.);
#50=PRESENTATION_STYLE_ASSIGNMENT((#99));
#51=ADVANCED_FACE('',(#100),#101,.T.);
#52=PRESENTATION_STYLE_ASSIGNMENT((#102));
#53=VERTEX_POINT('',#103);
#54=PRESENTATION_STYLE_ASSIGNMENT((#104));
#55=EDGE_CURVE('',#39,#67,#105,.T.);
#56=PRESENTATION_STYLE_ASSIGNMENT((#106));
#57=EDGE_CURVE('',#53,#39,#107,.T.);
#58=PRESENTATION_STYLE_ASSIGNMENT((#108));
#59=VERTEX_POINT('',#109);
#60=PRESENTATION_STYLE_ASSIGNMENT((#110));
#61=MANIFOLD_SOLID_BREP('1',#111);
#62=PRESENTATION_STYLE_ASSIGNMENT((#112));
#63=EDGE_CURVE('',#67,#59,#113,.T.);
#64=PRESENTATION_STYLE_ASSIGNMENT((#114));
#65=EDGE_CURVE('',#59,#53,#115,.T.);
#66=PRESENTATION_STYLE_ASSIGNMENT((#116));
#67=VERTEX_POINT('',#117);
#68=PRODUCT('1','1','PART-1-DESC',(#118));
#69=PRODUCT_DEFINITION('NONE','NONE',#119,#2);
#70=AXIS2_PLACEMENT_3D('',#120,#121,#122);
#73=LENGTH_MEASURE_WITH_UNIT(LENGTH_MEASURE(1.0),#123);
#76=DIMENSIONAL_EXPONENTS(1.0,0.0,0.0,0.0,0.0,0.0,0.0);
#78=DIMENSIONAL_EXPONENTS(0.0,0.0,0.0,0.0,0.0,0.0,0.0);
#84=POINT_STYLE(' ',#124,POSITIVE_LENGTH_MEASURE(1.0E-006),#125);
#85=CARTESIAN_POINT('',(0.92525027149554,6.0,-4.76));
#86=SURFACE_STYLE_USAGE(.BOTH.,#126);
#87=FACE_OUTER_BOUND('',#127,.T.);
#88=PLANE('',#128);
#89=CURVE_STYLE('',#129,POSITIVE_LENGTH_MEASURE(1.0E-006),#130);
#90=CIRCLE('',#131,6.0);
#91=CURVE_STYLE('',#132,POSITIVE_LENGTH_MEASURE(1.0E-006),#133);
#92=CIRCLE('',#134,5.07474972850446);
#93=SURFACE_STYLE_USAGE(.BOTH.,#135);
#94=FACE_OUTER_BOUND('',#136,.T.);
#95=CONICAL_SURFACE('',#137,6.0,0.191986217719376);
#96=SURFACE_STYLE_USAGE(.BOTH.,#138);
#97=FACE_OUTER_BOUND('',#139,.T.);
#98=CONICAL_SURFACE('',#140,6.0,0.191986217719376);
#99=SURFACE_STYLE_USAGE(.BOTH.,#141);
#100=FACE_OUTER_BOUND('',#142,.T.);
#101=PLANE('',#143);
#102=POINT_STYLE(' ',#144,POSITIVE_LENGTH_MEASURE(1.0E-006),#145);
#103=CARTESIAN_POINT('',(11.0747497285045,6.0,-4.76));
#104=CURVE_STYLE('',#146,POSITIVE_LENGTH_MEASURE(1.0E-006),#147);
#105=LINE('',#148,#149);
#106=CURVE_STYLE('',#150,POSITIVE_LENGTH_MEASURE(1.0E-006),#151);
#107=CIRCLE('',#152,5.07474972850446);
#108=POINT_STYLE(' ',#153,POSITIVE_LENGTH_MEASURE(1.0E-006),#154);
#109=CARTESIAN_POINT('',(12.0,6.0,0.0));
#110=SURFACE_STYLE_USAGE(.BOTH.,#155);
#111=CLOSED_SHELL('',(#49,#47,#41,#51));
#112=CURVE_STYLE('',#156,POSITIVE_LENGTH_MEASURE(1.0E-006),#157);
#113=CIRCLE('',#158,6.0);
#114=CURVE_STYLE('',#159,POSITIVE_LENGTH_MEASURE(1.0E-006),#160);
#115=LINE('',#161,#162);
#116=POINT_STYLE(' ',#163,POSITIVE_LENGTH_MEASURE(1.0E-006),#164);
#117=CARTESIAN_POINT('',(3.5527136788005E-015,6.00000000000001,0.0));
#118=PRODUCT_CONTEXT('',#25,'mechanical');
#119=PRODUCT_DEFINITION_FORMATION_WITH_SPECIFIED_SOURCE(' ','NONE',#68,.NOT_KNOWN.);
#120=CARTESIAN_POINT('',(0.0,0.0,0.0));
#121=DIRECTION('',(0.0,0.0,1.0));
#122=DIRECTION('',(1.0,0.0,0.0));
#123= (NAMED_UNIT(#76)LENGTH_UNIT()SI_UNIT(.MILLI.,.METRE.));
#124=PRE_DEFINED_MARKER('');
#125=COLOUR_RGB('',0.800000011920929,0.800000011920929,0.800000011920929);
#126=SURFACE_SIDE_STYLE('',(#166));
#127=EDGE_LOOP('',(#167,#168));
#128=AXIS2_PLACEMENT_3D('',#169,#170,#171);
#129=DRAUGHTING_PRE_DEFINED_CURVE_FONT('continuous');
#130=COLOUR_RGB('',0.800000011920929,0.800000011920929,0.800000011920929);
#131=AXIS2_PLACEMENT_3D('',#172,#173,#174);
#132=DRAUGHTING_PRE_DEFINED_CURVE_FONT('continuous');
#133=COLOUR_RGB('',0.800000011920929,0.800000011920929,0.800000011920929);
#134=AXIS2_PLACEMENT_3D('',#175,#176,#177);
#135=SURFACE_SIDE_STYLE('',(#178));
#136=EDGE_LOOP('',(#179,#180,#181,#182));
#137=AXIS2_PLACEMENT_3D('',#183,#184,#185);
#138=SURFACE_SIDE_STYLE('',(#186));
#139=EDGE_LOOP('',(#187,#188,#189,#190));
#140=AXIS2_PLACEMENT_3D('',#191,#192,#193);
#141=SURFACE_SIDE_STYLE('',(#194));
#142=EDGE_LOOP('',(#195,#196));
#143=AXIS2_PLACEMENT_3D('',#197,#198,#199);
#144=PRE_DEFINED_MARKER('');
#145=COLOUR_RGB('',0.800000011920929,0.800000011920929,0.800000011920929);
#146=DRAUGHTING_PRE_DEFINED_CURVE_FONT('continuous');
#147=COLOUR_RGB('',0.800000011920929,0.800000011920929,0.800000011920929);
#148=CARTESIAN_POINT('',(4.44089209850063E-015,6.0,0.0));
#149=VECTOR('',#200,1.0);
#150=DRAUGHTING_PRE_DEFINED_CURVE_FONT('continuous');
#151=COLOUR_RGB('',0.800000011920929,0.800000011920929,0.800000011920929);
#152=AXIS2_PLACEMENT_3D('',#201,#202,#203);
#153=PRE_DEFINED_MARKER('');
#154=COLOUR_RGB('',0.800000011920929,0.800000011920929,0.800000011920929);
#155=SURFACE_SIDE_STYLE('',(#204));
#156=DRAUGHTING_PRE_DEFINED_CURVE_FONT('continuous');
#157=COLOUR_RGB('',0.800000011920929,0.800000011920929,0.800000011920929);
#158=AXIS2_PLACEMENT_3D('',#205,#206,#207);
#159=DRAUGHTING_PRE_DEFINED_CURVE_FONT('continuous');
#160=COLOUR_RGB('',0.800000011920929,0.800000011920929,0.800000011920929);
#161=CARTESIAN_POINT('',(12.0,6.0,0.0));
#162=VECTOR('',#208,1.0);
#163=PRE_DEFINED_MARKER('');
#164=COLOUR_RGB('',0.800000011920929,0.800000011920929,0.800000011920929);
#166=SURFACE_STYLE_FILL_AREA(#209);
#167=ORIENTED_EDGE('',*,*,#57,.F.);
#168=ORIENTED_EDGE('',*,*,#45,.F.);
#169=CARTESIAN_POINT('',(6.0,6.0,-4.76));
#170=DIRECTION('',(0.0,0.0,1.0));
#171=DIRECTION('',(1.0,0.0,0.0));
#172=CARTESIAN_POINT('',(6.0,6.0,0.0));
#173=DIRECTION('',(0.0,0.0,1.0));
#174=DIRECTION('',(1.0,-4.44089209850063E-016,0.0));
#175=CARTESIAN_POINT('',(6.0,6.0,-4.76));
#176=DIRECTION('',(0.0,0.0,1.0));
#177=DIRECTION('',(-1.0,1.48029736616688E-016,0.0));
#178=SURFACE_STYLE_FILL_AREA(#210);
#179=ORIENTED_EDGE('',*,*,#65,.T.);
#180=ORIENTED_EDGE('',*,*,#57,.T.);
#181=ORIENTED_EDGE('',*,*,#55,.T.);
#182=ORIENTED_EDGE('',*,*,#43,.F.);
#183=CARTESIAN_POINT('',(6.0,6.0,0.0));
#184=DIRECTION('',(-0.0,-0.0,1.0));
#185=DIRECTION('',(1.0,-4.44089209850063E-016,0.0));
#186=SURFACE_STYLE_FILL_AREA(#211);
#187=ORIENTED_EDGE('',*,*,#65,.F.);
#188=ORIENTED_EDGE('',*,*,#63,.F.);
#189=ORIENTED_EDGE('',*,*,#55,.F.);
#190=ORIENTED_EDGE('',*,*,#45,.T.);
#191=CARTESIAN_POINT('',(6.0,6.0,0.0));
#192=DIRECTION('',(-0.0,-0.0,1.0));
#193=DIRECTION('',(1.0,-4.44089209850063E-016,0.0));
#194=SURFACE_STYLE_FILL_AREA(#212);
#195=ORIENTED_EDGE('',*,*,#63,.T.);
#196=ORIENTED_EDGE('',*,*,#43,.T.);
#197=CARTESIAN_POINT('',(6.0,6.0,0.0));
#198=DIRECTION('',(0.0,0.0,1.0));
#199=DIRECTION('',(1.0,0.0,0.0));
#200=DIRECTION('',(-0.190808995376545,5.64908106593693E-017,0.981627183447664));
#201=CARTESIAN_POINT('',(6.0,6.0,-4.76));
#202=DIRECTION('',(0.0,0.0,1.0));
#203=DIRECTION('',(-1.0,1.48029736616688E-016,0.0));
#204=SURFACE_STYLE_FILL_AREA(#213);
#205=CARTESIAN_POINT('',(6.0,6.0,0.0));
#206=DIRECTION('',(0.0,0.0,1.0));
#207=DIRECTION('',(1.0,-4.44089209850063E-016,0.0));
#208=DIRECTION('',(-0.190808995376545,5.64908106593693E-017,-0.981627183447664));
#209=FILL_AREA_STYLE('',(#214));
#210=FILL_AREA_STYLE('',(#215));
#211=FILL_AREA_STYLE('',(#216));
#212=FILL_AREA_STYLE('',(#217));
#213=FILL_AREA_STYLE('',(#218));
#214=FILL_AREA_STYLE_COLOUR('',#219);
#215=FILL_AREA_STYLE_COLOUR('',#220);
#216=FILL_AREA_STYLE_COLOUR('',#221);
#217=FILL_AREA_STYLE_COLOUR('',#222);
#218=FILL_AREA_STYLE_COLOUR('',#223);
#219=COLOUR_RGB('',0.800000011920929,0.800000011920929,0.800000011920929);
#220=COLOUR_RGB('',0.800000011920929,0.800000011920929,0.800000011920929);
#221=COLOUR_RGB('',0.800000011920929,0.800000011920929,0.800000011920929);
#222=COLOUR_RGB('',0.800000011920929,0.800000011920929,0.800000011920929);
#223=COLOUR_RGB('',0.800000011920929,0.800000011920929,0.800000011920929);
#224=AXIS2_PLACEMENT_3D('PCS',#225,#226,#227);
#225=CARTESIAN_POINT('',(0.0,0.0,0.0));
#226=DIRECTION('',(0.0,0.0,1.0));
#227=DIRECTION('',(1.0,0.0,0.0));
#228=AXIS2_PLACEMENT_3D('MCS',#229,#230,#231);
#229=CARTESIAN_POINT('',(6.0,6.0,0.0));
#230=DIRECTION('',(0.0,0.0,1.0));
#231=DIRECTION('',(1.0,0.0,0.0));
#232=CONSTRUCTIVE_GEOMETRY_REPRESENTATION_RELATIONSHIP('coordinate systems',$,#29,#233);
#233=CONSTRUCTIVE_GEOMETRY_REPRESENTATION('coordinate systems',(#224,#228),#6);
ENDSEC;
END-ISO-10303-21;
