ISO-10303-21;
HEADER;
FILE_DESCRIPTION(('no description'),'unknown implementation level');
FILE_NAME('solid0DnlHe7KBDujS3C4r_TmeD5rMSA_1.STP','  ',('CIMSOURCE GmbH'),('CADClick - KiM GmbH - www.kimweb.de'),'unknown preprocess','ACIS','unknown authorization');
FILE_SCHEMA(('automotive_design'));
ENDSEC;
DATA;
#1=MECHANICAL_DESIGN_GEOMETRIC_PRESENTATION_REPRESENTATION(' ',(#10,#11,#12,#13,#14,#15,#16,#17,#18,#19,#20,#21,#22,#23,#24),#6);
#2=PRODUCT_DEFINITION_CONTEXT('',#25,'design');
#3=APPLICATION_PROTOCOL_DEFINITION('INTERNATIONAL STANDARD','automotive_design',1994,#25);
#4=PRODUCT_CATEGORY_RELATIONSHIP('NONE','NONE',#26,#27);
#5=SHAPE_DEFINITION_REPRESENTATION(#28,#29);
#6= (GEOMETRIC_REPRESENTATION_CONTEXT(3)GLOBAL_UNCERTAINTY_ASSIGNED_CONTEXT((#32))GLOBAL_UNIT_ASSIGNED_CONTEXT((#34,#35,#36))REPRESENTATION_CONTEXT('NONE','WORKSPACE'));
#10=STYLED_ITEM('',(#38),#39);
#11=STYLED_ITEM('',(#40),#41);
#12=STYLED_ITEM('',(#42),#43);
#13=STYLED_ITEM('',(#44),#45);
#14=STYLED_ITEM('',(#46),#47);
#15=STYLED_ITEM('',(#48),#49);
#16=STYLED_ITEM('',(#50),#51);
#17=STYLED_ITEM('',(#52),#53);
#18=STYLED_ITEM('',(#54),#55);
#19=STYLED_ITEM('',(#56),#57);
#20=STYLED_ITEM('',(#58),#59);
#21=STYLED_ITEM('',(#60),#61);
#22=STYLED_ITEM('',(#62),#63);
#23=STYLED_ITEM('',(#64),#65);
#24=STYLED_ITEM('',(#66),#67);
#25=APPLICATION_CONTEXT(' ');
#26=PRODUCT_CATEGORY('part','NONE');
#27=PRODUCT_RELATED_PRODUCT_CATEGORY('detail',' ',(#68));
#28=PRODUCT_DEFINITION_SHAPE('NONE','NONE',#69);
#29=ADVANCED_BREP_SHAPE_REPRESENTATION('1',(#41,#70),#6);
#32=UNCERTAINTY_MEASURE_WITH_UNIT(LENGTH_MEASURE(1.0E-006),#34,'','');
#34= (CONVERSION_BASED_UNIT('MILLIMETRE',#73)LENGTH_UNIT()NAMED_UNIT(#76));
#35= (NAMED_UNIT(#78)PLANE_ANGLE_UNIT()SI_UNIT($,.RADIAN.));
#36= (NAMED_UNIT(#78)SOLID_ANGLE_UNIT()SI_UNIT($,.STERADIAN.));
#38=PRESENTATION_STYLE_ASSIGNMENT((#84));
#39=EDGE_CURVE('',#49,#59,#85,.T.);
#40=PRESENTATION_STYLE_ASSIGNMENT((#86));
#41=MANIFOLD_SOLID_BREP('1',#87);
#42=PRESENTATION_STYLE_ASSIGNMENT((#88));
#43=ADVANCED_FACE('',(#89),#90,.F.);
#44=PRESENTATION_STYLE_ASSIGNMENT((#91));
#45=ADVANCED_FACE('',(#92),#93,.T.);
#46=PRESENTATION_STYLE_ASSIGNMENT((#94));
#47=ADVANCED_FACE('',(#95),#96,.T.);
#48=PRESENTATION_STYLE_ASSIGNMENT((#97));
#49=VERTEX_POINT('',#98);
#50=PRESENTATION_STYLE_ASSIGNMENT((#99));
#51=VERTEX_POINT('',#100);
#52=PRESENTATION_STYLE_ASSIGNMENT((#101));
#53=VERTEX_POINT('',#102);
#54=PRESENTATION_STYLE_ASSIGNMENT((#103));
#55=EDGE_CURVE('',#53,#51,#104,.T.);
#56=PRESENTATION_STYLE_ASSIGNMENT((#105));
#57=EDGE_CURVE('',#51,#53,#106,.T.);
#58=PRESENTATION_STYLE_ASSIGNMENT((#107));
#59=VERTEX_POINT('',#108);
#60=PRESENTATION_STYLE_ASSIGNMENT((#109));
#61=EDGE_CURVE('',#49,#51,#110,.T.);
#62=PRESENTATION_STYLE_ASSIGNMENT((#111));
#63=EDGE_CURVE('',#53,#59,#112,.T.);
#64=PRESENTATION_STYLE_ASSIGNMENT((#113));
#65=ADVANCED_FACE('',(#114),#115,.T.);
#66=PRESENTATION_STYLE_ASSIGNMENT((#116));
#67=EDGE_CURVE('',#59,#49,#117,.T.);
#68=PRODUCT('1','1','PART-1-DESC',(#118));
#69=PRODUCT_DEFINITION('NONE','NONE',#119,#2);
#70=AXIS2_PLACEMENT_3D('',#120,#121,#122);
#73=LENGTH_MEASURE_WITH_UNIT(LENGTH_MEASURE(1.0),#123);
#76=DIMENSIONAL_EXPONENTS(1.0,0.0,0.0,0.0,0.0,0.0,0.0);
#78=DIMENSIONAL_EXPONENTS(0.0,0.0,0.0,0.0,0.0,0.0,0.0);
#84=CURVE_STYLE('',#124,POSITIVE_LENGTH_MEASURE(1.0E-006),#125);
#85=CIRCLE('',#126,8.0);
#86=SURFACE_STYLE_USAGE(.BOTH.,#127);
#87=CLOSED_SHELL('',(#47,#65,#43,#45));
#88=SURFACE_STYLE_USAGE(.BOTH.,#128);
#89=FACE_OUTER_BOUND('',#129,.T.);
#90=PLANE('',#130);
#91=SURFACE_STYLE_USAGE(.BOTH.,#131);
#92=FACE_OUTER_BOUND('',#132,.T.);
#93=PLANE('',#133);
#94=SURFACE_STYLE_USAGE(.BOTH.,#134);
#95=FACE_OUTER_BOUND('',#135,.T.);
#96=CONICAL_SURFACE('',#136,8.0,0.191986217719376);
#97=POINT_STYLE(' ',#137,POSITIVE_LENGTH_MEASURE(1.0E-006),#138);
#98=CARTESIAN_POINT('',(16.0,8.0,0.0));
#99=POINT_STYLE(' ',#139,POSITIVE_LENGTH_MEASURE(1.0E-006),#140);
#100=CARTESIAN_POINT('',(14.9192454811943,8.0,-5.56));
#101=POINT_STYLE(' ',#141,POSITIVE_LENGTH_MEASURE(1.0E-006),#142);
#102=CARTESIAN_POINT('',(1.08075451880571,8.0,-5.56));
#103=CURVE_STYLE('',#143,POSITIVE_LENGTH_MEASURE(1.0E-006),#144);
#104=CIRCLE('',#145,6.91924548119429);
#105=CURVE_STYLE('',#146,POSITIVE_LENGTH_MEASURE(1.0E-006),#147);
#106=CIRCLE('',#148,6.91924548119429);
#107=POINT_STYLE(' ',#149,POSITIVE_LENGTH_MEASURE(1.0E-006),#150);
#108=CARTESIAN_POINT('',(2.17533787218538E-031,8.00000000000001,0.0));
#109=CURVE_STYLE('',#151,POSITIVE_LENGTH_MEASURE(1.0E-006),#152);
#110=LINE('',#153,#154);
#111=CURVE_STYLE('',#155,POSITIVE_LENGTH_MEASURE(1.0E-006),#156);
#112=LINE('',#157,#158);
#113=SURFACE_STYLE_USAGE(.BOTH.,#159);
#114=FACE_OUTER_BOUND('',#160,.T.);
#115=CONICAL_SURFACE('',#161,8.0,0.191986217719376);
#116=CURVE_STYLE('',#162,POSITIVE_LENGTH_MEASURE(1.0E-006),#163);
#117=CIRCLE('',#164,8.0);
#118=PRODUCT_CONTEXT('',#25,'mechanical');
#119=PRODUCT_DEFINITION_FORMATION_WITH_SPECIFIED_SOURCE(' ','NONE',#68,.NOT_KNOWN.);
#120=CARTESIAN_POINT('',(0.0,0.0,0.0));
#121=DIRECTION('',(0.0,0.0,1.0));
#122=DIRECTION('',(1.0,0.0,0.0));
#123= (NAMED_UNIT(#76)LENGTH_UNIT()SI_UNIT(.MILLI.,.METRE.));
#124=DRAUGHTING_PRE_DEFINED_CURVE_FONT('continuous');
#125=COLOUR_RGB('',0.800000011920929,0.800000011920929,0.800000011920929);
#126=AXIS2_PLACEMENT_3D('',#166,#167,#168);
#127=SURFACE_SIDE_STYLE('',(#169));
#128=SURFACE_SIDE_STYLE('',(#170));
#129=EDGE_LOOP('',(#171,#172));
#130=AXIS2_PLACEMENT_3D('',#173,#174,#175);
#131=SURFACE_SIDE_STYLE('',(#176));
#132=EDGE_LOOP('',(#177,#178));
#133=AXIS2_PLACEMENT_3D('',#179,#180,#181);
#134=SURFACE_SIDE_STYLE('',(#182));
#135=EDGE_LOOP('',(#183,#184,#185,#186));
#136=AXIS2_PLACEMENT_3D('',#187,#188,#189);
#137=PRE_DEFINED_MARKER('');
#138=COLOUR_RGB('',0.800000011920929,0.800000011920929,0.800000011920929);
#139=PRE_DEFINED_MARKER('');
#140=COLOUR_RGB('',0.800000011920929,0.800000011920929,0.800000011920929);
#141=PRE_DEFINED_MARKER('');
#142=COLOUR_RGB('',0.800000011920929,0.800000011920929,0.800000011920929);
#143=DRAUGHTING_PRE_DEFINED_CURVE_FONT('continuous');
#144=COLOUR_RGB('',0.800000011920929,0.800000011920929,0.800000011920929);
#145=AXIS2_PLACEMENT_3D('',#190,#191,#192);
#146=DRAUGHTING_PRE_DEFINED_CURVE_FONT('continuous');
#147=COLOUR_RGB('',0.800000011920929,0.800000011920929,0.800000011920929);
#148=AXIS2_PLACEMENT_3D('',#193,#194,#195);
#149=PRE_DEFINED_MARKER('');
#150=COLOUR_RGB('',0.800000011920929,0.800000011920929,0.800000011920929);
#151=DRAUGHTING_PRE_DEFINED_CURVE_FONT('continuous');
#152=COLOUR_RGB('',0.800000011920929,0.800000011920929,0.800000011920929);
#153=CARTESIAN_POINT('',(16.0,8.0,0.0));
#154=VECTOR('',#196,1.0);
#155=DRAUGHTING_PRE_DEFINED_CURVE_FONT('continuous');
#156=COLOUR_RGB('',0.800000011920929,0.800000011920929,0.800000011920929);
#157=CARTESIAN_POINT('',(0.0,8.0,0.0));
#158=VECTOR('',#197,1.0);
#159=SURFACE_SIDE_STYLE('',(#198));
#160=EDGE_LOOP('',(#199,#200,#201,#202));
#161=AXIS2_PLACEMENT_3D('',#203,#204,#205);
#162=DRAUGHTING_PRE_DEFINED_CURVE_FONT('continuous');
#163=COLOUR_RGB('',0.800000011920929,0.800000011920929,0.800000011920929);
#164=AXIS2_PLACEMENT_3D('',#206,#207,#208);
#166=CARTESIAN_POINT('',(8.0,8.0,0.0));
#167=DIRECTION('',(0.0,0.0,1.0));
#168=DIRECTION('',(1.0,-2.22044604925031E-016,0.0));
#169=SURFACE_STYLE_FILL_AREA(#209);
#170=SURFACE_STYLE_FILL_AREA(#210);
#171=ORIENTED_EDGE('',*,*,#57,.F.);
#172=ORIENTED_EDGE('',*,*,#55,.F.);
#173=CARTESIAN_POINT('',(8.0,8.0,-5.56));
#174=DIRECTION('',(0.0,0.0,1.0));
#175=DIRECTION('',(1.0,0.0,0.0));
#176=SURFACE_STYLE_FILL_AREA(#211);
#177=ORIENTED_EDGE('',*,*,#67,.T.);
#178=ORIENTED_EDGE('',*,*,#39,.T.);
#179=CARTESIAN_POINT('',(8.0,8.0,0.0));
#180=DIRECTION('',(0.0,0.0,1.0));
#181=DIRECTION('',(1.0,0.0,0.0));
#182=SURFACE_STYLE_FILL_AREA(#212);
#183=ORIENTED_EDGE('',*,*,#61,.F.);
#184=ORIENTED_EDGE('',*,*,#67,.F.);
#185=ORIENTED_EDGE('',*,*,#63,.F.);
#186=ORIENTED_EDGE('',*,*,#55,.T.);
#187=CARTESIAN_POINT('',(8.0,8.0,0.0));
#188=DIRECTION('',(-0.0,-0.0,1.0));
#189=DIRECTION('',(1.0,-2.22044604925031E-016,0.0));
#190=CARTESIAN_POINT('',(8.0,8.0,-5.56));
#191=DIRECTION('',(0.0,0.0,1.0));
#192=DIRECTION('',(-1.0,3.33066907387547E-016,0.0));
#193=CARTESIAN_POINT('',(8.0,8.0,-5.56));
#194=DIRECTION('',(0.0,0.0,1.0));
#195=DIRECTION('',(-1.0,3.33066907387547E-016,0.0));
#196=DIRECTION('',(-0.190808995376545,0.0,-0.981627183447664));
#197=DIRECTION('',(-0.190808995376545,-0.0,0.981627183447664));
#198=SURFACE_STYLE_FILL_AREA(#213);
#199=ORIENTED_EDGE('',*,*,#61,.T.);
#200=ORIENTED_EDGE('',*,*,#57,.T.);
#201=ORIENTED_EDGE('',*,*,#63,.T.);
#202=ORIENTED_EDGE('',*,*,#39,.F.);
#203=CARTESIAN_POINT('',(8.0,8.0,0.0));
#204=DIRECTION('',(-0.0,-0.0,1.0));
#205=DIRECTION('',(1.0,-2.22044604925031E-016,0.0));
#206=CARTESIAN_POINT('',(8.0,8.0,0.0));
#207=DIRECTION('',(0.0,0.0,1.0));
#208=DIRECTION('',(1.0,-2.22044604925031E-016,0.0));
#209=FILL_AREA_STYLE('',(#214));
#210=FILL_AREA_STYLE('',(#215));
#211=FILL_AREA_STYLE('',(#216));
#212=FILL_AREA_STYLE('',(#217));
#213=FILL_AREA_STYLE('',(#218));
#214=FILL_AREA_STYLE_COLOUR('',#219);
#215=FILL_AREA_STYLE_COLOUR('',#220);
#216=FILL_AREA_STYLE_COLOUR('',#221);
#217=FILL_AREA_STYLE_COLOUR('',#222);
#218=FILL_AREA_STYLE_COLOUR('',#223);
#219=COLOUR_RGB('',0.800000011920929,0.800000011920929,0.800000011920929);
#220=COLOUR_RGB('',0.800000011920929,0.800000011920929,0.800000011920929);
#221=COLOUR_RGB('',0.800000011920929,0.800000011920929,0.800000011920929);
#222=COLOUR_RGB('',0.800000011920929,0.800000011920929,0.800000011920929);
#223=COLOUR_RGB('',0.800000011920929,0.800000011920929,0.800000011920929);
#224=AXIS2_PLACEMENT_3D('PCS',#225,#226,#227);
#225=CARTESIAN_POINT('',(0.0,0.0,0.0));
#226=DIRECTION('',(0.0,0.0,1.0));
#227=DIRECTION('',(1.0,0.0,0.0));
#228=AXIS2_PLACEMENT_3D('MCS',#229,#230,#231);
#229=CARTESIAN_POINT('',(8.0,8.0,0.0));
#230=DIRECTION('',(0.0,0.0,1.0));
#231=DIRECTION('',(1.0,0.0,0.0));
#232=CONSTRUCTIVE_GEOMETRY_REPRESENTATION_RELATIONSHIP('coordinate systems',$,#29,#233);
#233=CONSTRUCTIVE_GEOMETRY_REPRESENTATION('coordinate systems',(#224,#228),#6);
ENDSEC;
END-ISO-10303-21;
