ISO-10303-21;
HEADER;
FILE_DESCRIPTION(('no description'),'unknown implementation level');
FILE_NAME('solidj5l5ZpJSY3Lk6tRWIOjfMck_Epw_1.STP','  ',('CIMSOURCE GmbH'),('CADClick - KiM GmbH - www.kimweb.de'),'unknown preprocess','ACIS','unknown authorization');
FILE_SCHEMA(('automotive_design'));
ENDSEC;
DATA;
#1=MECHANICAL_DESIGN_GEOMETRIC_PRESENTATION_REPRESENTATION(' ',(#10,#11,#12,#13,#14,#15,#16,#17,#18,#19,#20,#21,#22,#23,#24,#25,#26,#27,#28,#29,#30,#31,#32,#33,#34,#35,#36,#37,#38,#39,#40,#41,#42,#43,#44,#45,#46,#47,#48,#49,#50,#51,#52,#53,#54,#55,#56,#57,#58,#59,#60),#6);
#2=PRODUCT_DEFINITION_CONTEXT('',#61,'design');
#3=APPLICATION_PROTOCOL_DEFINITION('INTERNATIONAL STANDARD','automotive_design',1994,#61);
#4=PRODUCT_CATEGORY_RELATIONSHIP('NONE','NONE',#62,#63);
#5=SHAPE_DEFINITION_REPRESENTATION(#64,#65);
#6= (GEOMETRIC_REPRESENTATION_CONTEXT(3)GLOBAL_UNCERTAINTY_ASSIGNED_CONTEXT((#68))GLOBAL_UNIT_ASSIGNED_CONTEXT((#70,#71,#72))REPRESENTATION_CONTEXT('NONE','WORKSPACE'));
#10=STYLED_ITEM('',(#74),#75);
#11=STYLED_ITEM('',(#76),#77);
#12=STYLED_ITEM('',(#78),#79);
#13=STYLED_ITEM('',(#80),#81);
#14=STYLED_ITEM('',(#82),#83);
#15=STYLED_ITEM('',(#84),#85);
#16=STYLED_ITEM('',(#86),#87);
#17=STYLED_ITEM('',(#88),#89);
#18=STYLED_ITEM('',(#90),#91);
#19=STYLED_ITEM('',(#92),#93);
#20=STYLED_ITEM('',(#94),#95);
#21=STYLED_ITEM('',(#96),#97);
#22=STYLED_ITEM('',(#98),#99);
#23=STYLED_ITEM('',(#100),#101);
#24=STYLED_ITEM('',(#102),#103);
#25=STYLED_ITEM('',(#104),#105);
#26=STYLED_ITEM('',(#106),#107);
#27=STYLED_ITEM('',(#108),#109);
#28=STYLED_ITEM('',(#110),#111);
#29=STYLED_ITEM('',(#112),#113);
#30=STYLED_ITEM('',(#114),#115);
#31=STYLED_ITEM('',(#116),#117);
#32=STYLED_ITEM('',(#118),#119);
#33=STYLED_ITEM('',(#120),#121);
#34=STYLED_ITEM('',(#122),#123);
#35=STYLED_ITEM('',(#124),#125);
#36=STYLED_ITEM('',(#126),#127);
#37=STYLED_ITEM('',(#128),#129);
#38=STYLED_ITEM('',(#130),#131);
#39=STYLED_ITEM('',(#132),#133);
#40=STYLED_ITEM('',(#134),#135);
#41=STYLED_ITEM('',(#136),#137);
#42=STYLED_ITEM('',(#138),#139);
#43=STYLED_ITEM('',(#140),#141);
#44=STYLED_ITEM('',(#142),#143);
#45=STYLED_ITEM('',(#144),#145);
#46=STYLED_ITEM('',(#146),#147);
#47=STYLED_ITEM('',(#148),#149);
#48=STYLED_ITEM('',(#150),#151);
#49=STYLED_ITEM('',(#152),#153);
#50=STYLED_ITEM('',(#154),#155);
#51=STYLED_ITEM('',(#156),#157);
#52=STYLED_ITEM('',(#158),#159);
#53=STYLED_ITEM('',(#160),#161);
#54=STYLED_ITEM('',(#162),#163);
#55=STYLED_ITEM('',(#164),#165);
#56=STYLED_ITEM('',(#166),#167);
#57=STYLED_ITEM('',(#168),#169);
#58=STYLED_ITEM('',(#170),#171);
#59=STYLED_ITEM('',(#172),#173);
#60=STYLED_ITEM('',(#174),#175);
#61=APPLICATION_CONTEXT(' ');
#62=PRODUCT_CATEGORY('part','NONE');
#63=PRODUCT_RELATED_PRODUCT_CATEGORY('detail',' ',(#176));
#64=PRODUCT_DEFINITION_SHAPE('NONE','NONE',#177);
#65=ADVANCED_BREP_SHAPE_REPRESENTATION('1',(#117,#178),#6);
#68=UNCERTAINTY_MEASURE_WITH_UNIT(LENGTH_MEASURE(1.0E-006),#70,'','');
#70= (CONVERSION_BASED_UNIT('MILLIMETRE',#181)LENGTH_UNIT()NAMED_UNIT(#184));
#71= (NAMED_UNIT(#186)PLANE_ANGLE_UNIT()SI_UNIT($,.RADIAN.));
#72= (NAMED_UNIT(#186)SOLID_ANGLE_UNIT()SI_UNIT($,.STERADIAN.));
#74=PRESENTATION_STYLE_ASSIGNMENT((#192));
#75=VERTEX_POINT('',#193);
#76=PRESENTATION_STYLE_ASSIGNMENT((#194));
#77=VERTEX_POINT('',#195);
#78=PRESENTATION_STYLE_ASSIGNMENT((#196));
#79=VERTEX_POINT('',#197);
#80=PRESENTATION_STYLE_ASSIGNMENT((#198));
#81=VERTEX_POINT('',#199);
#82=PRESENTATION_STYLE_ASSIGNMENT((#200));
#83=EDGE_CURVE('',#81,#133,#201,.T.);
#84=PRESENTATION_STYLE_ASSIGNMENT((#202));
#85=VERTEX_POINT('',#203);
#86=PRESENTATION_STYLE_ASSIGNMENT((#204));
#87=VERTEX_POINT('',#205);
#88=PRESENTATION_STYLE_ASSIGNMENT((#206));
#89=ADVANCED_FACE('',(#207),#208,.T.);
#90=PRESENTATION_STYLE_ASSIGNMENT((#209));
#91=VERTEX_POINT('',#210);
#92=PRESENTATION_STYLE_ASSIGNMENT((#211));
#93=EDGE_CURVE('',#137,#87,#212,.T.);
#94=PRESENTATION_STYLE_ASSIGNMENT((#213));
#95=ADVANCED_FACE('',(#214),#215,.T.);
#96=PRESENTATION_STYLE_ASSIGNMENT((#216));
#97=EDGE_CURVE('',#81,#75,#217,.T.);
#98=PRESENTATION_STYLE_ASSIGNMENT((#218));
#99=EDGE_CURVE('',#85,#121,#219,.T.);
#100=PRESENTATION_STYLE_ASSIGNMENT((#220));
#101=VERTEX_POINT('',#221);
#102=PRESENTATION_STYLE_ASSIGNMENT((#222));
#103=ADVANCED_FACE('',(#223),#224,.T.);
#104=PRESENTATION_STYLE_ASSIGNMENT((#225));
#105=EDGE_CURVE('',#91,#137,#226,.T.);
#106=PRESENTATION_STYLE_ASSIGNMENT((#227));
#107=EDGE_CURVE('',#149,#91,#228,.T.);
#108=PRESENTATION_STYLE_ASSIGNMENT((#229));
#109=VERTEX_POINT('',#230);
#110=PRESENTATION_STYLE_ASSIGNMENT((#231));
#111=VERTEX_POINT('',#232);
#112=PRESENTATION_STYLE_ASSIGNMENT((#233));
#113=EDGE_CURVE('',#101,#87,#234,.T.);
#114=PRESENTATION_STYLE_ASSIGNMENT((#235));
#115=EDGE_CURVE('',#133,#77,#236,.T.);
#116=PRESENTATION_STYLE_ASSIGNMENT((#237));
#117=MANIFOLD_SOLID_BREP('1',#238);
#118=PRESENTATION_STYLE_ASSIGNMENT((#239));
#119=ADVANCED_FACE('',(#240),#241,.T.);
#120=PRESENTATION_STYLE_ASSIGNMENT((#242));
#121=VERTEX_POINT('',#243);
#122=PRESENTATION_STYLE_ASSIGNMENT((#244));
#123=EDGE_CURVE('',#75,#159,#245,.T.);
#124=PRESENTATION_STYLE_ASSIGNMENT((#246));
#125=EDGE_CURVE('',#77,#79,#247,.T.);
#126=PRESENTATION_STYLE_ASSIGNMENT((#248));
#127=ADVANCED_FACE('',(#249),#250,.T.);
#128=PRESENTATION_STYLE_ASSIGNMENT((#251));
#129=VERTEX_POINT('',#252);
#130=PRESENTATION_STYLE_ASSIGNMENT((#253));
#131=EDGE_CURVE('',#79,#85,#254,.T.);
#132=PRESENTATION_STYLE_ASSIGNMENT((#255));
#133=VERTEX_POINT('',#256);
#134=PRESENTATION_STYLE_ASSIGNMENT((#257));
#135=EDGE_CURVE('',#133,#159,#258,.T.);
#136=PRESENTATION_STYLE_ASSIGNMENT((#259));
#137=VERTEX_POINT('',#260);
#138=PRESENTATION_STYLE_ASSIGNMENT((#261));
#139=ADVANCED_FACE('',(#262),#263,.T.);
#140=PRESENTATION_STYLE_ASSIGNMENT((#264));
#141=ADVANCED_FACE('',(#265),#266,.T.);
#142=PRESENTATION_STYLE_ASSIGNMENT((#267));
#143=ADVANCED_FACE('',(#268),#269,.T.);
#144=PRESENTATION_STYLE_ASSIGNMENT((#270));
#145=ADVANCED_FACE('',(#271),#272,.F.);
#146=PRESENTATION_STYLE_ASSIGNMENT((#273));
#147=EDGE_CURVE('',#159,#129,#274,.T.);
#148=PRESENTATION_STYLE_ASSIGNMENT((#275));
#149=VERTEX_POINT('',#276);
#150=PRESENTATION_STYLE_ASSIGNMENT((#277));
#151=EDGE_CURVE('',#149,#121,#278,.T.);
#152=PRESENTATION_STYLE_ASSIGNMENT((#279));
#153=EDGE_CURVE('',#79,#149,#280,.T.);
#154=PRESENTATION_STYLE_ASSIGNMENT((#281));
#155=EDGE_CURVE('',#111,#75,#282,.T.);
#156=PRESENTATION_STYLE_ASSIGNMENT((#283));
#157=EDGE_CURVE('',#109,#81,#284,.T.);
#158=PRESENTATION_STYLE_ASSIGNMENT((#285));
#159=VERTEX_POINT('',#286);
#160=PRESENTATION_STYLE_ASSIGNMENT((#287));
#161=EDGE_CURVE('',#121,#137,#288,.T.);
#162=PRESENTATION_STYLE_ASSIGNMENT((#289));
#163=EDGE_CURVE('',#91,#101,#290,.T.);
#164=PRESENTATION_STYLE_ASSIGNMENT((#291));
#165=ADVANCED_FACE('',(#292),#293,.T.);
#166=PRESENTATION_STYLE_ASSIGNMENT((#294));
#167=EDGE_CURVE('',#101,#109,#295,.T.);
#168=PRESENTATION_STYLE_ASSIGNMENT((#296));
#169=EDGE_CURVE('',#87,#111,#297,.T.);
#170=PRESENTATION_STYLE_ASSIGNMENT((#298));
#171=EDGE_CURVE('',#77,#129,#299,.T.);
#172=PRESENTATION_STYLE_ASSIGNMENT((#300));
#173=EDGE_CURVE('',#129,#85,#301,.T.);
#174=PRESENTATION_STYLE_ASSIGNMENT((#302));
#175=EDGE_CURVE('',#109,#111,#303,.T.);
#176=PRODUCT('1','1','PART-1-DESC',(#304));
#177=PRODUCT_DEFINITION('NONE','NONE',#305,#2);
#178=AXIS2_PLACEMENT_3D('',#306,#307,#308);
#181=LENGTH_MEASURE_WITH_UNIT(LENGTH_MEASURE(1.0),#309);
#184=DIMENSIONAL_EXPONENTS(1.0,0.0,0.0,0.0,0.0,0.0,0.0);
#186=DIMENSIONAL_EXPONENTS(0.0,0.0,0.0,0.0,0.0,0.0,0.0);
#192=POINT_STYLE(' ',#310,POSITIVE_LENGTH_MEASURE(1.0E-006),#311);
#193=CARTESIAN_POINT('',(11.9460900640552,1.0,-4.76));
#194=POINT_STYLE(' ',#312,POSITIVE_LENGTH_MEASURE(1.0E-006),#313);
#195=CARTESIAN_POINT('',(11.7,12.6999999999,0.0));
#196=POINT_STYLE(' ',#314,POSITIVE_LENGTH_MEASURE(1.0E-006),#315);
#197=CARTESIAN_POINT('',(1.0,12.7,0.0));
#198=POINT_STYLE(' ',#316,POSITIVE_LENGTH_MEASURE(1.0E-006),#317);
#199=CARTESIAN_POINT('',(12.6999999999,1.0,0.0));
#200=CURVE_STYLE('',#318,POSITIVE_LENGTH_MEASURE(1.0E-006),#319);
#201=LINE('',#320,#321);
#202=POINT_STYLE(' ',#322,POSITIVE_LENGTH_MEASURE(1.0E-006),#323);
#203=CARTESIAN_POINT('',(1.00000000007539,11.9460900639552,-4.76));
#204=POINT_STYLE(' ',#324,POSITIVE_LENGTH_MEASURE(1.0E-006),#325);
#205=CARTESIAN_POINT('',(1.0,0.753909935944794,-4.76));
#206=SURFACE_STYLE_USAGE(.BOTH.,#326);
#207=FACE_OUTER_BOUND('',#327,.T.);
#208=PLANE('',#328);
#209=POINT_STYLE(' ',#329,POSITIVE_LENGTH_MEASURE(1.0E-006),#330);
#210=CARTESIAN_POINT('',(0.0,1.0,0.0));
#211=CURVE_STYLE('',#331,POSITIVE_LENGTH_MEASURE(1.0E-006),#332);
#212=CIRCLE('',#333,0.246090064055207);
#213=SURFACE_STYLE_USAGE(.BOTH.,#334);
#214=FACE_OUTER_BOUND('',#335,.T.);
#215=PLANE('',#336);
#216=CURVE_STYLE('',#337,POSITIVE_LENGTH_MEASURE(1.0E-006),#338);
#217=LINE('',#339,#340);
#218=CURVE_STYLE('',#341,POSITIVE_LENGTH_MEASURE(1.0E-006),#342);
#219=CIRCLE('',#343,0.246090064055204);
#220=POINT_STYLE(' ',#344,POSITIVE_LENGTH_MEASURE(1.0E-006),#345);
#221=CARTESIAN_POINT('',(1.0,0.0,0.0));
#222=SURFACE_STYLE_USAGE(.BOTH.,#346);
#223=FACE_OUTER_BOUND('',#347,.T.);
#224=PLANE('',#348);
#225=CURVE_STYLE('',#349,POSITIVE_LENGTH_MEASURE(1.0E-006),#350);
#226=LINE('',#351,#352);
#227=CURVE_STYLE('',#353,POSITIVE_LENGTH_MEASURE(1.0E-006),#354);
#228=LINE('',#355,#356);
#229=POINT_STYLE(' ',#357,POSITIVE_LENGTH_MEASURE(1.0E-006),#358);
#230=CARTESIAN_POINT('',(11.7,0.0,0.0));
#231=POINT_STYLE(' ',#359,POSITIVE_LENGTH_MEASURE(1.0E-006),#360);
#232=CARTESIAN_POINT('',(11.6999999999246,0.753909936044794,-4.76));
#233=CURVE_STYLE('',#361,POSITIVE_LENGTH_MEASURE(1.0E-006),#362);
#234=LINE('',#363,#364);
#235=CURVE_STYLE('',#365,POSITIVE_LENGTH_MEASURE(1.0E-006),#366);
#236=CIRCLE('',#367,0.999999999999998);
#237=SURFACE_STYLE_USAGE(.BOTH.,#368);
#238=CLOSED_SHELL('',(#165,#103,#119,#95,#127,#143,#139,#141,#145,#89));
#239=SURFACE_STYLE_USAGE(.BOTH.,#369);
#240=FACE_OUTER_BOUND('',#370,.T.);
#241=CONICAL_SURFACE('',#371,0.999999999999998,0.15707963267949);
#242=POINT_STYLE(' ',#372,POSITIVE_LENGTH_MEASURE(1.0E-006),#373);
#243=CARTESIAN_POINT('',(0.753909935944794,11.7,-4.76));
#244=CURVE_STYLE('',#374,POSITIVE_LENGTH_MEASURE(1.0E-006),#375);
#245=LINE('',#376,#377);
#246=CURVE_STYLE('',#378,POSITIVE_LENGTH_MEASURE(1.0E-006),#379);
#247=LINE('',#380,#381);
#248=SURFACE_STYLE_USAGE(.BOTH.,#382);
#249=FACE_OUTER_BOUND('',#383,.T.);
#250=CONICAL_SURFACE('',#384,0.999999999999998,0.15707963267949);
#251=POINT_STYLE(' ',#385,POSITIVE_LENGTH_MEASURE(1.0E-006),#386);
#252=CARTESIAN_POINT('',(11.7,11.9460900640552,-4.76));
#253=CURVE_STYLE('',#387,POSITIVE_LENGTH_MEASURE(1.0E-006),#388);
#254=LINE('',#389,#390);
#255=POINT_STYLE(' ',#391,POSITIVE_LENGTH_MEASURE(1.0E-006),#392);
#256=CARTESIAN_POINT('',(12.7,11.7,0.0));
#257=CURVE_STYLE('',#393,POSITIVE_LENGTH_MEASURE(1.0E-006),#394);
#258=LINE('',#395,#396);
#259=POINT_STYLE(' ',#397,POSITIVE_LENGTH_MEASURE(1.0E-006),#398);
#260=CARTESIAN_POINT('',(0.753909936044794,1.00000000007539,-4.76));
#261=SURFACE_STYLE_USAGE(.BOTH.,#399);
#262=FACE_OUTER_BOUND('',#400,.T.);
#263=CONICAL_SURFACE('',#401,1.0,0.15707963267949);
#264=SURFACE_STYLE_USAGE(.BOTH.,#402);
#265=FACE_OUTER_BOUND('',#403,.T.);
#266=PLANE('',#404);
#267=SURFACE_STYLE_USAGE(.BOTH.,#405);
#268=FACE_OUTER_BOUND('',#406,.T.);
#269=PLANE('',#407);
#270=SURFACE_STYLE_USAGE(.BOTH.,#408);
#271=FACE_OUTER_BOUND('',#409,.T.);
#272=PLANE('',#410);
#273=CURVE_STYLE('',#411,POSITIVE_LENGTH_MEASURE(1.0E-006),#412);
#274=CIRCLE('',#413,0.246090064055204);
#275=POINT_STYLE(' ',#414,POSITIVE_LENGTH_MEASURE(1.0E-006),#415);
#276=CARTESIAN_POINT('',(1.00000008274037E-010,11.7,0.0));
#277=CURVE_STYLE('',#416,POSITIVE_LENGTH_MEASURE(1.0E-006),#417);
#278=LINE('',#418,#419);
#279=CURVE_STYLE('',#420,POSITIVE_LENGTH_MEASURE(1.0E-006),#421);
#280=CIRCLE('',#422,0.999999999999998);
#281=CURVE_STYLE('',#423,POSITIVE_LENGTH_MEASURE(1.0E-006),#424);
#282=CIRCLE('',#425,0.246090064055206);
#283=CURVE_STYLE('',#426,POSITIVE_LENGTH_MEASURE(1.0E-006),#427);
#284=CIRCLE('',#428,1.0);
#285=POINT_STYLE(' ',#429,POSITIVE_LENGTH_MEASURE(1.0E-006),#430);
#286=CARTESIAN_POINT('',(11.9460900639552,11.6999999999246,-4.76));
#287=CURVE_STYLE('',#431,POSITIVE_LENGTH_MEASURE(1.0E-006),#432);
#288=LINE('',#433,#434);
#289=CURVE_STYLE('',#435,POSITIVE_LENGTH_MEASURE(1.0E-006),#436);
#290=CIRCLE('',#437,1.0);
#291=SURFACE_STYLE_USAGE(.BOTH.,#438);
#292=FACE_OUTER_BOUND('',#439,.T.);
#293=CONICAL_SURFACE('',#440,1.0,0.15707963267949);
#294=CURVE_STYLE('',#441,POSITIVE_LENGTH_MEASURE(1.0E-006),#442);
#295=LINE('',#443,#444);
#296=CURVE_STYLE('',#445,POSITIVE_LENGTH_MEASURE(1.0E-006),#446);
#297=LINE('',#447,#448);
#298=CURVE_STYLE('',#449,POSITIVE_LENGTH_MEASURE(1.0E-006),#450);
#299=LINE('',#451,#452);
#300=CURVE_STYLE('',#453,POSITIVE_LENGTH_MEASURE(1.0E-006),#454);
#301=LINE('',#455,#456);
#302=CURVE_STYLE('',#457,POSITIVE_LENGTH_MEASURE(1.0E-006),#458);
#303=LINE('',#459,#460);
#304=PRODUCT_CONTEXT('',#61,'mechanical');
#305=PRODUCT_DEFINITION_FORMATION_WITH_SPECIFIED_SOURCE(' ','NONE',#176,.NOT_KNOWN.);
#306=CARTESIAN_POINT('',(0.0,0.0,0.0));
#307=DIRECTION('',(0.0,0.0,1.0));
#308=DIRECTION('',(1.0,0.0,0.0));
#309= (NAMED_UNIT(#184)LENGTH_UNIT()SI_UNIT(.MILLI.,.METRE.));
#310=PRE_DEFINED_MARKER('');
#311=COLOUR_RGB('',0.800000011920929,0.800000011920929,0.800000011920929);
#312=PRE_DEFINED_MARKER('');
#313=COLOUR_RGB('',0.800000011920929,0.800000011920929,0.800000011920929);
#314=PRE_DEFINED_MARKER('');
#315=COLOUR_RGB('',0.800000011920929,0.800000011920929,0.800000011920929);
#316=PRE_DEFINED_MARKER('');
#317=COLOUR_RGB('',0.800000011920929,0.800000011920929,0.800000011920929);
#318=DRAUGHTING_PRE_DEFINED_CURVE_FONT('continuous');
#319=COLOUR_RGB('',0.800000011920929,0.800000011920929,0.800000011920929);
#320=CARTESIAN_POINT('',(12.7,1.0,0.0));
#321=VECTOR('',#462,1.0);
#322=PRE_DEFINED_MARKER('');
#323=COLOUR_RGB('',0.800000011920929,0.800000011920929,0.800000011920929);
#324=PRE_DEFINED_MARKER('');
#325=COLOUR_RGB('',0.800000011920929,0.800000011920929,0.800000011920929);
#326=SURFACE_SIDE_STYLE('',(#463));
#327=EDGE_LOOP('',(#464,#465,#466,#467,#468,#469,#470,#471));
#328=AXIS2_PLACEMENT_3D('',#472,#473,#474);
#329=PRE_DEFINED_MARKER('');
#330=COLOUR_RGB('',0.800000011920929,0.800000011920929,0.800000011920929);
#331=DRAUGHTING_PRE_DEFINED_CURVE_FONT('continuous');
#332=COLOUR_RGB('',0.800000011920929,0.800000011920929,0.800000011920929);
#333=AXIS2_PLACEMENT_3D('',#475,#476,#477);
#334=SURFACE_SIDE_STYLE('',(#478));
#335=EDGE_LOOP('',(#479,#480,#481,#482));
#336=AXIS2_PLACEMENT_3D('',#483,#484,#485);
#337=DRAUGHTING_PRE_DEFINED_CURVE_FONT('continuous');
#338=COLOUR_RGB('',0.800000011920929,0.800000011920929,0.800000011920929);
#339=CARTESIAN_POINT('',(12.6999999999,1.0,0.0));
#340=VECTOR('',#486,1.0);
#341=DRAUGHTING_PRE_DEFINED_CURVE_FONT('continuous');
#342=COLOUR_RGB('',0.800000011920929,0.800000011920929,0.800000011920929);
#343=AXIS2_PLACEMENT_3D('',#487,#488,#489);
#344=PRE_DEFINED_MARKER('');
#345=COLOUR_RGB('',0.800000011920929,0.800000011920929,0.800000011920929);
#346=SURFACE_SIDE_STYLE('',(#490));
#347=EDGE_LOOP('',(#491,#492,#493,#494));
#348=AXIS2_PLACEMENT_3D('',#495,#496,#497);
#349=DRAUGHTING_PRE_DEFINED_CURVE_FONT('continuous');
#350=COLOUR_RGB('',0.800000011920929,0.800000011920929,0.800000011920929);
#351=CARTESIAN_POINT('',(0.0,1.0,0.0));
#352=VECTOR('',#498,1.0);
#353=DRAUGHTING_PRE_DEFINED_CURVE_FONT('continuous');
#354=COLOUR_RGB('',0.800000011920929,0.800000011920929,0.800000011920929);
#355=CARTESIAN_POINT('',(0.0,11.7,0.0));
#356=VECTOR('',#499,1.0);
#357=PRE_DEFINED_MARKER('');
#358=COLOUR_RGB('',0.800000011920929,0.800000011920929,0.800000011920929);
#359=PRE_DEFINED_MARKER('');
#360=COLOUR_RGB('',0.800000011920929,0.800000011920929,0.800000011920929);
#361=DRAUGHTING_PRE_DEFINED_CURVE_FONT('continuous');
#362=COLOUR_RGB('',0.800000011920929,0.800000011920929,0.800000011920929);
#363=CARTESIAN_POINT('',(1.0,0.0,0.0));
#364=VECTOR('',#500,1.0);
#365=DRAUGHTING_PRE_DEFINED_CURVE_FONT('continuous');
#366=COLOUR_RGB('',0.800000011920929,0.800000011920929,0.800000011920929);
#367=AXIS2_PLACEMENT_3D('',#501,#502,#503);
#368=SURFACE_SIDE_STYLE('',(#504));
#369=SURFACE_SIDE_STYLE('',(#505));
#370=EDGE_LOOP('',(#506,#507,#508,#509));
#371=AXIS2_PLACEMENT_3D('',#510,#511,#512);
#372=PRE_DEFINED_MARKER('');
#373=COLOUR_RGB('',0.800000011920929,0.800000011920929,0.800000011920929);
#374=DRAUGHTING_PRE_DEFINED_CURVE_FONT('continuous');
#375=COLOUR_RGB('',0.800000011920929,0.800000011920929,0.800000011920929);
#376=CARTESIAN_POINT('',(11.9460900640552,1.0,-4.76));
#377=VECTOR('',#513,1.0);
#378=DRAUGHTING_PRE_DEFINED_CURVE_FONT('continuous');
#379=COLOUR_RGB('',0.800000011920929,0.800000011920929,0.800000011920929);
#380=CARTESIAN_POINT('',(11.7,12.7,0.0));
#381=VECTOR('',#514,1.0);
#382=SURFACE_SIDE_STYLE('',(#515));
#383=EDGE_LOOP('',(#516,#517,#518,#519));
#384=AXIS2_PLACEMENT_3D('',#520,#521,#522);
#385=PRE_DEFINED_MARKER('');
#386=COLOUR_RGB('',0.800000011920929,0.800000011920929,0.800000011920929);
#387=DRAUGHTING_PRE_DEFINED_CURVE_FONT('continuous');
#388=COLOUR_RGB('',0.800000011920929,0.800000011920929,0.800000011920929);
#389=CARTESIAN_POINT('',(1.0,12.7,0.0));
#390=VECTOR('',#523,1.0);
#391=PRE_DEFINED_MARKER('');
#392=COLOUR_RGB('',0.800000011920929,0.800000011920929,0.800000011920929);
#393=DRAUGHTING_PRE_DEFINED_CURVE_FONT('continuous');
#394=COLOUR_RGB('',0.800000011920929,0.800000011920929,0.800000011920929);
#395=CARTESIAN_POINT('',(12.7,11.7,0.0));
#396=VECTOR('',#524,1.0);
#397=PRE_DEFINED_MARKER('');
#398=COLOUR_RGB('',0.800000011920929,0.800000011920929,0.800000011920929);
#399=SURFACE_SIDE_STYLE('',(#525));
#400=EDGE_LOOP('',(#526,#527,#528,#529));
#401=AXIS2_PLACEMENT_3D('',#530,#531,#532);
#402=SURFACE_SIDE_STYLE('',(#533));
#403=EDGE_LOOP('',(#534,#535,#536,#537));
#404=AXIS2_PLACEMENT_3D('',#538,#539,#540);
#405=SURFACE_SIDE_STYLE('',(#541));
#406=EDGE_LOOP('',(#542,#543,#544,#545));
#407=AXIS2_PLACEMENT_3D('',#546,#547,#548);
#408=SURFACE_SIDE_STYLE('',(#549));
#409=EDGE_LOOP('',(#550,#551,#552,#553,#554,#555,#556,#557));
#410=AXIS2_PLACEMENT_3D('',#558,#559,#560);
#411=DRAUGHTING_PRE_DEFINED_CURVE_FONT('continuous');
#412=COLOUR_RGB('',0.800000011920929,0.800000011920929,0.800000011920929);
#413=AXIS2_PLACEMENT_3D('',#561,#562,#563);
#414=PRE_DEFINED_MARKER('');
#415=COLOUR_RGB('',0.800000011920929,0.800000011920929,0.800000011920929);
#416=DRAUGHTING_PRE_DEFINED_CURVE_FONT('continuous');
#417=COLOUR_RGB('',0.800000011920929,0.800000011920929,0.800000011920929);
#418=CARTESIAN_POINT('',(1.00000008274037E-010,11.7,0.0));
#419=VECTOR('',#564,1.0);
#420=DRAUGHTING_PRE_DEFINED_CURVE_FONT('continuous');
#421=COLOUR_RGB('',0.800000011920929,0.800000011920929,0.800000011920929);
#422=AXIS2_PLACEMENT_3D('',#565,#566,#567);
#423=DRAUGHTING_PRE_DEFINED_CURVE_FONT('continuous');
#424=COLOUR_RGB('',0.800000011920929,0.800000011920929,0.800000011920929);
#425=AXIS2_PLACEMENT_3D('',#568,#569,#570);
#426=DRAUGHTING_PRE_DEFINED_CURVE_FONT('continuous');
#427=COLOUR_RGB('',0.800000011920929,0.800000011920929,0.800000011920929);
#428=AXIS2_PLACEMENT_3D('',#571,#572,#573);
#429=PRE_DEFINED_MARKER('');
#430=COLOUR_RGB('',0.800000011920929,0.800000011920929,0.800000011920929);
#431=DRAUGHTING_PRE_DEFINED_CURVE_FONT('continuous');
#432=COLOUR_RGB('',0.800000011920929,0.800000011920929,0.800000011920929);
#433=CARTESIAN_POINT('',(0.753909935944794,11.7,-4.76));
#434=VECTOR('',#574,1.0);
#435=DRAUGHTING_PRE_DEFINED_CURVE_FONT('continuous');
#436=COLOUR_RGB('',0.800000011920929,0.800000011920929,0.800000011920929);
#437=AXIS2_PLACEMENT_3D('',#575,#576,#577);
#438=SURFACE_SIDE_STYLE('',(#578));
#439=EDGE_LOOP('',(#579,#580,#581,#582));
#440=AXIS2_PLACEMENT_3D('',#583,#584,#585);
#441=DRAUGHTING_PRE_DEFINED_CURVE_FONT('continuous');
#442=COLOUR_RGB('',0.800000011920929,0.800000011920929,0.800000011920929);
#443=CARTESIAN_POINT('',(1.0,0.0,0.0));
#444=VECTOR('',#586,1.0);
#445=DRAUGHTING_PRE_DEFINED_CURVE_FONT('continuous');
#446=COLOUR_RGB('',0.800000011920929,0.800000011920929,0.800000011920929);
#447=CARTESIAN_POINT('',(1.0,0.753909935944794,-4.76));
#448=VECTOR('',#587,1.0);
#449=DRAUGHTING_PRE_DEFINED_CURVE_FONT('continuous');
#450=COLOUR_RGB('',0.800000011920929,0.800000011920929,0.800000011920929);
#451=CARTESIAN_POINT('',(11.7,12.6999999999,0.0));
#452=VECTOR('',#588,1.0);
#453=DRAUGHTING_PRE_DEFINED_CURVE_FONT('continuous');
#454=COLOUR_RGB('',0.800000011920929,0.800000011920929,0.800000011920929);
#455=CARTESIAN_POINT('',(11.7,11.9460900640552,-4.76));
#456=VECTOR('',#589,1.0);
#457=DRAUGHTING_PRE_DEFINED_CURVE_FONT('continuous');
#458=COLOUR_RGB('',0.800000011920929,0.800000011920929,0.800000011920929);
#459=CARTESIAN_POINT('',(11.7,0.0,0.0));
#460=VECTOR('',#590,1.0);
#462=DIRECTION('',(0.0,1.0,0.0));
#463=SURFACE_STYLE_FILL_AREA(#591);
#464=ORIENTED_EDGE('',*,*,#167,.T.);
#465=ORIENTED_EDGE('',*,*,#157,.T.);
#466=ORIENTED_EDGE('',*,*,#83,.T.);
#467=ORIENTED_EDGE('',*,*,#115,.T.);
#468=ORIENTED_EDGE('',*,*,#125,.T.);
#469=ORIENTED_EDGE('',*,*,#153,.T.);
#470=ORIENTED_EDGE('',*,*,#107,.T.);
#471=ORIENTED_EDGE('',*,*,#163,.T.);
#472=CARTESIAN_POINT('',(6.35,6.35,0.0));
#473=DIRECTION('',(0.0,0.0,1.0));
#474=DIRECTION('',(1.0,0.0,0.0));
#475=CARTESIAN_POINT('',(1.0000000001,1.0000000001,-4.76));
#476=DIRECTION('',(0.0,0.0,1.0));
#477=DIRECTION('',(-1.0,-9.99991200956174E-011,0.0));
#478=SURFACE_STYLE_FILL_AREA(#592);
#479=ORIENTED_EDGE('',*,*,#173,.T.);
#480=ORIENTED_EDGE('',*,*,#131,.F.);
#481=ORIENTED_EDGE('',*,*,#125,.F.);
#482=ORIENTED_EDGE('',*,*,#171,.T.);
#483=CARTESIAN_POINT('',(11.7,12.6999999999,0.0));
#484=DIRECTION('',(0.0,0.987688340598344,-0.156434465019989));
#485=DIRECTION('',(1.0,-0.0,0.0));
#486=DIRECTION('',(-0.156434465019989,0.0,-0.987688340598344));
#487=CARTESIAN_POINT('',(1.0000000001,11.6999999999,-4.76));
#488=DIRECTION('',(0.0,0.0,1.0));
#489=DIRECTION('',(-9.99983429395003E-011,1.0,0.0));
#490=SURFACE_STYLE_FILL_AREA(#593);
#491=ORIENTED_EDGE('',*,*,#123,.T.);
#492=ORIENTED_EDGE('',*,*,#135,.F.);
#493=ORIENTED_EDGE('',*,*,#83,.F.);
#494=ORIENTED_EDGE('',*,*,#97,.T.);
#495=CARTESIAN_POINT('',(12.6999999999,1.0,0.0));
#496=DIRECTION('',(0.987688340598344,-0.0,-0.156434465019989));
#497=DIRECTION('',(-0.0,-1.0,0.0));
#498=DIRECTION('',(0.156434465060473,1.56434994583694E-011,-0.987688340591932));
#499=DIRECTION('',(0.0,-1.0,0.0));
#500=DIRECTION('',(0.0,0.156434465040231,-0.987688340595138));
#501=CARTESIAN_POINT('',(11.6999999999,11.6999999999,0.0));
#502=DIRECTION('',(0.0,-0.0,1.0));
#503=DIRECTION('',(1.0,9.99982319171979E-011,0.0));
#504=SURFACE_STYLE_FILL_AREA(#594);
#505=SURFACE_STYLE_FILL_AREA(#595);
#506=ORIENTED_EDGE('',*,*,#147,.T.);
#507=ORIENTED_EDGE('',*,*,#171,.F.);
#508=ORIENTED_EDGE('',*,*,#115,.F.);
#509=ORIENTED_EDGE('',*,*,#135,.T.);
#510=CARTESIAN_POINT('',(11.6999999999,11.6999999999,0.0));
#511=DIRECTION('',(-0.0,-0.0,1.0));
#512=DIRECTION('',(1.0,9.99982319171979E-011,0.0));
#513=DIRECTION('',(0.0,1.0,0.0));
#514=DIRECTION('',(-1.0,0.0,0.0));
#515=SURFACE_STYLE_FILL_AREA(#596);
#516=ORIENTED_EDGE('',*,*,#99,.T.);
#517=ORIENTED_EDGE('',*,*,#151,.F.);
#518=ORIENTED_EDGE('',*,*,#153,.F.);
#519=ORIENTED_EDGE('',*,*,#131,.T.);
#520=CARTESIAN_POINT('',(1.0000000001,11.6999999999,0.0));
#521=DIRECTION('',(-0.0,-0.0,1.0));
#522=DIRECTION('',(-9.99983429395003E-011,1.0,0.0));
#523=DIRECTION('',(1.5643176942388E-011,-0.156434465060473,-0.987688340591932));
#524=DIRECTION('',(-0.156434465060473,-1.56433151635229E-011,-0.987688340591932));
#525=SURFACE_STYLE_FILL_AREA(#597);
#526=ORIENTED_EDGE('',*,*,#93,.T.);
#527=ORIENTED_EDGE('',*,*,#113,.F.);
#528=ORIENTED_EDGE('',*,*,#163,.F.);
#529=ORIENTED_EDGE('',*,*,#105,.T.);
#530=CARTESIAN_POINT('',(1.0000000001,1.0000000001,0.0));
#531=DIRECTION('',(0.0,-0.0,1.0));
#532=DIRECTION('',(-1.0,-9.99991200956174E-011,0.0));
#533=SURFACE_STYLE_FILL_AREA(#598);
#534=ORIENTED_EDGE('',*,*,#169,.T.);
#535=ORIENTED_EDGE('',*,*,#175,.F.);
#536=ORIENTED_EDGE('',*,*,#167,.F.);
#537=ORIENTED_EDGE('',*,*,#113,.T.);
#538=CARTESIAN_POINT('',(1.0,0.0,0.0));
#539=DIRECTION('',(-0.0,-0.987688340595138,-0.156434465040231));
#540=DIRECTION('',(-1.0,0.0,0.0));
#541=SURFACE_STYLE_FILL_AREA(#599);
#542=ORIENTED_EDGE('',*,*,#161,.T.);
#543=ORIENTED_EDGE('',*,*,#105,.F.);
#544=ORIENTED_EDGE('',*,*,#107,.F.);
#545=ORIENTED_EDGE('',*,*,#151,.T.);
#546=CARTESIAN_POINT('',(1.00000008274037E-010,11.7,0.0));
#547=DIRECTION('',(-0.987688340598344,0.0,-0.156434465019989));
#548=DIRECTION('',(0.0,1.0,0.0));
#549=SURFACE_STYLE_FILL_AREA(#600);
#550=ORIENTED_EDGE('',*,*,#155,.F.);
#551=ORIENTED_EDGE('',*,*,#169,.F.);
#552=ORIENTED_EDGE('',*,*,#93,.F.);
#553=ORIENTED_EDGE('',*,*,#161,.F.);
#554=ORIENTED_EDGE('',*,*,#99,.F.);
#555=ORIENTED_EDGE('',*,*,#173,.F.);
#556=ORIENTED_EDGE('',*,*,#147,.F.);
#557=ORIENTED_EDGE('',*,*,#123,.F.);
#558=CARTESIAN_POINT('',(6.35,6.35,-4.76));
#559=DIRECTION('',(0.0,0.0,1.0));
#560=DIRECTION('',(1.0,0.0,0.0));
#561=CARTESIAN_POINT('',(11.6999999999,11.6999999999,-4.76));
#562=DIRECTION('',(0.0,-0.0,1.0));
#563=DIRECTION('',(1.0,9.99982319171979E-011,0.0));
#564=DIRECTION('',(0.156434465019989,0.0,-0.987688340598344));
#565=CARTESIAN_POINT('',(1.0000000001,11.6999999999,0.0));
#566=DIRECTION('',(0.0,0.0,1.0));
#567=DIRECTION('',(-9.99983429395003E-011,1.0,0.0));
#568=CARTESIAN_POINT('',(11.6999999999,1.0000000001,-4.76));
#569=DIRECTION('',(0.0,0.0,1.0));
#570=DIRECTION('',(1.00000008274037E-010,-1.0,0.0));
#571=CARTESIAN_POINT('',(11.6999999999,1.0000000001,0.0));
#572=DIRECTION('',(0.0,0.0,1.0));
#573=DIRECTION('',(1.00000008274037E-010,-1.0,0.0));
#574=DIRECTION('',(0.0,-1.0,0.0));
#575=CARTESIAN_POINT('',(1.0000000001,1.0000000001,0.0));
#576=DIRECTION('',(0.0,0.0,1.0));
#577=DIRECTION('',(-1.0,-9.99991200956174E-011,0.0));
#578=SURFACE_STYLE_FILL_AREA(#601);
#579=ORIENTED_EDGE('',*,*,#155,.T.);
#580=ORIENTED_EDGE('',*,*,#97,.F.);
#581=ORIENTED_EDGE('',*,*,#157,.F.);
#582=ORIENTED_EDGE('',*,*,#175,.T.);
#583=CARTESIAN_POINT('',(11.6999999999,1.0000000001,0.0));
#584=DIRECTION('',(-0.0,-0.0,1.0));
#585=DIRECTION('',(1.00000008274037E-010,-1.0,0.0));
#586=DIRECTION('',(1.0,0.0,0.0));
#587=DIRECTION('',(1.0,0.0,0.0));
#588=DIRECTION('',(0.0,-0.156434465019989,-0.987688340598344));
#589=DIRECTION('',(-1.0,0.0,0.0));
#590=DIRECTION('',(-1.56433151635229E-011,0.156434465060473,-0.987688340591932));
#591=FILL_AREA_STYLE('',(#602));
#592=FILL_AREA_STYLE('',(#603));
#593=FILL_AREA_STYLE('',(#604));
#594=FILL_AREA_STYLE('',(#605));
#595=FILL_AREA_STYLE('',(#606));
#596=FILL_AREA_STYLE('',(#607));
#597=FILL_AREA_STYLE('',(#608));
#598=FILL_AREA_STYLE('',(#609));
#599=FILL_AREA_STYLE('',(#610));
#600=FILL_AREA_STYLE('',(#611));
#601=FILL_AREA_STYLE('',(#612));
#602=FILL_AREA_STYLE_COLOUR('',#613);
#603=FILL_AREA_STYLE_COLOUR('',#614);
#604=FILL_AREA_STYLE_COLOUR('',#615);
#605=FILL_AREA_STYLE_COLOUR('',#616);
#606=FILL_AREA_STYLE_COLOUR('',#617);
#607=FILL_AREA_STYLE_COLOUR('',#618);
#608=FILL_AREA_STYLE_COLOUR('',#619);
#609=FILL_AREA_STYLE_COLOUR('',#620);
#610=FILL_AREA_STYLE_COLOUR('',#621);
#611=FILL_AREA_STYLE_COLOUR('',#622);
#612=FILL_AREA_STYLE_COLOUR('',#623);
#613=COLOUR_RGB('',0.800000011920929,0.800000011920929,0.800000011920929);
#614=COLOUR_RGB('',0.800000011920929,0.800000011920929,0.800000011920929);
#615=COLOUR_RGB('',0.800000011920929,0.800000011920929,0.800000011920929);
#616=COLOUR_RGB('',0.800000011920929,0.800000011920929,0.800000011920929);
#617=COLOUR_RGB('',0.800000011920929,0.800000011920929,0.800000011920929);
#618=COLOUR_RGB('',0.800000011920929,0.800000011920929,0.800000011920929);
#619=COLOUR_RGB('',0.800000011920929,0.800000011920929,0.800000011920929);
#620=COLOUR_RGB('',0.800000011920929,0.800000011920929,0.800000011920929);
#621=COLOUR_RGB('',0.800000011920929,0.800000011920929,0.800000011920929);
#622=COLOUR_RGB('',0.800000011920929,0.800000011920929,0.800000011920929);
#623=COLOUR_RGB('',0.800000011920929,0.800000011920929,0.800000011920929);
#624=AXIS2_PLACEMENT_3D('PCS',#625,#626,#627);
#625=CARTESIAN_POINT('',(0.0,0.0,0.0));
#626=DIRECTION('',(0.0,0.0,1.0));
#627=DIRECTION('',(1.0,0.0,0.0));
#628=AXIS2_PLACEMENT_3D('MCS',#629,#630,#631);
#629=CARTESIAN_POINT('',(6.35,6.35,0.0));
#630=DIRECTION('',(0.0,0.0,1.0));
#631=DIRECTION('',(1.0,0.0,0.0));
#632=CONSTRUCTIVE_GEOMETRY_REPRESENTATION_RELATIONSHIP('coordinate systems',$,#65,#633);
#633=CONSTRUCTIVE_GEOMETRY_REPRESENTATION('coordinate systems',(#624,#628),#6);
ENDSEC;
END-ISO-10303-21;
