ISO-10303-21;
HEADER;
FILE_DESCRIPTION(('no description'),'unknown implementation level');
FILE_NAME('solidW_jFF3HlZ1u_x84pD43vH_2EVJU_1.STP','  ',('CIMSOURCE GmbH'),('CADClick - KiM GmbH - www.kimweb.de'),'unknown preprocess','ACIS','unknown authorization');
FILE_SCHEMA(('automotive_design'));
ENDSEC;
DATA;
#1=MECHANICAL_DESIGN_GEOMETRIC_PRESENTATION_REPRESENTATION(' ',(#10,#11,#12,#13,#14,#15,#16,#17,#18,#19,#20,#21,#22,#23,#24,#25,#26,#27,#28,#29,#30,#31,#32,#33,#34,#35,#36,#37,#38,#39,#40,#41,#42,#43,#44,#45,#46,#47,#48,#49,#50,#51,#52,#53,#54,#55,#56,#57,#58,#59,#60),#6);
#2=PRODUCT_DEFINITION_CONTEXT('',#61,'design');
#3=APPLICATION_PROTOCOL_DEFINITION('INTERNATIONAL STANDARD','automotive_design',1994,#61);
#4=PRODUCT_CATEGORY_RELATIONSHIP('NONE','NONE',#62,#63);
#5=SHAPE_DEFINITION_REPRESENTATION(#64,#65);
#6= (GEOMETRIC_REPRESENTATION_CONTEXT(3)GLOBAL_UNCERTAINTY_ASSIGNED_CONTEXT((#68))GLOBAL_UNIT_ASSIGNED_CONTEXT((#70,#71,#72))REPRESENTATION_CONTEXT('NONE','WORKSPACE'));
#10=STYLED_ITEM('',(#74),#75);
#11=STYLED_ITEM('',(#76),#77);
#12=STYLED_ITEM('',(#78),#79);
#13=STYLED_ITEM('',(#80),#81);
#14=STYLED_ITEM('',(#82),#83);
#15=STYLED_ITEM('',(#84),#85);
#16=STYLED_ITEM('',(#86),#87);
#17=STYLED_ITEM('',(#88),#89);
#18=STYLED_ITEM('',(#90),#91);
#19=STYLED_ITEM('',(#92),#93);
#20=STYLED_ITEM('',(#94),#95);
#21=STYLED_ITEM('',(#96),#97);
#22=STYLED_ITEM('',(#98),#99);
#23=STYLED_ITEM('',(#100),#101);
#24=STYLED_ITEM('',(#102),#103);
#25=STYLED_ITEM('',(#104),#105);
#26=STYLED_ITEM('',(#106),#107);
#27=STYLED_ITEM('',(#108),#109);
#28=STYLED_ITEM('',(#110),#111);
#29=STYLED_ITEM('',(#112),#113);
#30=STYLED_ITEM('',(#114),#115);
#31=STYLED_ITEM('',(#116),#117);
#32=STYLED_ITEM('',(#118),#119);
#33=STYLED_ITEM('',(#120),#121);
#34=STYLED_ITEM('',(#122),#123);
#35=STYLED_ITEM('',(#124),#125);
#36=STYLED_ITEM('',(#126),#127);
#37=STYLED_ITEM('',(#128),#129);
#38=STYLED_ITEM('',(#130),#131);
#39=STYLED_ITEM('',(#132),#133);
#40=STYLED_ITEM('',(#134),#135);
#41=STYLED_ITEM('',(#136),#137);
#42=STYLED_ITEM('',(#138),#139);
#43=STYLED_ITEM('',(#140),#141);
#44=STYLED_ITEM('',(#142),#143);
#45=STYLED_ITEM('',(#144),#145);
#46=STYLED_ITEM('',(#146),#147);
#47=STYLED_ITEM('',(#148),#149);
#48=STYLED_ITEM('',(#150),#151);
#49=STYLED_ITEM('',(#152),#153);
#50=STYLED_ITEM('',(#154),#155);
#51=STYLED_ITEM('',(#156),#157);
#52=STYLED_ITEM('',(#158),#159);
#53=STYLED_ITEM('',(#160),#161);
#54=STYLED_ITEM('',(#162),#163);
#55=STYLED_ITEM('',(#164),#165);
#56=STYLED_ITEM('',(#166),#167);
#57=STYLED_ITEM('',(#168),#169);
#58=STYLED_ITEM('',(#170),#171);
#59=STYLED_ITEM('',(#172),#173);
#60=STYLED_ITEM('',(#174),#175);
#61=APPLICATION_CONTEXT(' ');
#62=PRODUCT_CATEGORY('part','NONE');
#63=PRODUCT_RELATED_PRODUCT_CATEGORY('detail',' ',(#176));
#64=PRODUCT_DEFINITION_SHAPE('NONE','NONE',#177);
#65=ADVANCED_BREP_SHAPE_REPRESENTATION('1',(#161,#178),#6);
#68=UNCERTAINTY_MEASURE_WITH_UNIT(LENGTH_MEASURE(1.0E-006),#70,'','');
#70= (CONVERSION_BASED_UNIT('MILLIMETRE',#181)LENGTH_UNIT()NAMED_UNIT(#184));
#71= (NAMED_UNIT(#186)PLANE_ANGLE_UNIT()SI_UNIT($,.RADIAN.));
#72= (NAMED_UNIT(#186)SOLID_ANGLE_UNIT()SI_UNIT($,.STERADIAN.));
#74=PRESENTATION_STYLE_ASSIGNMENT((#192));
#75=EDGE_CURVE('',#155,#141,#193,.T.);
#76=PRESENTATION_STYLE_ASSIGNMENT((#194));
#77=ADVANCED_FACE('',(#195),#196,.T.);
#78=PRESENTATION_STYLE_ASSIGNMENT((#197));
#79=ADVANCED_FACE('',(#198),#199,.T.);
#80=PRESENTATION_STYLE_ASSIGNMENT((#200));
#81=EDGE_CURVE('',#149,#117,#201,.T.);
#82=PRESENTATION_STYLE_ASSIGNMENT((#202));
#83=EDGE_CURVE('',#167,#89,#203,.T.);
#84=PRESENTATION_STYLE_ASSIGNMENT((#204));
#85=EDGE_CURVE('',#137,#89,#205,.T.);
#86=PRESENTATION_STYLE_ASSIGNMENT((#206));
#87=EDGE_CURVE('',#89,#129,#207,.T.);
#88=PRESENTATION_STYLE_ASSIGNMENT((#208));
#89=VERTEX_POINT('',#209);
#90=PRESENTATION_STYLE_ASSIGNMENT((#210));
#91=VERTEX_POINT('',#211);
#92=PRESENTATION_STYLE_ASSIGNMENT((#212));
#93=ADVANCED_FACE('',(#213),#214,.T.);
#94=PRESENTATION_STYLE_ASSIGNMENT((#215));
#95=EDGE_CURVE('',#107,#167,#216,.T.);
#96=PRESENTATION_STYLE_ASSIGNMENT((#217));
#97=EDGE_CURVE('',#137,#147,#218,.T.);
#98=PRESENTATION_STYLE_ASSIGNMENT((#219));
#99=ADVANCED_FACE('',(#220),#221,.T.);
#100=PRESENTATION_STYLE_ASSIGNMENT((#222));
#101=VERTEX_POINT('',#223);
#102=PRESENTATION_STYLE_ASSIGNMENT((#224));
#103=EDGE_CURVE('',#141,#145,#225,.T.);
#104=PRESENTATION_STYLE_ASSIGNMENT((#226));
#105=EDGE_CURVE('',#111,#155,#227,.T.);
#106=PRESENTATION_STYLE_ASSIGNMENT((#228));
#107=VERTEX_POINT('',#229);
#108=PRESENTATION_STYLE_ASSIGNMENT((#230));
#109=EDGE_CURVE('',#115,#101,#231,.T.);
#110=PRESENTATION_STYLE_ASSIGNMENT((#232));
#111=VERTEX_POINT('',#233);
#112=PRESENTATION_STYLE_ASSIGNMENT((#234));
#113=EDGE_CURVE('',#149,#111,#235,.T.);
#114=PRESENTATION_STYLE_ASSIGNMENT((#236));
#115=VERTEX_POINT('',#237);
#116=PRESENTATION_STYLE_ASSIGNMENT((#238));
#117=VERTEX_POINT('',#239);
#118=PRESENTATION_STYLE_ASSIGNMENT((#240));
#119=ADVANCED_FACE('',(#241),#242,.T.);
#120=PRESENTATION_STYLE_ASSIGNMENT((#243));
#121=EDGE_CURVE('',#147,#129,#244,.T.);
#122=PRESENTATION_STYLE_ASSIGNMENT((#245));
#123=EDGE_CURVE('',#91,#115,#246,.T.);
#124=PRESENTATION_STYLE_ASSIGNMENT((#247));
#125=EDGE_CURVE('',#145,#101,#248,.T.);
#126=PRESENTATION_STYLE_ASSIGNMENT((#249));
#127=EDGE_CURVE('',#129,#111,#250,.T.);
#128=PRESENTATION_STYLE_ASSIGNMENT((#251));
#129=VERTEX_POINT('',#252);
#130=PRESENTATION_STYLE_ASSIGNMENT((#253));
#131=ADVANCED_FACE('',(#254),#255,.T.);
#132=PRESENTATION_STYLE_ASSIGNMENT((#256));
#133=EDGE_CURVE('',#115,#107,#257,.T.);
#134=PRESENTATION_STYLE_ASSIGNMENT((#258));
#135=ADVANCED_FACE('',(#259),#260,.T.);
#136=PRESENTATION_STYLE_ASSIGNMENT((#261));
#137=VERTEX_POINT('',#262);
#138=PRESENTATION_STYLE_ASSIGNMENT((#263));
#139=EDGE_CURVE('',#117,#155,#264,.T.);
#140=PRESENTATION_STYLE_ASSIGNMENT((#265));
#141=VERTEX_POINT('',#266);
#142=PRESENTATION_STYLE_ASSIGNMENT((#267));
#143=EDGE_CURVE('',#101,#167,#268,.T.);
#144=PRESENTATION_STYLE_ASSIGNMENT((#269));
#145=VERTEX_POINT('',#270);
#146=PRESENTATION_STYLE_ASSIGNMENT((#271));
#147=VERTEX_POINT('',#272);
#148=PRESENTATION_STYLE_ASSIGNMENT((#273));
#149=VERTEX_POINT('',#274);
#150=PRESENTATION_STYLE_ASSIGNMENT((#275));
#151=ADVANCED_FACE('',(#276),#277,.T.);
#152=PRESENTATION_STYLE_ASSIGNMENT((#278));
#153=EDGE_CURVE('',#91,#145,#279,.T.);
#154=PRESENTATION_STYLE_ASSIGNMENT((#280));
#155=VERTEX_POINT('',#281);
#156=PRESENTATION_STYLE_ASSIGNMENT((#282));
#157=EDGE_CURVE('',#117,#175,#283,.T.);
#158=PRESENTATION_STYLE_ASSIGNMENT((#284));
#159=EDGE_CURVE('',#107,#137,#285,.T.);
#160=PRESENTATION_STYLE_ASSIGNMENT((#286));
#161=MANIFOLD_SOLID_BREP('1',#287);
#162=PRESENTATION_STYLE_ASSIGNMENT((#288));
#163=EDGE_CURVE('',#147,#149,#289,.T.);
#164=PRESENTATION_STYLE_ASSIGNMENT((#290));
#165=EDGE_CURVE('',#175,#91,#291,.T.);
#166=PRESENTATION_STYLE_ASSIGNMENT((#292));
#167=VERTEX_POINT('',#293);
#168=PRESENTATION_STYLE_ASSIGNMENT((#294));
#169=ADVANCED_FACE('',(#295),#296,.T.);
#170=PRESENTATION_STYLE_ASSIGNMENT((#297));
#171=ADVANCED_FACE('',(#298),#299,.F.);
#172=PRESENTATION_STYLE_ASSIGNMENT((#300));
#173=EDGE_CURVE('',#175,#141,#301,.T.);
#174=PRESENTATION_STYLE_ASSIGNMENT((#302));
#175=VERTEX_POINT('',#303);
#176=PRODUCT('1','1','PART-1-DESC',(#304));
#177=PRODUCT_DEFINITION('NONE','NONE',#305,#2);
#178=AXIS2_PLACEMENT_3D('',#306,#307,#308);
#181=LENGTH_MEASURE_WITH_UNIT(LENGTH_MEASURE(1.0),#309);
#184=DIMENSIONAL_EXPONENTS(1.0,0.0,0.0,0.0,0.0,0.0,0.0);
#186=DIMENSIONAL_EXPONENTS(0.0,0.0,0.0,0.0,0.0,0.0,0.0);
#192=CURVE_STYLE('',#310,POSITIVE_LENGTH_MEASURE(1.0E-006),#311);
#193=LINE('',#312,#313);
#194=SURFACE_STYLE_USAGE(.BOTH.,#314);
#195=FACE_OUTER_BOUND('',#315,.T.);
#196=PLANE('',#316);
#197=SURFACE_STYLE_USAGE(.BOTH.,#317);
#198=FACE_OUTER_BOUND('',#318,.T.);
#199=PLANE('',#319);
#200=CURVE_STYLE('',#320,POSITIVE_LENGTH_MEASURE(1.0E-006),#321);
#201=CIRCLE('',#322,0.999999999999998);
#202=CURVE_STYLE('',#323,POSITIVE_LENGTH_MEASURE(1.0E-006),#324);
#203=LINE('',#325,#326);
#204=CURVE_STYLE('',#327,POSITIVE_LENGTH_MEASURE(1.0E-006),#328);
#205=LINE('',#329,#330);
#206=CURVE_STYLE('',#331,POSITIVE_LENGTH_MEASURE(1.0E-006),#332);
#207=CIRCLE('',#333,0.246090064055204);
#208=POINT_STYLE(' ',#334,POSITIVE_LENGTH_MEASURE(1.0E-006),#335);
#209=CARTESIAN_POINT('',(11.9460900639552,11.6999999999246,-4.76));
#210=POINT_STYLE(' ',#336,POSITIVE_LENGTH_MEASURE(1.0E-006),#337);
#211=CARTESIAN_POINT('',(1.0,0.0,0.0));
#212=SURFACE_STYLE_USAGE(.BOTH.,#338);
#213=FACE_OUTER_BOUND('',#339,.T.);
#214=CONICAL_SURFACE('',#340,0.999999999999998,0.15707963267949);
#215=CURVE_STYLE('',#341,POSITIVE_LENGTH_MEASURE(1.0E-006),#342);
#216=LINE('',#343,#344);
#217=CURVE_STYLE('',#345,POSITIVE_LENGTH_MEASURE(1.0E-006),#346);
#218=CIRCLE('',#347,0.999999999999998);
#219=SURFACE_STYLE_USAGE(.BOTH.,#348);
#220=FACE_OUTER_BOUND('',#349,.T.);
#221=CONICAL_SURFACE('',#350,1.0,0.15707963267949);
#222=POINT_STYLE(' ',#351,POSITIVE_LENGTH_MEASURE(1.0E-006),#352);
#223=CARTESIAN_POINT('',(11.6999999999246,0.753909936044794,-4.76));
#224=CURVE_STYLE('',#353,POSITIVE_LENGTH_MEASURE(1.0E-006),#354);
#225=CIRCLE('',#355,0.246090064055207);
#226=CURVE_STYLE('',#356,POSITIVE_LENGTH_MEASURE(1.0E-006),#357);
#227=CIRCLE('',#358,0.246090064055204);
#228=POINT_STYLE(' ',#359,POSITIVE_LENGTH_MEASURE(1.0E-006),#360);
#229=CARTESIAN_POINT('',(12.6999999999,1.0,0.0));
#230=CURVE_STYLE('',#361,POSITIVE_LENGTH_MEASURE(1.0E-006),#362);
#231=LINE('',#363,#364);
#232=POINT_STYLE(' ',#365,POSITIVE_LENGTH_MEASURE(1.0E-006),#366);
#233=CARTESIAN_POINT('',(1.00000000007539,11.9460900639552,-4.76));
#234=CURVE_STYLE('',#367,POSITIVE_LENGTH_MEASURE(1.0E-006),#368);
#235=LINE('',#369,#370);
#236=POINT_STYLE(' ',#371,POSITIVE_LENGTH_MEASURE(1.0E-006),#372);
#237=CARTESIAN_POINT('',(11.7,0.0,0.0));
#238=POINT_STYLE(' ',#373,POSITIVE_LENGTH_MEASURE(1.0E-006),#374);
#239=CARTESIAN_POINT('',(1.00000008274037E-010,11.7,0.0));
#240=SURFACE_STYLE_USAGE(.BOTH.,#375);
#241=FACE_OUTER_BOUND('',#376,.T.);
#242=CONICAL_SURFACE('',#377,1.0,0.15707963267949);
#243=CURVE_STYLE('',#378,POSITIVE_LENGTH_MEASURE(1.0E-006),#379);
#244=LINE('',#380,#381);
#245=CURVE_STYLE('',#382,POSITIVE_LENGTH_MEASURE(1.0E-006),#383);
#246=LINE('',#384,#385);
#247=CURVE_STYLE('',#386,POSITIVE_LENGTH_MEASURE(1.0E-006),#387);
#248=LINE('',#388,#389);
#249=CURVE_STYLE('',#390,POSITIVE_LENGTH_MEASURE(1.0E-006),#391);
#250=LINE('',#392,#393);
#251=POINT_STYLE(' ',#394,POSITIVE_LENGTH_MEASURE(1.0E-006),#395);
#252=CARTESIAN_POINT('',(11.7,11.9460900640552,-4.76));
#253=SURFACE_STYLE_USAGE(.BOTH.,#396);
#254=FACE_OUTER_BOUND('',#397,.T.);
#255=CONICAL_SURFACE('',#398,0.999999999999998,0.15707963267949);
#256=CURVE_STYLE('',#399,POSITIVE_LENGTH_MEASURE(1.0E-006),#400);
#257=CIRCLE('',#401,1.0);
#258=SURFACE_STYLE_USAGE(.BOTH.,#402);
#259=FACE_OUTER_BOUND('',#403,.T.);
#260=PLANE('',#404);
#261=POINT_STYLE(' ',#405,POSITIVE_LENGTH_MEASURE(1.0E-006),#406);
#262=CARTESIAN_POINT('',(12.7,11.7,0.0));
#263=CURVE_STYLE('',#407,POSITIVE_LENGTH_MEASURE(1.0E-006),#408);
#264=LINE('',#409,#410);
#265=POINT_STYLE(' ',#411,POSITIVE_LENGTH_MEASURE(1.0E-006),#412);
#266=CARTESIAN_POINT('',(0.753909936044794,1.00000000007539,-4.76));
#267=CURVE_STYLE('',#413,POSITIVE_LENGTH_MEASURE(1.0E-006),#414);
#268=CIRCLE('',#415,0.246090064055206);
#269=POINT_STYLE(' ',#416,POSITIVE_LENGTH_MEASURE(1.0E-006),#417);
#270=CARTESIAN_POINT('',(1.0,0.753909935944794,-4.76));
#271=POINT_STYLE(' ',#418,POSITIVE_LENGTH_MEASURE(1.0E-006),#419);
#272=CARTESIAN_POINT('',(11.7,12.6999999999,0.0));
#273=POINT_STYLE(' ',#420,POSITIVE_LENGTH_MEASURE(1.0E-006),#421);
#274=CARTESIAN_POINT('',(1.0,12.7,0.0));
#275=SURFACE_STYLE_USAGE(.BOTH.,#422);
#276=FACE_OUTER_BOUND('',#423,.T.);
#277=PLANE('',#424);
#278=CURVE_STYLE('',#425,POSITIVE_LENGTH_MEASURE(1.0E-006),#426);
#279=LINE('',#427,#428);
#280=POINT_STYLE(' ',#429,POSITIVE_LENGTH_MEASURE(1.0E-006),#430);
#281=CARTESIAN_POINT('',(0.753909935944794,11.7,-4.76));
#282=CURVE_STYLE('',#431,POSITIVE_LENGTH_MEASURE(1.0E-006),#432);
#283=LINE('',#433,#434);
#284=CURVE_STYLE('',#435,POSITIVE_LENGTH_MEASURE(1.0E-006),#436);
#285=LINE('',#437,#438);
#286=SURFACE_STYLE_USAGE(.BOTH.,#439);
#287=CLOSED_SHELL('',(#99,#169,#93,#151,#131,#77,#119,#135,#171,#79));
#288=CURVE_STYLE('',#440,POSITIVE_LENGTH_MEASURE(1.0E-006),#441);
#289=LINE('',#442,#443);
#290=CURVE_STYLE('',#444,POSITIVE_LENGTH_MEASURE(1.0E-006),#445);
#291=CIRCLE('',#446,1.0);
#292=POINT_STYLE(' ',#447,POSITIVE_LENGTH_MEASURE(1.0E-006),#448);
#293=CARTESIAN_POINT('',(11.9460900640552,1.0,-4.76));
#294=SURFACE_STYLE_USAGE(.BOTH.,#449);
#295=FACE_OUTER_BOUND('',#450,.T.);
#296=PLANE('',#451);
#297=SURFACE_STYLE_USAGE(.BOTH.,#452);
#298=FACE_OUTER_BOUND('',#453,.T.);
#299=PLANE('',#454);
#300=CURVE_STYLE('',#455,POSITIVE_LENGTH_MEASURE(1.0E-006),#456);
#301=LINE('',#457,#458);
#302=POINT_STYLE(' ',#459,POSITIVE_LENGTH_MEASURE(1.0E-006),#460);
#303=CARTESIAN_POINT('',(0.0,1.0,0.0));
#304=PRODUCT_CONTEXT('',#61,'mechanical');
#305=PRODUCT_DEFINITION_FORMATION_WITH_SPECIFIED_SOURCE(' ','NONE',#176,.NOT_KNOWN.);
#306=CARTESIAN_POINT('',(0.0,0.0,0.0));
#307=DIRECTION('',(0.0,0.0,1.0));
#308=DIRECTION('',(1.0,0.0,0.0));
#309= (NAMED_UNIT(#184)LENGTH_UNIT()SI_UNIT(.MILLI.,.METRE.));
#310=DRAUGHTING_PRE_DEFINED_CURVE_FONT('continuous');
#311=COLOUR_RGB('',0.800000011920929,0.800000011920929,0.800000011920929);
#312=CARTESIAN_POINT('',(0.753909935944794,11.7,-4.76));
#313=VECTOR('',#462,1.0);
#314=SURFACE_SIDE_STYLE('',(#463));
#315=EDGE_LOOP('',(#464,#465,#466,#467));
#316=AXIS2_PLACEMENT_3D('',#468,#469,#470);
#317=SURFACE_SIDE_STYLE('',(#471));
#318=EDGE_LOOP('',(#472,#473,#474,#475,#476,#477,#478,#479));
#319=AXIS2_PLACEMENT_3D('',#480,#481,#482);
#320=DRAUGHTING_PRE_DEFINED_CURVE_FONT('continuous');
#321=COLOUR_RGB('',0.800000011920929,0.800000011920929,0.800000011920929);
#322=AXIS2_PLACEMENT_3D('',#483,#484,#485);
#323=DRAUGHTING_PRE_DEFINED_CURVE_FONT('continuous');
#324=COLOUR_RGB('',0.800000011920929,0.800000011920929,0.800000011920929);
#325=CARTESIAN_POINT('',(11.9460900640552,1.0,-4.76));
#326=VECTOR('',#486,1.0);
#327=DRAUGHTING_PRE_DEFINED_CURVE_FONT('continuous');
#328=COLOUR_RGB('',0.800000011920929,0.800000011920929,0.800000011920929);
#329=CARTESIAN_POINT('',(12.7,11.7,0.0));
#330=VECTOR('',#487,1.0);
#331=DRAUGHTING_PRE_DEFINED_CURVE_FONT('continuous');
#332=COLOUR_RGB('',0.800000011920929,0.800000011920929,0.800000011920929);
#333=AXIS2_PLACEMENT_3D('',#488,#489,#490);
#334=PRE_DEFINED_MARKER('');
#335=COLOUR_RGB('',0.800000011920929,0.800000011920929,0.800000011920929);
#336=PRE_DEFINED_MARKER('');
#337=COLOUR_RGB('',0.800000011920929,0.800000011920929,0.800000011920929);
#338=SURFACE_SIDE_STYLE('',(#491));
#339=EDGE_LOOP('',(#492,#493,#494,#495));
#340=AXIS2_PLACEMENT_3D('',#496,#497,#498);
#341=DRAUGHTING_PRE_DEFINED_CURVE_FONT('continuous');
#342=COLOUR_RGB('',0.800000011920929,0.800000011920929,0.800000011920929);
#343=CARTESIAN_POINT('',(12.6999999999,1.0,0.0));
#344=VECTOR('',#499,1.0);
#345=DRAUGHTING_PRE_DEFINED_CURVE_FONT('continuous');
#346=COLOUR_RGB('',0.800000011920929,0.800000011920929,0.800000011920929);
#347=AXIS2_PLACEMENT_3D('',#500,#501,#502);
#348=SURFACE_SIDE_STYLE('',(#503));
#349=EDGE_LOOP('',(#504,#505,#506,#507));
#350=AXIS2_PLACEMENT_3D('',#508,#509,#510);
#351=PRE_DEFINED_MARKER('');
#352=COLOUR_RGB('',0.800000011920929,0.800000011920929,0.800000011920929);
#353=DRAUGHTING_PRE_DEFINED_CURVE_FONT('continuous');
#354=COLOUR_RGB('',0.800000011920929,0.800000011920929,0.800000011920929);
#355=AXIS2_PLACEMENT_3D('',#511,#512,#513);
#356=DRAUGHTING_PRE_DEFINED_CURVE_FONT('continuous');
#357=COLOUR_RGB('',0.800000011920929,0.800000011920929,0.800000011920929);
#358=AXIS2_PLACEMENT_3D('',#514,#515,#516);
#359=PRE_DEFINED_MARKER('');
#360=COLOUR_RGB('',0.800000011920929,0.800000011920929,0.800000011920929);
#361=DRAUGHTING_PRE_DEFINED_CURVE_FONT('continuous');
#362=COLOUR_RGB('',0.800000011920929,0.800000011920929,0.800000011920929);
#363=CARTESIAN_POINT('',(11.7,0.0,0.0));
#364=VECTOR('',#517,1.0);
#365=PRE_DEFINED_MARKER('');
#366=COLOUR_RGB('',0.800000011920929,0.800000011920929,0.800000011920929);
#367=DRAUGHTING_PRE_DEFINED_CURVE_FONT('continuous');
#368=COLOUR_RGB('',0.800000011920929,0.800000011920929,0.800000011920929);
#369=CARTESIAN_POINT('',(1.0,12.7,0.0));
#370=VECTOR('',#518,1.0);
#371=PRE_DEFINED_MARKER('');
#372=COLOUR_RGB('',0.800000011920929,0.800000011920929,0.800000011920929);
#373=PRE_DEFINED_MARKER('');
#374=COLOUR_RGB('',0.800000011920929,0.800000011920929,0.800000011920929);
#375=SURFACE_SIDE_STYLE('',(#519));
#376=EDGE_LOOP('',(#520,#521,#522,#523));
#377=AXIS2_PLACEMENT_3D('',#524,#525,#526);
#378=DRAUGHTING_PRE_DEFINED_CURVE_FONT('continuous');
#379=COLOUR_RGB('',0.800000011920929,0.800000011920929,0.800000011920929);
#380=CARTESIAN_POINT('',(11.7,12.6999999999,0.0));
#381=VECTOR('',#527,1.0);
#382=DRAUGHTING_PRE_DEFINED_CURVE_FONT('continuous');
#383=COLOUR_RGB('',0.800000011920929,0.800000011920929,0.800000011920929);
#384=CARTESIAN_POINT('',(1.0,0.0,0.0));
#385=VECTOR('',#528,1.0);
#386=DRAUGHTING_PRE_DEFINED_CURVE_FONT('continuous');
#387=COLOUR_RGB('',0.800000011920929,0.800000011920929,0.800000011920929);
#388=CARTESIAN_POINT('',(1.0,0.753909935944794,-4.76));
#389=VECTOR('',#529,1.0);
#390=DRAUGHTING_PRE_DEFINED_CURVE_FONT('continuous');
#391=COLOUR_RGB('',0.800000011920929,0.800000011920929,0.800000011920929);
#392=CARTESIAN_POINT('',(11.7,11.9460900640552,-4.76));
#393=VECTOR('',#530,1.0);
#394=PRE_DEFINED_MARKER('');
#395=COLOUR_RGB('',0.800000011920929,0.800000011920929,0.800000011920929);
#396=SURFACE_SIDE_STYLE('',(#531));
#397=EDGE_LOOP('',(#532,#533,#534,#535));
#398=AXIS2_PLACEMENT_3D('',#536,#537,#538);
#399=DRAUGHTING_PRE_DEFINED_CURVE_FONT('continuous');
#400=COLOUR_RGB('',0.800000011920929,0.800000011920929,0.800000011920929);
#401=AXIS2_PLACEMENT_3D('',#539,#540,#541);
#402=SURFACE_SIDE_STYLE('',(#542));
#403=EDGE_LOOP('',(#543,#544,#545,#546));
#404=AXIS2_PLACEMENT_3D('',#547,#548,#549);
#405=PRE_DEFINED_MARKER('');
#406=COLOUR_RGB('',0.800000011920929,0.800000011920929,0.800000011920929);
#407=DRAUGHTING_PRE_DEFINED_CURVE_FONT('continuous');
#408=COLOUR_RGB('',0.800000011920929,0.800000011920929,0.800000011920929);
#409=CARTESIAN_POINT('',(1.00000008274037E-010,11.7,0.0));
#410=VECTOR('',#550,1.0);
#411=PRE_DEFINED_MARKER('');
#412=COLOUR_RGB('',0.800000011920929,0.800000011920929,0.800000011920929);
#413=DRAUGHTING_PRE_DEFINED_CURVE_FONT('continuous');
#414=COLOUR_RGB('',0.800000011920929,0.800000011920929,0.800000011920929);
#415=AXIS2_PLACEMENT_3D('',#551,#552,#553);
#416=PRE_DEFINED_MARKER('');
#417=COLOUR_RGB('',0.800000011920929,0.800000011920929,0.800000011920929);
#418=PRE_DEFINED_MARKER('');
#419=COLOUR_RGB('',0.800000011920929,0.800000011920929,0.800000011920929);
#420=PRE_DEFINED_MARKER('');
#421=COLOUR_RGB('',0.800000011920929,0.800000011920929,0.800000011920929);
#422=SURFACE_SIDE_STYLE('',(#554));
#423=EDGE_LOOP('',(#555,#556,#557,#558));
#424=AXIS2_PLACEMENT_3D('',#559,#560,#561);
#425=DRAUGHTING_PRE_DEFINED_CURVE_FONT('continuous');
#426=COLOUR_RGB('',0.800000011920929,0.800000011920929,0.800000011920929);
#427=CARTESIAN_POINT('',(1.0,0.0,0.0));
#428=VECTOR('',#562,1.0);
#429=PRE_DEFINED_MARKER('');
#430=COLOUR_RGB('',0.800000011920929,0.800000011920929,0.800000011920929);
#431=DRAUGHTING_PRE_DEFINED_CURVE_FONT('continuous');
#432=COLOUR_RGB('',0.800000011920929,0.800000011920929,0.800000011920929);
#433=CARTESIAN_POINT('',(0.0,11.7,0.0));
#434=VECTOR('',#563,1.0);
#435=DRAUGHTING_PRE_DEFINED_CURVE_FONT('continuous');
#436=COLOUR_RGB('',0.800000011920929,0.800000011920929,0.800000011920929);
#437=CARTESIAN_POINT('',(12.7,1.0,0.0));
#438=VECTOR('',#564,1.0);
#439=SURFACE_SIDE_STYLE('',(#565));
#440=DRAUGHTING_PRE_DEFINED_CURVE_FONT('continuous');
#441=COLOUR_RGB('',0.800000011920929,0.800000011920929,0.800000011920929);
#442=CARTESIAN_POINT('',(11.7,12.7,0.0));
#443=VECTOR('',#566,1.0);
#444=DRAUGHTING_PRE_DEFINED_CURVE_FONT('continuous');
#445=COLOUR_RGB('',0.800000011920929,0.800000011920929,0.800000011920929);
#446=AXIS2_PLACEMENT_3D('',#567,#568,#569);
#447=PRE_DEFINED_MARKER('');
#448=COLOUR_RGB('',0.800000011920929,0.800000011920929,0.800000011920929);
#449=SURFACE_SIDE_STYLE('',(#570));
#450=EDGE_LOOP('',(#571,#572,#573,#574));
#451=AXIS2_PLACEMENT_3D('',#575,#576,#577);
#452=SURFACE_SIDE_STYLE('',(#578));
#453=EDGE_LOOP('',(#579,#580,#581,#582,#583,#584,#585,#586));
#454=AXIS2_PLACEMENT_3D('',#587,#588,#589);
#455=DRAUGHTING_PRE_DEFINED_CURVE_FONT('continuous');
#456=COLOUR_RGB('',0.800000011920929,0.800000011920929,0.800000011920929);
#457=CARTESIAN_POINT('',(0.0,1.0,0.0));
#458=VECTOR('',#590,1.0);
#459=PRE_DEFINED_MARKER('');
#460=COLOUR_RGB('',0.800000011920929,0.800000011920929,0.800000011920929);
#462=DIRECTION('',(0.0,-1.0,0.0));
#463=SURFACE_STYLE_FILL_AREA(#591);
#464=ORIENTED_EDGE('',*,*,#75,.T.);
#465=ORIENTED_EDGE('',*,*,#173,.F.);
#466=ORIENTED_EDGE('',*,*,#157,.F.);
#467=ORIENTED_EDGE('',*,*,#139,.T.);
#468=CARTESIAN_POINT('',(1.00000008274037E-010,11.7,0.0));
#469=DIRECTION('',(-0.987688340598344,0.0,-0.156434465019989));
#470=DIRECTION('',(0.0,1.0,0.0));
#471=SURFACE_STYLE_FILL_AREA(#592);
#472=ORIENTED_EDGE('',*,*,#123,.T.);
#473=ORIENTED_EDGE('',*,*,#133,.T.);
#474=ORIENTED_EDGE('',*,*,#159,.T.);
#475=ORIENTED_EDGE('',*,*,#97,.T.);
#476=ORIENTED_EDGE('',*,*,#163,.T.);
#477=ORIENTED_EDGE('',*,*,#81,.T.);
#478=ORIENTED_EDGE('',*,*,#157,.T.);
#479=ORIENTED_EDGE('',*,*,#165,.T.);
#480=CARTESIAN_POINT('',(6.35,6.35,0.0));
#481=DIRECTION('',(0.0,0.0,1.0));
#482=DIRECTION('',(1.0,0.0,0.0));
#483=CARTESIAN_POINT('',(1.0000000001,11.6999999999,0.0));
#484=DIRECTION('',(0.0,0.0,1.0));
#485=DIRECTION('',(-9.99983429395003E-011,1.0,0.0));
#486=DIRECTION('',(0.0,1.0,0.0));
#487=DIRECTION('',(-0.156434465060473,-1.56433151635229E-011,-0.987688340591932));
#488=CARTESIAN_POINT('',(11.6999999999,11.6999999999,-4.76));
#489=DIRECTION('',(0.0,-0.0,1.0));
#490=DIRECTION('',(1.0,9.99982319171979E-011,0.0));
#491=SURFACE_STYLE_FILL_AREA(#593);
#492=ORIENTED_EDGE('',*,*,#87,.T.);
#493=ORIENTED_EDGE('',*,*,#121,.F.);
#494=ORIENTED_EDGE('',*,*,#97,.F.);
#495=ORIENTED_EDGE('',*,*,#85,.T.);
#496=CARTESIAN_POINT('',(11.6999999999,11.6999999999,0.0));
#497=DIRECTION('',(-0.0,-0.0,1.0));
#498=DIRECTION('',(1.0,9.99982319171979E-011,0.0));
#499=DIRECTION('',(-0.156434465019989,0.0,-0.987688340598344));
#500=CARTESIAN_POINT('',(11.6999999999,11.6999999999,0.0));
#501=DIRECTION('',(0.0,-0.0,1.0));
#502=DIRECTION('',(1.0,9.99982319171979E-011,0.0));
#503=SURFACE_STYLE_FILL_AREA(#594);
#504=ORIENTED_EDGE('',*,*,#143,.T.);
#505=ORIENTED_EDGE('',*,*,#95,.F.);
#506=ORIENTED_EDGE('',*,*,#133,.F.);
#507=ORIENTED_EDGE('',*,*,#109,.T.);
#508=CARTESIAN_POINT('',(11.6999999999,1.0000000001,0.0));
#509=DIRECTION('',(-0.0,-0.0,1.0));
#510=DIRECTION('',(1.00000008274037E-010,-1.0,0.0));
#511=CARTESIAN_POINT('',(1.0000000001,1.0000000001,-4.76));
#512=DIRECTION('',(0.0,0.0,1.0));
#513=DIRECTION('',(-1.0,-9.99991200956174E-011,0.0));
#514=CARTESIAN_POINT('',(1.0000000001,11.6999999999,-4.76));
#515=DIRECTION('',(0.0,0.0,1.0));
#516=DIRECTION('',(-9.99983429395003E-011,1.0,0.0));
#517=DIRECTION('',(-1.56433151635229E-011,0.156434465060473,-0.987688340591932));
#518=DIRECTION('',(1.5643176942388E-011,-0.156434465060473,-0.987688340591932));
#519=SURFACE_STYLE_FILL_AREA(#595);
#520=ORIENTED_EDGE('',*,*,#103,.T.);
#521=ORIENTED_EDGE('',*,*,#153,.F.);
#522=ORIENTED_EDGE('',*,*,#165,.F.);
#523=ORIENTED_EDGE('',*,*,#173,.T.);
#524=CARTESIAN_POINT('',(1.0000000001,1.0000000001,0.0));
#525=DIRECTION('',(0.0,-0.0,1.0));
#526=DIRECTION('',(-1.0,-9.99991200956174E-011,0.0));
#527=DIRECTION('',(0.0,-0.156434465019989,-0.987688340598344));
#528=DIRECTION('',(1.0,0.0,0.0));
#529=DIRECTION('',(1.0,0.0,0.0));
#530=DIRECTION('',(-1.0,0.0,0.0));
#531=SURFACE_STYLE_FILL_AREA(#596);
#532=ORIENTED_EDGE('',*,*,#105,.T.);
#533=ORIENTED_EDGE('',*,*,#139,.F.);
#534=ORIENTED_EDGE('',*,*,#81,.F.);
#535=ORIENTED_EDGE('',*,*,#113,.T.);
#536=CARTESIAN_POINT('',(1.0000000001,11.6999999999,0.0));
#537=DIRECTION('',(-0.0,-0.0,1.0));
#538=DIRECTION('',(-9.99983429395003E-011,1.0,0.0));
#539=CARTESIAN_POINT('',(11.6999999999,1.0000000001,0.0));
#540=DIRECTION('',(0.0,0.0,1.0));
#541=DIRECTION('',(1.00000008274037E-010,-1.0,0.0));
#542=SURFACE_STYLE_FILL_AREA(#597);
#543=ORIENTED_EDGE('',*,*,#125,.T.);
#544=ORIENTED_EDGE('',*,*,#109,.F.);
#545=ORIENTED_EDGE('',*,*,#123,.F.);
#546=ORIENTED_EDGE('',*,*,#153,.T.);
#547=CARTESIAN_POINT('',(1.0,0.0,0.0));
#548=DIRECTION('',(-0.0,-0.987688340595138,-0.156434465040231));
#549=DIRECTION('',(-1.0,0.0,0.0));
#550=DIRECTION('',(0.156434465019989,0.0,-0.987688340598344));
#551=CARTESIAN_POINT('',(11.6999999999,1.0000000001,-4.76));
#552=DIRECTION('',(0.0,0.0,1.0));
#553=DIRECTION('',(1.00000008274037E-010,-1.0,0.0));
#554=SURFACE_STYLE_FILL_AREA(#598);
#555=ORIENTED_EDGE('',*,*,#127,.T.);
#556=ORIENTED_EDGE('',*,*,#113,.F.);
#557=ORIENTED_EDGE('',*,*,#163,.F.);
#558=ORIENTED_EDGE('',*,*,#121,.T.);
#559=CARTESIAN_POINT('',(11.7,12.6999999999,0.0));
#560=DIRECTION('',(0.0,0.987688340598344,-0.156434465019989));
#561=DIRECTION('',(1.0,-0.0,0.0));
#562=DIRECTION('',(0.0,0.156434465040231,-0.987688340595138));
#563=DIRECTION('',(0.0,-1.0,0.0));
#564=DIRECTION('',(0.0,1.0,0.0));
#565=SURFACE_STYLE_FILL_AREA(#599);
#566=DIRECTION('',(-1.0,0.0,0.0));
#567=CARTESIAN_POINT('',(1.0000000001,1.0000000001,0.0));
#568=DIRECTION('',(0.0,0.0,1.0));
#569=DIRECTION('',(-1.0,-9.99991200956174E-011,0.0));
#570=SURFACE_STYLE_FILL_AREA(#600);
#571=ORIENTED_EDGE('',*,*,#83,.T.);
#572=ORIENTED_EDGE('',*,*,#85,.F.);
#573=ORIENTED_EDGE('',*,*,#159,.F.);
#574=ORIENTED_EDGE('',*,*,#95,.T.);
#575=CARTESIAN_POINT('',(12.6999999999,1.0,0.0));
#576=DIRECTION('',(0.987688340598344,-0.0,-0.156434465019989));
#577=DIRECTION('',(-0.0,-1.0,0.0));
#578=SURFACE_STYLE_FILL_AREA(#601);
#579=ORIENTED_EDGE('',*,*,#143,.F.);
#580=ORIENTED_EDGE('',*,*,#125,.F.);
#581=ORIENTED_EDGE('',*,*,#103,.F.);
#582=ORIENTED_EDGE('',*,*,#75,.F.);
#583=ORIENTED_EDGE('',*,*,#105,.F.);
#584=ORIENTED_EDGE('',*,*,#127,.F.);
#585=ORIENTED_EDGE('',*,*,#87,.F.);
#586=ORIENTED_EDGE('',*,*,#83,.F.);
#587=CARTESIAN_POINT('',(6.35,6.35,-4.76));
#588=DIRECTION('',(0.0,0.0,1.0));
#589=DIRECTION('',(1.0,0.0,0.0));
#590=DIRECTION('',(0.156434465060473,1.56434994583694E-011,-0.987688340591932));
#591=FILL_AREA_STYLE('',(#602));
#592=FILL_AREA_STYLE('',(#603));
#593=FILL_AREA_STYLE('',(#604));
#594=FILL_AREA_STYLE('',(#605));
#595=FILL_AREA_STYLE('',(#606));
#596=FILL_AREA_STYLE('',(#607));
#597=FILL_AREA_STYLE('',(#608));
#598=FILL_AREA_STYLE('',(#609));
#599=FILL_AREA_STYLE('',(#610));
#600=FILL_AREA_STYLE('',(#611));
#601=FILL_AREA_STYLE('',(#612));
#602=FILL_AREA_STYLE_COLOUR('',#613);
#603=FILL_AREA_STYLE_COLOUR('',#614);
#604=FILL_AREA_STYLE_COLOUR('',#615);
#605=FILL_AREA_STYLE_COLOUR('',#616);
#606=FILL_AREA_STYLE_COLOUR('',#617);
#607=FILL_AREA_STYLE_COLOUR('',#618);
#608=FILL_AREA_STYLE_COLOUR('',#619);
#609=FILL_AREA_STYLE_COLOUR('',#620);
#610=FILL_AREA_STYLE_COLOUR('',#621);
#611=FILL_AREA_STYLE_COLOUR('',#622);
#612=FILL_AREA_STYLE_COLOUR('',#623);
#613=COLOUR_RGB('',0.800000011920929,0.800000011920929,0.800000011920929);
#614=COLOUR_RGB('',0.800000011920929,0.800000011920929,0.800000011920929);
#615=COLOUR_RGB('',0.800000011920929,0.800000011920929,0.800000011920929);
#616=COLOUR_RGB('',0.800000011920929,0.800000011920929,0.800000011920929);
#617=COLOUR_RGB('',0.800000011920929,0.800000011920929,0.800000011920929);
#618=COLOUR_RGB('',0.800000011920929,0.800000011920929,0.800000011920929);
#619=COLOUR_RGB('',0.800000011920929,0.800000011920929,0.800000011920929);
#620=COLOUR_RGB('',0.800000011920929,0.800000011920929,0.800000011920929);
#621=COLOUR_RGB('',0.800000011920929,0.800000011920929,0.800000011920929);
#622=COLOUR_RGB('',0.800000011920929,0.800000011920929,0.800000011920929);
#623=COLOUR_RGB('',0.800000011920929,0.800000011920929,0.800000011920929);
#624=AXIS2_PLACEMENT_3D('PCS',#625,#626,#627);
#625=CARTESIAN_POINT('',(0.0,0.0,0.0));
#626=DIRECTION('',(0.0,0.0,1.0));
#627=DIRECTION('',(1.0,0.0,0.0));
#628=AXIS2_PLACEMENT_3D('MCS',#629,#630,#631);
#629=CARTESIAN_POINT('',(6.35,6.35,0.0));
#630=DIRECTION('',(0.0,0.0,1.0));
#631=DIRECTION('',(1.0,0.0,0.0));
#632=CONSTRUCTIVE_GEOMETRY_REPRESENTATION_RELATIONSHIP('coordinate systems',$,#65,#633);
#633=CONSTRUCTIVE_GEOMETRY_REPRESENTATION('coordinate systems',(#624,#628),#6);
ENDSEC;
END-ISO-10303-21;
