ISO-10303-21;
HEADER;
FILE_DESCRIPTION(('no description'),'unknown implementation level');
FILE_NAME('solidUCHZlmDSHrQikWfiSBuvawVSdY4_1.STP','  ',('CIMSOURCE GmbH'),('CADClick - KiM GmbH - www.kimweb.de'),'unknown preprocess','ACIS','unknown authorization');
FILE_SCHEMA(('automotive_design'));
ENDSEC;
DATA;
#1=MECHANICAL_DESIGN_GEOMETRIC_PRESENTATION_REPRESENTATION(' ',(#10,#11,#12,#13,#14,#15,#16,#17,#18,#19,#20,#21,#22,#23,#24,#25,#26,#27,#28,#29,#30,#31,#32,#33,#34,#35,#36,#37,#38,#39,#40,#41,#42,#43,#44,#45,#46,#47,#48),#6);
#2=PRODUCT_DEFINITION_CONTEXT('',#49,'design');
#3=APPLICATION_PROTOCOL_DEFINITION('INTERNATIONAL STANDARD','automotive_design',1994,#49);
#4=PRODUCT_CATEGORY_RELATIONSHIP('NONE','NONE',#50,#51);
#5=SHAPE_DEFINITION_REPRESENTATION(#52,#53);
#6= (GEOMETRIC_REPRESENTATION_CONTEXT(3)GLOBAL_UNCERTAINTY_ASSIGNED_CONTEXT((#56))GLOBAL_UNIT_ASSIGNED_CONTEXT((#58,#59,#60))REPRESENTATION_CONTEXT('NONE','WORKSPACE'));
#10=STYLED_ITEM('',(#62),#63);
#11=STYLED_ITEM('',(#64),#65);
#12=STYLED_ITEM('',(#66),#67);
#13=STYLED_ITEM('',(#68),#69);
#14=STYLED_ITEM('',(#70),#71);
#15=STYLED_ITEM('',(#72),#73);
#16=STYLED_ITEM('',(#74),#75);
#17=STYLED_ITEM('',(#76),#77);
#18=STYLED_ITEM('',(#78),#79);
#19=STYLED_ITEM('',(#80),#81);
#20=STYLED_ITEM('',(#82),#83);
#21=STYLED_ITEM('',(#84),#85);
#22=STYLED_ITEM('',(#86),#87);
#23=STYLED_ITEM('',(#88),#89);
#24=STYLED_ITEM('',(#90),#91);
#25=STYLED_ITEM('',(#92),#93);
#26=STYLED_ITEM('',(#94),#95);
#27=STYLED_ITEM('',(#96),#97);
#28=STYLED_ITEM('',(#98),#99);
#29=STYLED_ITEM('',(#100),#101);
#30=STYLED_ITEM('',(#102),#103);
#31=STYLED_ITEM('',(#104),#105);
#32=STYLED_ITEM('',(#106),#107);
#33=STYLED_ITEM('',(#108),#109);
#34=STYLED_ITEM('',(#110),#111);
#35=STYLED_ITEM('',(#112),#113);
#36=STYLED_ITEM('',(#114),#115);
#37=STYLED_ITEM('',(#116),#117);
#38=STYLED_ITEM('',(#118),#119);
#39=STYLED_ITEM('',(#120),#121);
#40=STYLED_ITEM('',(#122),#123);
#41=STYLED_ITEM('',(#124),#125);
#42=STYLED_ITEM('',(#126),#127);
#43=STYLED_ITEM('',(#128),#129);
#44=STYLED_ITEM('',(#130),#131);
#45=STYLED_ITEM('',(#132),#133);
#46=STYLED_ITEM('',(#134),#135);
#47=STYLED_ITEM('',(#136),#137);
#48=STYLED_ITEM('',(#138),#139);
#49=APPLICATION_CONTEXT(' ');
#50=PRODUCT_CATEGORY('part','NONE');
#51=PRODUCT_RELATED_PRODUCT_CATEGORY('detail',' ',(#140));
#52=PRODUCT_DEFINITION_SHAPE('NONE','NONE',#141);
#53=ADVANCED_BREP_SHAPE_REPRESENTATION('1',(#125,#142),#6);
#56=UNCERTAINTY_MEASURE_WITH_UNIT(LENGTH_MEASURE(1.0E-006),#58,'','');
#58= (CONVERSION_BASED_UNIT('MILLIMETRE',#145)LENGTH_UNIT()NAMED_UNIT(#148));
#59= (NAMED_UNIT(#150)PLANE_ANGLE_UNIT()SI_UNIT($,.RADIAN.));
#60= (NAMED_UNIT(#150)SOLID_ANGLE_UNIT()SI_UNIT($,.STERADIAN.));
#62=PRESENTATION_STYLE_ASSIGNMENT((#156));
#63=VERTEX_POINT('',#157);
#64=PRESENTATION_STYLE_ASSIGNMENT((#158));
#65=EDGE_CURVE('',#103,#75,#159,.T.);
#66=PRESENTATION_STYLE_ASSIGNMENT((#160));
#67=ADVANCED_FACE('',(#161),#162,.T.);
#68=PRESENTATION_STYLE_ASSIGNMENT((#163));
#69=EDGE_CURVE('',#79,#123,#164,.T.);
#70=PRESENTATION_STYLE_ASSIGNMENT((#165));
#71=VERTEX_POINT('',#166);
#72=PRESENTATION_STYLE_ASSIGNMENT((#167));
#73=ADVANCED_FACE('',(#168),#169,.T.);
#74=PRESENTATION_STYLE_ASSIGNMENT((#170));
#75=VERTEX_POINT('',#171);
#76=PRESENTATION_STYLE_ASSIGNMENT((#172));
#77=EDGE_CURVE('',#75,#129,#173,.T.);
#78=PRESENTATION_STYLE_ASSIGNMENT((#174));
#79=VERTEX_POINT('',#175);
#80=PRESENTATION_STYLE_ASSIGNMENT((#176));
#81=ADVANCED_FACE('',(#177),#178,.T.);
#82=PRESENTATION_STYLE_ASSIGNMENT((#179));
#83=EDGE_CURVE('',#103,#127,#180,.T.);
#84=PRESENTATION_STYLE_ASSIGNMENT((#181));
#85=ADVANCED_FACE('',(#182),#183,.T.);
#86=PRESENTATION_STYLE_ASSIGNMENT((#184));
#87=EDGE_CURVE('',#131,#133,#185,.T.);
#88=PRESENTATION_STYLE_ASSIGNMENT((#186));
#89=ADVANCED_FACE('',(#187),#188,.T.);
#90=PRESENTATION_STYLE_ASSIGNMENT((#189));
#91=VERTEX_POINT('',#190);
#92=PRESENTATION_STYLE_ASSIGNMENT((#191));
#93=VERTEX_POINT('',#192);
#94=PRESENTATION_STYLE_ASSIGNMENT((#193));
#95=EDGE_CURVE('',#133,#63,#194,.T.);
#96=PRESENTATION_STYLE_ASSIGNMENT((#195));
#97=EDGE_CURVE('',#63,#75,#196,.T.);
#98=PRESENTATION_STYLE_ASSIGNMENT((#197));
#99=EDGE_CURVE('',#79,#93,#198,.T.);
#100=PRESENTATION_STYLE_ASSIGNMENT((#199));
#101=ADVANCED_FACE('',(#200),#201,.F.);
#102=PRESENTATION_STYLE_ASSIGNMENT((#202));
#103=VERTEX_POINT('',#203);
#104=PRESENTATION_STYLE_ASSIGNMENT((#204));
#105=EDGE_CURVE('',#123,#71,#205,.T.);
#106=PRESENTATION_STYLE_ASSIGNMENT((#206));
#107=EDGE_CURVE('',#127,#129,#207,.T.);
#108=PRESENTATION_STYLE_ASSIGNMENT((#208));
#109=EDGE_CURVE('',#93,#131,#209,.T.);
#110=PRESENTATION_STYLE_ASSIGNMENT((#210));
#111=ADVANCED_FACE('',(#211),#212,.T.);
#112=PRESENTATION_STYLE_ASSIGNMENT((#213));
#113=EDGE_CURVE('',#71,#133,#214,.T.);
#114=PRESENTATION_STYLE_ASSIGNMENT((#215));
#115=EDGE_CURVE('',#91,#103,#216,.T.);
#116=PRESENTATION_STYLE_ASSIGNMENT((#217));
#117=EDGE_CURVE('',#91,#63,#218,.T.);
#118=PRESENTATION_STYLE_ASSIGNMENT((#219));
#119=EDGE_CURVE('',#127,#79,#220,.T.);
#120=PRESENTATION_STYLE_ASSIGNMENT((#221));
#121=EDGE_CURVE('',#123,#131,#222,.T.);
#122=PRESENTATION_STYLE_ASSIGNMENT((#223));
#123=VERTEX_POINT('',#224);
#124=PRESENTATION_STYLE_ASSIGNMENT((#225));
#125=MANIFOLD_SOLID_BREP('1',#226);
#126=PRESENTATION_STYLE_ASSIGNMENT((#227));
#127=VERTEX_POINT('',#228);
#128=PRESENTATION_STYLE_ASSIGNMENT((#229));
#129=VERTEX_POINT('',#230);
#130=PRESENTATION_STYLE_ASSIGNMENT((#231));
#131=VERTEX_POINT('',#232);
#132=PRESENTATION_STYLE_ASSIGNMENT((#233));
#133=VERTEX_POINT('',#234);
#134=PRESENTATION_STYLE_ASSIGNMENT((#235));
#135=EDGE_CURVE('',#71,#91,#236,.T.);
#136=PRESENTATION_STYLE_ASSIGNMENT((#237));
#137=ADVANCED_FACE('',(#238),#239,.T.);
#138=PRESENTATION_STYLE_ASSIGNMENT((#240));
#139=EDGE_CURVE('',#129,#93,#241,.T.);
#140=PRODUCT('1','1','PART-1-DESC',(#242));
#141=PRODUCT_DEFINITION('NONE','NONE',#243,#2);
#142=AXIS2_PLACEMENT_3D('',#244,#245,#246);
#145=LENGTH_MEASURE_WITH_UNIT(LENGTH_MEASURE(1.0),#247);
#148=DIMENSIONAL_EXPONENTS(1.0,0.0,0.0,0.0,0.0,0.0,0.0);
#150=DIMENSIONAL_EXPONENTS(0.0,0.0,0.0,0.0,0.0,0.0,0.0);
#156=POINT_STYLE(' ',#248,POSITIVE_LENGTH_MEASURE(1.0E-006),#249);
#157=CARTESIAN_POINT('',(8.66025403793099,14.99999999995,-6.55));
#158=CURVE_STYLE('',#250,POSITIVE_LENGTH_MEASURE(1.0E-006),#251);
#159=LINE('',#252,#253);
#160=SURFACE_STYLE_USAGE(.BOTH.,#254);
#161=FACE_OUTER_BOUND('',#255,.T.);
#162=PLANE('',#256);
#163=CURVE_STYLE('',#257,POSITIVE_LENGTH_MEASURE(1.0E-006),#258);
#164=CIRCLE('',#259,0.800000000000001);
#165=POINT_STYLE(' ',#260,POSITIVE_LENGTH_MEASURE(1.0E-006),#261);
#166=CARTESIAN_POINT('',(10.0458946838995,15.0,0.0));
#167=SURFACE_STYLE_USAGE(.BOTH.,#262);
#168=FACE_OUTER_BOUND('',#263,.T.);
#169=PLANE('',#264);
#170=POINT_STYLE(' ',#265,POSITIVE_LENGTH_MEASURE(1.0E-006),#266);
#171=CARTESIAN_POINT('',(0.692820323027551,1.2,-6.55));
#172=CURVE_STYLE('',#267,POSITIVE_LENGTH_MEASURE(1.0E-006),#268);
#173=CIRCLE('',#269,0.8);
#174=POINT_STYLE(' ',#270,POSITIVE_LENGTH_MEASURE(1.0E-006),#271);
#175=CARTESIAN_POINT('',(17.3205080756888,0.0,0.0));
#176=SURFACE_STYLE_USAGE(.BOTH.,#272);
#177=FACE_OUTER_BOUND('',#273,.T.);
#178=CYLINDRICAL_SURFACE('',#274,0.8);
#179=CURVE_STYLE('',#275,POSITIVE_LENGTH_MEASURE(1.0E-006),#276);
#180=CIRCLE('',#277,0.8);
#181=SURFACE_STYLE_USAGE(.BOTH.,#278);
#182=FACE_OUTER_BOUND('',#279,.T.);
#183=CYLINDRICAL_SURFACE('',#280,0.800000000000002);
#184=CURVE_STYLE('',#281,POSITIVE_LENGTH_MEASURE(1.0E-006),#282);
#185=LINE('',#283,#284);
#186=SURFACE_STYLE_USAGE(.BOTH.,#285);
#187=FACE_OUTER_BOUND('',#286,.T.);
#188=PLANE('',#287);
#189=POINT_STYLE(' ',#288,POSITIVE_LENGTH_MEASURE(1.0E-006),#289);
#190=CARTESIAN_POINT('',(8.66025403793099,14.99999999995,0.0));
#191=POINT_STYLE(' ',#290,POSITIVE_LENGTH_MEASURE(1.0E-006),#291);
#192=CARTESIAN_POINT('',(17.3205080756888,0.0,-6.55));
#193=CURVE_STYLE('',#292,POSITIVE_LENGTH_MEASURE(1.0E-006),#293);
#194=CIRCLE('',#294,0.800000000000002);
#195=CURVE_STYLE('',#295,POSITIVE_LENGTH_MEASURE(1.0E-006),#296);
#196=LINE('',#297,#298);
#197=CURVE_STYLE('',#299,POSITIVE_LENGTH_MEASURE(1.0E-006),#300);
#198=LINE('',#301,#302);
#199=SURFACE_STYLE_USAGE(.BOTH.,#303);
#200=FACE_OUTER_BOUND('',#304,.T.);
#201=PLANE('',#305);
#202=POINT_STYLE(' ',#306,POSITIVE_LENGTH_MEASURE(1.0E-006),#307);
#203=CARTESIAN_POINT('',(0.692820323027551,1.2,0.0));
#204=CURVE_STYLE('',#308,POSITIVE_LENGTH_MEASURE(1.0E-006),#309);
#205=LINE('',#310,#311);
#206=CURVE_STYLE('',#312,POSITIVE_LENGTH_MEASURE(1.0E-006),#313);
#207=LINE('',#314,#315);
#208=CURVE_STYLE('',#316,POSITIVE_LENGTH_MEASURE(1.0E-006),#317);
#209=CIRCLE('',#318,0.800000000000001);
#210=SURFACE_STYLE_USAGE(.BOTH.,#319);
#211=FACE_OUTER_BOUND('',#320,.T.);
#212=PLANE('',#321);
#213=CURVE_STYLE('',#322,POSITIVE_LENGTH_MEASURE(1.0E-006),#323);
#214=LINE('',#324,#325);
#215=CURVE_STYLE('',#326,POSITIVE_LENGTH_MEASURE(1.0E-006),#327);
#216=LINE('',#328,#329);
#217=CURVE_STYLE('',#330,POSITIVE_LENGTH_MEASURE(1.0E-006),#331);
#218=LINE('',#332,#333);
#219=CURVE_STYLE('',#334,POSITIVE_LENGTH_MEASURE(1.0E-006),#335);
#220=LINE('',#336,#337);
#221=CURVE_STYLE('',#338,POSITIVE_LENGTH_MEASURE(1.0E-006),#339);
#222=LINE('',#340,#341);
#223=POINT_STYLE(' ',#342,POSITIVE_LENGTH_MEASURE(1.0E-006),#343);
#224=CARTESIAN_POINT('',(18.0133283986297,1.19999999995,0.0));
#225=SURFACE_STYLE_USAGE(.BOTH.,#344);
#226=CLOSED_SHELL('',(#137,#73,#85,#111,#81,#67,#101,#89));
#227=POINT_STYLE(' ',#345,POSITIVE_LENGTH_MEASURE(1.0E-006),#346);
#228=CARTESIAN_POINT('',(1.3856406460551,0.0,0.0));
#229=POINT_STYLE(' ',#347,POSITIVE_LENGTH_MEASURE(1.0E-006),#348);
#230=CARTESIAN_POINT('',(1.3856406460551,0.0,-6.55));
#231=POINT_STYLE(' ',#349,POSITIVE_LENGTH_MEASURE(1.0E-006),#350);
#232=CARTESIAN_POINT('',(18.0133283986297,1.19999999995,-6.55));
#233=POINT_STYLE(' ',#351,POSITIVE_LENGTH_MEASURE(1.0E-006),#352);
#234=CARTESIAN_POINT('',(10.0458946838995,15.0,-6.55));
#235=CURVE_STYLE('',#353,POSITIVE_LENGTH_MEASURE(1.0E-006),#354);
#236=CIRCLE('',#355,0.800000000000002);
#237=SURFACE_STYLE_USAGE(.BOTH.,#356);
#238=FACE_OUTER_BOUND('',#357,.T.);
#239=CYLINDRICAL_SURFACE('',#358,0.800000000000001);
#240=CURVE_STYLE('',#359,POSITIVE_LENGTH_MEASURE(1.0E-006),#360);
#241=LINE('',#361,#362);
#242=PRODUCT_CONTEXT('',#49,'mechanical');
#243=PRODUCT_DEFINITION_FORMATION_WITH_SPECIFIED_SOURCE(' ','NONE',#140,.NOT_KNOWN.);
#244=CARTESIAN_POINT('',(0.0,0.0,0.0));
#245=DIRECTION('',(0.0,0.0,1.0));
#246=DIRECTION('',(1.0,0.0,0.0));
#247= (NAMED_UNIT(#148)LENGTH_UNIT()SI_UNIT(.MILLI.,.METRE.));
#248=PRE_DEFINED_MARKER('');
#249=COLOUR_RGB('',0.800000011920929,0.800000011920929,0.800000011920929);
#250=DRAUGHTING_PRE_DEFINED_CURVE_FONT('continuous');
#251=COLOUR_RGB('',0.800000011920929,0.800000011920929,0.800000011920929);
#252=CARTESIAN_POINT('',(0.692820323027551,1.2,0.0));
#253=VECTOR('',#364,1.0);
#254=SURFACE_SIDE_STYLE('',(#365));
#255=EDGE_LOOP('',(#366,#367,#368,#369));
#256=AXIS2_PLACEMENT_3D('',#370,#371,#372);
#257=DRAUGHTING_PRE_DEFINED_CURVE_FONT('continuous');
#258=COLOUR_RGB('',0.800000011920929,0.800000011920929,0.800000011920929);
#259=AXIS2_PLACEMENT_3D('',#373,#374,#375);
#260=PRE_DEFINED_MARKER('');
#261=COLOUR_RGB('',0.800000011920929,0.800000011920929,0.800000011920929);
#262=SURFACE_SIDE_STYLE('',(#376));
#263=EDGE_LOOP('',(#377,#378,#379,#380));
#264=AXIS2_PLACEMENT_3D('',#381,#382,#383);
#265=PRE_DEFINED_MARKER('');
#266=COLOUR_RGB('',0.800000011920929,0.800000011920929,0.800000011920929);
#267=DRAUGHTING_PRE_DEFINED_CURVE_FONT('continuous');
#268=COLOUR_RGB('',0.800000011920929,0.800000011920929,0.800000011920929);
#269=AXIS2_PLACEMENT_3D('',#384,#385,#386);
#270=PRE_DEFINED_MARKER('');
#271=COLOUR_RGB('',0.800000011920929,0.800000011920929,0.800000011920929);
#272=SURFACE_SIDE_STYLE('',(#387));
#273=EDGE_LOOP('',(#388,#389,#390,#391));
#274=AXIS2_PLACEMENT_3D('',#392,#393,#394);
#275=DRAUGHTING_PRE_DEFINED_CURVE_FONT('continuous');
#276=COLOUR_RGB('',0.800000011920929,0.800000011920929,0.800000011920929);
#277=AXIS2_PLACEMENT_3D('',#395,#396,#397);
#278=SURFACE_SIDE_STYLE('',(#398));
#279=EDGE_LOOP('',(#399,#400,#401,#402));
#280=AXIS2_PLACEMENT_3D('',#403,#404,#405);
#281=DRAUGHTING_PRE_DEFINED_CURVE_FONT('continuous');
#282=COLOUR_RGB('',0.800000011920929,0.800000011920929,0.800000011920929);
#283=CARTESIAN_POINT('',(18.0133283987163,1.2,-6.55));
#284=VECTOR('',#406,1.0);
#285=SURFACE_SIDE_STYLE('',(#407));
#286=EDGE_LOOP('',(#408,#409,#410,#411,#412,#413));
#287=AXIS2_PLACEMENT_3D('',#414,#415,#416);
#288=PRE_DEFINED_MARKER('');
#289=COLOUR_RGB('',0.800000011920929,0.800000011920929,0.800000011920929);
#290=PRE_DEFINED_MARKER('');
#291=COLOUR_RGB('',0.800000011920929,0.800000011920929,0.800000011920929);
#292=DRAUGHTING_PRE_DEFINED_CURVE_FONT('continuous');
#293=COLOUR_RGB('',0.800000011920929,0.800000011920929,0.800000011920929);
#294=AXIS2_PLACEMENT_3D('',#417,#418,#419);
#295=DRAUGHTING_PRE_DEFINED_CURVE_FONT('continuous');
#296=COLOUR_RGB('',0.800000011920929,0.800000011920929,0.800000011920929);
#297=CARTESIAN_POINT('',(8.66025403784439,15.0,-6.55));
#298=VECTOR('',#420,1.0);
#299=DRAUGHTING_PRE_DEFINED_CURVE_FONT('continuous');
#300=COLOUR_RGB('',0.800000011920929,0.800000011920929,0.800000011920929);
#301=CARTESIAN_POINT('',(17.3205080756888,0.0,0.0));
#302=VECTOR('',#421,1.0);
#303=SURFACE_SIDE_STYLE('',(#422));
#304=EDGE_LOOP('',(#423,#424,#425,#426,#427,#428));
#305=AXIS2_PLACEMENT_3D('',#429,#430,#431);
#306=PRE_DEFINED_MARKER('');
#307=COLOUR_RGB('',0.800000011920929,0.800000011920929,0.800000011920929);
#308=DRAUGHTING_PRE_DEFINED_CURVE_FONT('continuous');
#309=COLOUR_RGB('',0.800000011920929,0.800000011920929,0.800000011920929);
#310=CARTESIAN_POINT('',(18.0133283987163,1.2,0.0));
#311=VECTOR('',#432,1.0);
#312=DRAUGHTING_PRE_DEFINED_CURVE_FONT('continuous');
#313=COLOUR_RGB('',0.800000011920929,0.800000011920929,0.800000011920929);
#314=CARTESIAN_POINT('',(1.3856406460551,0.0,0.0));
#315=VECTOR('',#433,1.0);
#316=DRAUGHTING_PRE_DEFINED_CURVE_FONT('continuous');
#317=COLOUR_RGB('',0.800000011920929,0.800000011920929,0.800000011920929);
#318=AXIS2_PLACEMENT_3D('',#434,#435,#436);
#319=SURFACE_SIDE_STYLE('',(#437));
#320=EDGE_LOOP('',(#438,#439,#440,#441));
#321=AXIS2_PLACEMENT_3D('',#442,#443,#444);
#322=DRAUGHTING_PRE_DEFINED_CURVE_FONT('continuous');
#323=COLOUR_RGB('',0.800000011920929,0.800000011920929,0.800000011920929);
#324=CARTESIAN_POINT('',(10.0458946838995,15.0,0.0));
#325=VECTOR('',#445,1.0);
#326=DRAUGHTING_PRE_DEFINED_CURVE_FONT('continuous');
#327=COLOUR_RGB('',0.800000011920929,0.800000011920929,0.800000011920929);
#328=CARTESIAN_POINT('',(8.66025403784439,15.0,0.0));
#329=VECTOR('',#446,1.0);
#330=DRAUGHTING_PRE_DEFINED_CURVE_FONT('continuous');
#331=COLOUR_RGB('',0.800000011920929,0.800000011920929,0.800000011920929);
#332=CARTESIAN_POINT('',(8.66025403793099,14.99999999995,0.0));
#333=VECTOR('',#447,1.0);
#334=DRAUGHTING_PRE_DEFINED_CURVE_FONT('continuous');
#335=COLOUR_RGB('',0.800000011920929,0.800000011920929,0.800000011920929);
#336=CARTESIAN_POINT('',(1.3856406460551,0.0,0.0));
#337=VECTOR('',#448,1.0);
#338=DRAUGHTING_PRE_DEFINED_CURVE_FONT('continuous');
#339=COLOUR_RGB('',0.800000011920929,0.800000011920929,0.800000011920929);
#340=CARTESIAN_POINT('',(18.0133283986297,1.19999999995,0.0));
#341=VECTOR('',#449,1.0);
#342=PRE_DEFINED_MARKER('');
#343=COLOUR_RGB('',0.800000011920929,0.800000011920929,0.800000011920929);
#344=SURFACE_SIDE_STYLE('',(#450));
#345=PRE_DEFINED_MARKER('');
#346=COLOUR_RGB('',0.800000011920929,0.800000011920929,0.800000011920929);
#347=PRE_DEFINED_MARKER('');
#348=COLOUR_RGB('',0.800000011920929,0.800000011920929,0.800000011920929);
#349=PRE_DEFINED_MARKER('');
#350=COLOUR_RGB('',0.800000011920929,0.800000011920929,0.800000011920929);
#351=PRE_DEFINED_MARKER('');
#352=COLOUR_RGB('',0.800000011920929,0.800000011920929,0.800000011920929);
#353=DRAUGHTING_PRE_DEFINED_CURVE_FONT('continuous');
#354=COLOUR_RGB('',0.800000011920929,0.800000011920929,0.800000011920929);
#355=AXIS2_PLACEMENT_3D('',#451,#452,#453);
#356=SURFACE_SIDE_STYLE('',(#454));
#357=EDGE_LOOP('',(#455,#456,#457,#458));
#358=AXIS2_PLACEMENT_3D('',#459,#460,#461);
#359=DRAUGHTING_PRE_DEFINED_CURVE_FONT('continuous');
#360=COLOUR_RGB('',0.800000011920929,0.800000011920929,0.800000011920929);
#361=CARTESIAN_POINT('',(1.3856406460551,0.0,-6.55));
#362=VECTOR('',#462,1.0);
#364=DIRECTION('',(0.0,0.0,-1.0));
#365=SURFACE_STYLE_FILL_AREA(#463);
#366=ORIENTED_EDGE('',*,*,#139,.T.);
#367=ORIENTED_EDGE('',*,*,#99,.F.);
#368=ORIENTED_EDGE('',*,*,#119,.F.);
#369=ORIENTED_EDGE('',*,*,#107,.T.);
#370=CARTESIAN_POINT('',(1.3856406460551,0.0,0.0));
#371=DIRECTION('',(0.0,-1.0,-0.0));
#372=DIRECTION('',(-1.0,0.0,-0.0));
#373=CARTESIAN_POINT('',(17.3205080755156,0.800000000100001,0.0));
#374=DIRECTION('',(0.0,0.0,1.0));
#375=DIRECTION('',(2.16506812478201E-010,-1.0,0.0));
#376=SURFACE_STYLE_FILL_AREA(#464);
#377=ORIENTED_EDGE('',*,*,#87,.T.);
#378=ORIENTED_EDGE('',*,*,#113,.F.);
#379=ORIENTED_EDGE('',*,*,#105,.F.);
#380=ORIENTED_EDGE('',*,*,#121,.T.);
#381=CARTESIAN_POINT('',(18.0133283986297,1.19999999995,0.0));
#382=DIRECTION('',(0.866025403784439,0.5,0.0));
#383=DIRECTION('',(0.5,-0.866025403784439,-0.0));
#384=CARTESIAN_POINT('',(1.38564064622831,0.8000000001,-6.55));
#385=DIRECTION('',(0.0,0.0,1.0));
#386=DIRECTION('',(-0.866025403892692,0.499999999812499,0.0));
#387=SURFACE_STYLE_FILL_AREA(#465);
#388=ORIENTED_EDGE('',*,*,#77,.T.);
#389=ORIENTED_EDGE('',*,*,#107,.F.);
#390=ORIENTED_EDGE('',*,*,#83,.F.);
#391=ORIENTED_EDGE('',*,*,#65,.T.);
#392=CARTESIAN_POINT('',(1.38564064622831,0.8000000001,0.0));
#393=DIRECTION('',(-0.0,-0.0,1.0));
#394=DIRECTION('',(-0.866025403892692,0.499999999812499,0.0));
#395=CARTESIAN_POINT('',(1.38564064622831,0.8000000001,0.0));
#396=DIRECTION('',(0.0,0.0,1.0));
#397=DIRECTION('',(-0.866025403892692,0.499999999812499,0.0));
#398=SURFACE_STYLE_FILL_AREA(#466);
#399=ORIENTED_EDGE('',*,*,#95,.T.);
#400=ORIENTED_EDGE('',*,*,#117,.F.);
#401=ORIENTED_EDGE('',*,*,#135,.F.);
#402=ORIENTED_EDGE('',*,*,#113,.T.);
#403=CARTESIAN_POINT('',(9.35307436087194,14.5999999998,0.0));
#404=DIRECTION('',(-0.0,-0.0,1.0));
#405=DIRECTION('',(0.866025403676183,0.500000000187505,0.0));
#406=DIRECTION('',(-0.5,0.866025403784439,0.0));
#407=SURFACE_STYLE_FILL_AREA(#467);
#408=ORIENTED_EDGE('',*,*,#119,.T.);
#409=ORIENTED_EDGE('',*,*,#69,.T.);
#410=ORIENTED_EDGE('',*,*,#105,.T.);
#411=ORIENTED_EDGE('',*,*,#135,.T.);
#412=ORIENTED_EDGE('',*,*,#115,.T.);
#413=ORIENTED_EDGE('',*,*,#83,.T.);
#414=CARTESIAN_POINT('',(9.35307436087194,5.4,0.0));
#415=DIRECTION('',(0.0,0.0,1.0));
#416=DIRECTION('',(1.0,0.0,0.0));
#417=CARTESIAN_POINT('',(9.35307436087194,14.5999999998,-6.55));
#418=DIRECTION('',(0.0,-0.0,1.0));
#419=DIRECTION('',(0.866025403676183,0.500000000187505,0.0));
#420=DIRECTION('',(-0.5,-0.866025403784439,0.0));
#421=DIRECTION('',(0.0,0.0,-1.0));
#422=SURFACE_STYLE_FILL_AREA(#468);
#423=ORIENTED_EDGE('',*,*,#109,.F.);
#424=ORIENTED_EDGE('',*,*,#139,.F.);
#425=ORIENTED_EDGE('',*,*,#77,.F.);
#426=ORIENTED_EDGE('',*,*,#97,.F.);
#427=ORIENTED_EDGE('',*,*,#95,.F.);
#428=ORIENTED_EDGE('',*,*,#87,.F.);
#429=CARTESIAN_POINT('',(9.35307436087194,5.4,-6.55));
#430=DIRECTION('',(0.0,0.0,1.0));
#431=DIRECTION('',(1.0,0.0,0.0));
#432=DIRECTION('',(-0.5,0.866025403784439,0.0));
#433=DIRECTION('',(0.0,0.0,-1.0));
#434=CARTESIAN_POINT('',(17.3205080755156,0.800000000100001,-6.55));
#435=DIRECTION('',(0.0,0.0,1.0));
#436=DIRECTION('',(2.16506812478201E-010,-1.0,0.0));
#437=SURFACE_STYLE_FILL_AREA(#469);
#438=ORIENTED_EDGE('',*,*,#97,.T.);
#439=ORIENTED_EDGE('',*,*,#65,.F.);
#440=ORIENTED_EDGE('',*,*,#115,.F.);
#441=ORIENTED_EDGE('',*,*,#117,.T.);
#442=CARTESIAN_POINT('',(8.66025403793099,14.99999999995,0.0));
#443=DIRECTION('',(-0.866025403784439,0.5,0.0));
#444=DIRECTION('',(0.5,0.866025403784439,-0.0));
#445=DIRECTION('',(0.0,0.0,-1.0));
#446=DIRECTION('',(-0.5,-0.866025403784439,0.0));
#447=DIRECTION('',(0.0,0.0,-1.0));
#448=DIRECTION('',(1.0,0.0,0.0));
#449=DIRECTION('',(0.0,0.0,-1.0));
#450=SURFACE_STYLE_FILL_AREA(#470);
#451=CARTESIAN_POINT('',(9.35307436087194,14.5999999998,0.0));
#452=DIRECTION('',(0.0,-0.0,1.0));
#453=DIRECTION('',(0.866025403676183,0.500000000187505,0.0));
#454=SURFACE_STYLE_FILL_AREA(#471);
#455=ORIENTED_EDGE('',*,*,#109,.T.);
#456=ORIENTED_EDGE('',*,*,#121,.F.);
#457=ORIENTED_EDGE('',*,*,#69,.F.);
#458=ORIENTED_EDGE('',*,*,#99,.T.);
#459=CARTESIAN_POINT('',(17.3205080755156,0.800000000100001,0.0));
#460=DIRECTION('',(-0.0,-0.0,1.0));
#461=DIRECTION('',(2.16506812478201E-010,-1.0,0.0));
#462=DIRECTION('',(1.0,0.0,0.0));
#463=FILL_AREA_STYLE('',(#472));
#464=FILL_AREA_STYLE('',(#473));
#465=FILL_AREA_STYLE('',(#474));
#466=FILL_AREA_STYLE('',(#475));
#467=FILL_AREA_STYLE('',(#476));
#468=FILL_AREA_STYLE('',(#477));
#469=FILL_AREA_STYLE('',(#478));
#470=FILL_AREA_STYLE('',(#479));
#471=FILL_AREA_STYLE('',(#480));
#472=FILL_AREA_STYLE_COLOUR('',#481);
#473=FILL_AREA_STYLE_COLOUR('',#482);
#474=FILL_AREA_STYLE_COLOUR('',#483);
#475=FILL_AREA_STYLE_COLOUR('',#484);
#476=FILL_AREA_STYLE_COLOUR('',#485);
#477=FILL_AREA_STYLE_COLOUR('',#486);
#478=FILL_AREA_STYLE_COLOUR('',#487);
#479=FILL_AREA_STYLE_COLOUR('',#488);
#480=FILL_AREA_STYLE_COLOUR('',#489);
#481=COLOUR_RGB('',0.800000011920929,0.800000011920929,0.800000011920929);
#482=COLOUR_RGB('',0.800000011920929,0.800000011920929,0.800000011920929);
#483=COLOUR_RGB('',0.800000011920929,0.800000011920929,0.800000011920929);
#484=COLOUR_RGB('',0.800000011920929,0.800000011920929,0.800000011920929);
#485=COLOUR_RGB('',0.800000011920929,0.800000011920929,0.800000011920929);
#486=COLOUR_RGB('',0.800000011920929,0.800000011920929,0.800000011920929);
#487=COLOUR_RGB('',0.800000011920929,0.800000011920929,0.800000011920929);
#488=COLOUR_RGB('',0.800000011920929,0.800000011920929,0.800000011920929);
#489=COLOUR_RGB('',0.800000011920929,0.800000011920929,0.800000011920929);
#490=AXIS2_PLACEMENT_3D('PCS',#491,#492,#493);
#491=CARTESIAN_POINT('',(0.0,0.0,0.0));
#492=DIRECTION('',(0.0,0.0,1.0));
#493=DIRECTION('',(1.0,0.0,0.0));
#494=AXIS2_PLACEMENT_3D('MCS',#495,#496,#497);
#495=CARTESIAN_POINT('',(9.35307436,5.4,0.0));
#496=DIRECTION('',(0.0,0.0,1.0));
#497=DIRECTION('',(1.0,0.0,0.0));
#498=CONSTRUCTIVE_GEOMETRY_REPRESENTATION_RELATIONSHIP('coordinate systems',$,#53,#499);
#499=CONSTRUCTIVE_GEOMETRY_REPRESENTATION('coordinate systems',(#490,#494),#6);
ENDSEC;
END-ISO-10303-21;
