ISO-10303-21;
HEADER;
FILE_DESCRIPTION(('no description'),'unknown implementation level');
FILE_NAME('solidxM8XwXQC3ArNAUyjTmU7II92uKQ_1.STP','  ',('CIMSOURCE GmbH'),('CADClick - KiM GmbH - www.kimweb.de'),'unknown preprocess','ACIS','unknown authorization');
FILE_SCHEMA(('automotive_design'));
ENDSEC;
DATA;
#1=MECHANICAL_DESIGN_GEOMETRIC_PRESENTATION_REPRESENTATION(' ',(#10,#11,#12,#13,#14,#15,#16,#17,#18,#19,#20,#21,#22,#23,#24,#25,#26,#27,#28,#29,#30,#31,#32,#33,#34,#35,#36,#37,#38,#39,#40,#41,#42,#43,#44,#45,#46,#47,#48,#49,#50,#51,#52,#53,#54,#55,#56,#57,#58,#59,#60),#6);
#2=PRODUCT_DEFINITION_CONTEXT('',#61,'design');
#3=APPLICATION_PROTOCOL_DEFINITION('INTERNATIONAL STANDARD','automotive_design',1994,#61);
#4=PRODUCT_CATEGORY_RELATIONSHIP('NONE','NONE',#62,#63);
#5=SHAPE_DEFINITION_REPRESENTATION(#64,#65);
#6= (GEOMETRIC_REPRESENTATION_CONTEXT(3)GLOBAL_UNCERTAINTY_ASSIGNED_CONTEXT((#68))GLOBAL_UNIT_ASSIGNED_CONTEXT((#70,#71,#72))REPRESENTATION_CONTEXT('NONE','WORKSPACE'));
#10=STYLED_ITEM('',(#74),#75);
#11=STYLED_ITEM('',(#76),#77);
#12=STYLED_ITEM('',(#78),#79);
#13=STYLED_ITEM('',(#80),#81);
#14=STYLED_ITEM('',(#82),#83);
#15=STYLED_ITEM('',(#84),#85);
#16=STYLED_ITEM('',(#86),#87);
#17=STYLED_ITEM('',(#88),#89);
#18=STYLED_ITEM('',(#90),#91);
#19=STYLED_ITEM('',(#92),#93);
#20=STYLED_ITEM('',(#94),#95);
#21=STYLED_ITEM('',(#96),#97);
#22=STYLED_ITEM('',(#98),#99);
#23=STYLED_ITEM('',(#100),#101);
#24=STYLED_ITEM('',(#102),#103);
#25=STYLED_ITEM('',(#104),#105);
#26=STYLED_ITEM('',(#106),#107);
#27=STYLED_ITEM('',(#108),#109);
#28=STYLED_ITEM('',(#110),#111);
#29=STYLED_ITEM('',(#112),#113);
#30=STYLED_ITEM('',(#114),#115);
#31=STYLED_ITEM('',(#116),#117);
#32=STYLED_ITEM('',(#118),#119);
#33=STYLED_ITEM('',(#120),#121);
#34=STYLED_ITEM('',(#122),#123);
#35=STYLED_ITEM('',(#124),#125);
#36=STYLED_ITEM('',(#126),#127);
#37=STYLED_ITEM('',(#128),#129);
#38=STYLED_ITEM('',(#130),#131);
#39=STYLED_ITEM('',(#132),#133);
#40=STYLED_ITEM('',(#134),#135);
#41=STYLED_ITEM('',(#136),#137);
#42=STYLED_ITEM('',(#138),#139);
#43=STYLED_ITEM('',(#140),#141);
#44=STYLED_ITEM('',(#142),#143);
#45=STYLED_ITEM('',(#144),#145);
#46=STYLED_ITEM('',(#146),#147);
#47=STYLED_ITEM('',(#148),#149);
#48=STYLED_ITEM('',(#150),#151);
#49=STYLED_ITEM('',(#152),#153);
#50=STYLED_ITEM('',(#154),#155);
#51=STYLED_ITEM('',(#156),#157);
#52=STYLED_ITEM('',(#158),#159);
#53=STYLED_ITEM('',(#160),#161);
#54=STYLED_ITEM('',(#162),#163);
#55=STYLED_ITEM('',(#164),#165);
#56=STYLED_ITEM('',(#166),#167);
#57=STYLED_ITEM('',(#168),#169);
#58=STYLED_ITEM('',(#170),#171);
#59=STYLED_ITEM('',(#172),#173);
#60=STYLED_ITEM('',(#174),#175);
#61=APPLICATION_CONTEXT(' ');
#62=PRODUCT_CATEGORY('part','NONE');
#63=PRODUCT_RELATED_PRODUCT_CATEGORY('detail',' ',(#176));
#64=PRODUCT_DEFINITION_SHAPE('NONE','NONE',#177);
#65=ADVANCED_BREP_SHAPE_REPRESENTATION('1',(#175,#178),#6);
#68=UNCERTAINTY_MEASURE_WITH_UNIT(LENGTH_MEASURE(1.0E-006),#70,'','');
#70= (CONVERSION_BASED_UNIT('MILLIMETRE',#181)LENGTH_UNIT()NAMED_UNIT(#184));
#71= (NAMED_UNIT(#186)PLANE_ANGLE_UNIT()SI_UNIT($,.RADIAN.));
#72= (NAMED_UNIT(#186)SOLID_ANGLE_UNIT()SI_UNIT($,.STERADIAN.));
#74=PRESENTATION_STYLE_ASSIGNMENT((#192));
#75=ADVANCED_FACE('',(#193),#194,.T.);
#76=PRESENTATION_STYLE_ASSIGNMENT((#195));
#77=ADVANCED_FACE('',(#196),#197,.T.);
#78=PRESENTATION_STYLE_ASSIGNMENT((#198));
#79=ADVANCED_FACE('',(#199),#200,.T.);
#80=PRESENTATION_STYLE_ASSIGNMENT((#201));
#81=VERTEX_POINT('',#202);
#82=PRESENTATION_STYLE_ASSIGNMENT((#203));
#83=EDGE_CURVE('',#171,#111,#204,.T.);
#84=PRESENTATION_STYLE_ASSIGNMENT((#205));
#85=EDGE_CURVE('',#95,#135,#206,.T.);
#86=PRESENTATION_STYLE_ASSIGNMENT((#207));
#87=EDGE_CURVE('',#135,#97,#208,.T.);
#88=PRESENTATION_STYLE_ASSIGNMENT((#209));
#89=EDGE_CURVE('',#119,#139,#210,.T.);
#90=PRESENTATION_STYLE_ASSIGNMENT((#211));
#91=EDGE_CURVE('',#109,#127,#212,.T.);
#92=PRESENTATION_STYLE_ASSIGNMENT((#213));
#93=EDGE_CURVE('',#149,#81,#214,.T.);
#94=PRESENTATION_STYLE_ASSIGNMENT((#215));
#95=VERTEX_POINT('',#216);
#96=PRESENTATION_STYLE_ASSIGNMENT((#217));
#97=VERTEX_POINT('',#218);
#98=PRESENTATION_STYLE_ASSIGNMENT((#219));
#99=EDGE_CURVE('',#143,#169,#220,.T.);
#100=PRESENTATION_STYLE_ASSIGNMENT((#221));
#101=EDGE_CURVE('',#169,#153,#222,.T.);
#102=PRESENTATION_STYLE_ASSIGNMENT((#223));
#103=ADVANCED_FACE('',(#224),#225,.T.);
#104=PRESENTATION_STYLE_ASSIGNMENT((#226));
#105=EDGE_CURVE('',#149,#119,#227,.T.);
#106=PRESENTATION_STYLE_ASSIGNMENT((#228));
#107=VERTEX_POINT('',#229);
#108=PRESENTATION_STYLE_ASSIGNMENT((#230));
#109=VERTEX_POINT('',#231);
#110=PRESENTATION_STYLE_ASSIGNMENT((#232));
#111=VERTEX_POINT('',#233);
#112=PRESENTATION_STYLE_ASSIGNMENT((#234));
#113=EDGE_CURVE('',#139,#109,#235,.T.);
#114=PRESENTATION_STYLE_ASSIGNMENT((#236));
#115=EDGE_CURVE('',#81,#139,#237,.T.);
#116=PRESENTATION_STYLE_ASSIGNMENT((#238));
#117=EDGE_CURVE('',#153,#119,#239,.T.);
#118=PRESENTATION_STYLE_ASSIGNMENT((#240));
#119=VERTEX_POINT('',#241);
#120=PRESENTATION_STYLE_ASSIGNMENT((#242));
#121=VERTEX_POINT('',#243);
#122=PRESENTATION_STYLE_ASSIGNMENT((#244));
#123=EDGE_CURVE('',#121,#109,#245,.T.);
#124=PRESENTATION_STYLE_ASSIGNMENT((#246));
#125=EDGE_CURVE('',#81,#121,#247,.T.);
#126=PRESENTATION_STYLE_ASSIGNMENT((#248));
#127=VERTEX_POINT('',#249);
#128=PRESENTATION_STYLE_ASSIGNMENT((#250));
#129=ADVANCED_FACE('',(#251),#252,.T.);
#130=PRESENTATION_STYLE_ASSIGNMENT((#253));
#131=EDGE_CURVE('',#121,#171,#254,.T.);
#132=PRESENTATION_STYLE_ASSIGNMENT((#255));
#133=EDGE_CURVE('',#111,#107,#256,.T.);
#134=PRESENTATION_STYLE_ASSIGNMENT((#257));
#135=VERTEX_POINT('',#258);
#136=PRESENTATION_STYLE_ASSIGNMENT((#259));
#137=ADVANCED_FACE('',(#260),#261,.T.);
#138=PRESENTATION_STYLE_ASSIGNMENT((#262));
#139=VERTEX_POINT('',#263);
#140=PRESENTATION_STYLE_ASSIGNMENT((#264));
#141=EDGE_CURVE('',#171,#127,#265,.T.);
#142=PRESENTATION_STYLE_ASSIGNMENT((#266));
#143=VERTEX_POINT('',#267);
#144=PRESENTATION_STYLE_ASSIGNMENT((#268));
#145=ADVANCED_FACE('',(#269),#270,.T.);
#146=PRESENTATION_STYLE_ASSIGNMENT((#271));
#147=ADVANCED_FACE('',(#272),#273,.F.);
#148=PRESENTATION_STYLE_ASSIGNMENT((#274));
#149=VERTEX_POINT('',#275);
#150=PRESENTATION_STYLE_ASSIGNMENT((#276));
#151=EDGE_CURVE('',#127,#107,#277,.T.);
#152=PRESENTATION_STYLE_ASSIGNMENT((#278));
#153=VERTEX_POINT('',#279);
#154=PRESENTATION_STYLE_ASSIGNMENT((#280));
#155=EDGE_CURVE('',#169,#149,#281,.T.);
#156=PRESENTATION_STYLE_ASSIGNMENT((#282));
#157=ADVANCED_FACE('',(#283),#284,.T.);
#158=PRESENTATION_STYLE_ASSIGNMENT((#285));
#159=EDGE_CURVE('',#95,#143,#286,.T.);
#160=PRESENTATION_STYLE_ASSIGNMENT((#287));
#161=EDGE_CURVE('',#111,#95,#288,.T.);
#162=PRESENTATION_STYLE_ASSIGNMENT((#289));
#163=EDGE_CURVE('',#107,#135,#290,.T.);
#164=PRESENTATION_STYLE_ASSIGNMENT((#291));
#165=ADVANCED_FACE('',(#292),#293,.T.);
#166=PRESENTATION_STYLE_ASSIGNMENT((#294));
#167=EDGE_CURVE('',#143,#97,#295,.T.);
#168=PRESENTATION_STYLE_ASSIGNMENT((#296));
#169=VERTEX_POINT('',#297);
#170=PRESENTATION_STYLE_ASSIGNMENT((#298));
#171=VERTEX_POINT('',#299);
#172=PRESENTATION_STYLE_ASSIGNMENT((#300));
#173=EDGE_CURVE('',#97,#153,#301,.T.);
#174=PRESENTATION_STYLE_ASSIGNMENT((#302));
#175=MANIFOLD_SOLID_BREP('1',#303);
#176=PRODUCT('1','1','PART-1-DESC',(#304));
#177=PRODUCT_DEFINITION('NONE','NONE',#305,#2);
#178=AXIS2_PLACEMENT_3D('',#306,#307,#308);
#181=LENGTH_MEASURE_WITH_UNIT(LENGTH_MEASURE(1.0),#309);
#184=DIMENSIONAL_EXPONENTS(1.0,0.0,0.0,0.0,0.0,0.0,0.0);
#186=DIMENSIONAL_EXPONENTS(0.0,0.0,0.0,0.0,0.0,0.0,0.0);
#192=SURFACE_STYLE_USAGE(.BOTH.,#310);
#193=FACE_OUTER_BOUND('',#311,.T.);
#194=PLANE('',#312);
#195=SURFACE_STYLE_USAGE(.BOTH.,#313);
#196=FACE_OUTER_BOUND('',#314,.T.);
#197=PLANE('',#315);
#198=SURFACE_STYLE_USAGE(.BOTH.,#316);
#199=FACE_OUTER_BOUND('',#317,.T.);
#200=PLANE('',#318);
#201=POINT_STYLE(' ',#319,POSITIVE_LENGTH_MEASURE(1.0E-006),#320);
#202=CARTESIAN_POINT('',(12.6999999999,1.0,0.0));
#203=CURVE_STYLE('',#321,POSITIVE_LENGTH_MEASURE(1.0E-006),#322);
#204=LINE('',#323,#324);
#205=CURVE_STYLE('',#325,POSITIVE_LENGTH_MEASURE(1.0E-006),#326);
#206=LINE('',#327,#328);
#207=CURVE_STYLE('',#329,POSITIVE_LENGTH_MEASURE(1.0E-006),#330);
#208=LINE('',#331,#332);
#209=CURVE_STYLE('',#333,POSITIVE_LENGTH_MEASURE(1.0E-006),#334);
#210=CIRCLE('',#335,0.246090064055206);
#211=CURVE_STYLE('',#336,POSITIVE_LENGTH_MEASURE(1.0E-006),#337);
#212=CIRCLE('',#338,0.246090064055204);
#213=CURVE_STYLE('',#339,POSITIVE_LENGTH_MEASURE(1.0E-006),#340);
#214=CIRCLE('',#341,1.0);
#215=POINT_STYLE(' ',#342,POSITIVE_LENGTH_MEASURE(1.0E-006),#343);
#216=CARTESIAN_POINT('',(1.00000008274037E-010,11.7,0.0));
#217=POINT_STYLE(' ',#344,POSITIVE_LENGTH_MEASURE(1.0E-006),#345);
#218=CARTESIAN_POINT('',(0.753909936044794,1.00000000007539,-4.76));
#219=CURVE_STYLE('',#346,POSITIVE_LENGTH_MEASURE(1.0E-006),#347);
#220=CIRCLE('',#348,1.0);
#221=CURVE_STYLE('',#349,POSITIVE_LENGTH_MEASURE(1.0E-006),#350);
#222=LINE('',#351,#352);
#223=SURFACE_STYLE_USAGE(.BOTH.,#353);
#224=FACE_OUTER_BOUND('',#354,.T.);
#225=CONICAL_SURFACE('',#355,0.999999999999998,0.15707963267949);
#226=CURVE_STYLE('',#356,POSITIVE_LENGTH_MEASURE(1.0E-006),#357);
#227=LINE('',#358,#359);
#228=POINT_STYLE(' ',#360,POSITIVE_LENGTH_MEASURE(1.0E-006),#361);
#229=CARTESIAN_POINT('',(1.00000000007539,11.9460900639552,-4.76));
#230=POINT_STYLE(' ',#362,POSITIVE_LENGTH_MEASURE(1.0E-006),#363);
#231=CARTESIAN_POINT('',(11.9460900639552,11.6999999999246,-4.76));
#232=POINT_STYLE(' ',#364,POSITIVE_LENGTH_MEASURE(1.0E-006),#365);
#233=CARTESIAN_POINT('',(1.0,12.7,0.0));
#234=CURVE_STYLE('',#366,POSITIVE_LENGTH_MEASURE(1.0E-006),#367);
#235=LINE('',#368,#369);
#236=CURVE_STYLE('',#370,POSITIVE_LENGTH_MEASURE(1.0E-006),#371);
#237=LINE('',#372,#373);
#238=CURVE_STYLE('',#374,POSITIVE_LENGTH_MEASURE(1.0E-006),#375);
#239=LINE('',#376,#377);
#240=POINT_STYLE(' ',#378,POSITIVE_LENGTH_MEASURE(1.0E-006),#379);
#241=CARTESIAN_POINT('',(11.6999999999246,0.753909936044794,-4.76));
#242=POINT_STYLE(' ',#380,POSITIVE_LENGTH_MEASURE(1.0E-006),#381);
#243=CARTESIAN_POINT('',(12.7,11.7,0.0));
#244=CURVE_STYLE('',#382,POSITIVE_LENGTH_MEASURE(1.0E-006),#383);
#245=LINE('',#384,#385);
#246=CURVE_STYLE('',#386,POSITIVE_LENGTH_MEASURE(1.0E-006),#387);
#247=LINE('',#388,#389);
#248=POINT_STYLE(' ',#390,POSITIVE_LENGTH_MEASURE(1.0E-006),#391);
#249=CARTESIAN_POINT('',(11.7,11.9460900640552,-4.76));
#250=SURFACE_STYLE_USAGE(.BOTH.,#392);
#251=FACE_OUTER_BOUND('',#393,.T.);
#252=CONICAL_SURFACE('',#394,0.999999999999998,0.15707963267949);
#253=CURVE_STYLE('',#395,POSITIVE_LENGTH_MEASURE(1.0E-006),#396);
#254=CIRCLE('',#397,0.999999999999998);
#255=CURVE_STYLE('',#398,POSITIVE_LENGTH_MEASURE(1.0E-006),#399);
#256=LINE('',#400,#401);
#257=POINT_STYLE(' ',#402,POSITIVE_LENGTH_MEASURE(1.0E-006),#403);
#258=CARTESIAN_POINT('',(0.753909935944794,11.7,-4.76));
#259=SURFACE_STYLE_USAGE(.BOTH.,#404);
#260=FACE_OUTER_BOUND('',#405,.T.);
#261=CONICAL_SURFACE('',#406,1.0,0.15707963267949);
#262=POINT_STYLE(' ',#407,POSITIVE_LENGTH_MEASURE(1.0E-006),#408);
#263=CARTESIAN_POINT('',(11.9460900640552,1.0,-4.76));
#264=CURVE_STYLE('',#409,POSITIVE_LENGTH_MEASURE(1.0E-006),#410);
#265=LINE('',#411,#412);
#266=POINT_STYLE(' ',#413,POSITIVE_LENGTH_MEASURE(1.0E-006),#414);
#267=CARTESIAN_POINT('',(0.0,1.0,0.0));
#268=SURFACE_STYLE_USAGE(.BOTH.,#415);
#269=FACE_OUTER_BOUND('',#416,.T.);
#270=PLANE('',#417);
#271=SURFACE_STYLE_USAGE(.BOTH.,#418);
#272=FACE_OUTER_BOUND('',#419,.T.);
#273=PLANE('',#420);
#274=POINT_STYLE(' ',#421,POSITIVE_LENGTH_MEASURE(1.0E-006),#422);
#275=CARTESIAN_POINT('',(11.7,0.0,0.0));
#276=CURVE_STYLE('',#423,POSITIVE_LENGTH_MEASURE(1.0E-006),#424);
#277=LINE('',#425,#426);
#278=POINT_STYLE(' ',#427,POSITIVE_LENGTH_MEASURE(1.0E-006),#428);
#279=CARTESIAN_POINT('',(1.0,0.753909935944794,-4.76));
#280=CURVE_STYLE('',#429,POSITIVE_LENGTH_MEASURE(1.0E-006),#430);
#281=LINE('',#431,#432);
#282=SURFACE_STYLE_USAGE(.BOTH.,#433);
#283=FACE_OUTER_BOUND('',#434,.T.);
#284=PLANE('',#435);
#285=CURVE_STYLE('',#436,POSITIVE_LENGTH_MEASURE(1.0E-006),#437);
#286=LINE('',#438,#439);
#287=CURVE_STYLE('',#440,POSITIVE_LENGTH_MEASURE(1.0E-006),#441);
#288=CIRCLE('',#442,0.999999999999998);
#289=CURVE_STYLE('',#443,POSITIVE_LENGTH_MEASURE(1.0E-006),#444);
#290=CIRCLE('',#445,0.246090064055204);
#291=SURFACE_STYLE_USAGE(.BOTH.,#446);
#292=FACE_OUTER_BOUND('',#447,.T.);
#293=CONICAL_SURFACE('',#448,1.0,0.15707963267949);
#294=CURVE_STYLE('',#449,POSITIVE_LENGTH_MEASURE(1.0E-006),#450);
#295=LINE('',#451,#452);
#296=POINT_STYLE(' ',#453,POSITIVE_LENGTH_MEASURE(1.0E-006),#454);
#297=CARTESIAN_POINT('',(1.0,0.0,0.0));
#298=POINT_STYLE(' ',#455,POSITIVE_LENGTH_MEASURE(1.0E-006),#456);
#299=CARTESIAN_POINT('',(11.7,12.6999999999,0.0));
#300=CURVE_STYLE('',#457,POSITIVE_LENGTH_MEASURE(1.0E-006),#458);
#301=CIRCLE('',#459,0.246090064055207);
#302=SURFACE_STYLE_USAGE(.BOTH.,#460);
#303=CLOSED_SHELL('',(#165,#157,#129,#145,#103,#79,#137,#75,#147,#77));
#304=PRODUCT_CONTEXT('',#61,'mechanical');
#305=PRODUCT_DEFINITION_FORMATION_WITH_SPECIFIED_SOURCE(' ','NONE',#176,.NOT_KNOWN.);
#306=CARTESIAN_POINT('',(0.0,0.0,0.0));
#307=DIRECTION('',(0.0,0.0,1.0));
#308=DIRECTION('',(1.0,0.0,0.0));
#309= (NAMED_UNIT(#184)LENGTH_UNIT()SI_UNIT(.MILLI.,.METRE.));
#310=SURFACE_SIDE_STYLE('',(#462));
#311=EDGE_LOOP('',(#463,#464,#465,#466));
#312=AXIS2_PLACEMENT_3D('',#467,#468,#469);
#313=SURFACE_SIDE_STYLE('',(#470));
#314=EDGE_LOOP('',(#471,#472,#473,#474,#475,#476,#477,#478));
#315=AXIS2_PLACEMENT_3D('',#479,#480,#481);
#316=SURFACE_SIDE_STYLE('',(#482));
#317=EDGE_LOOP('',(#483,#484,#485,#486));
#318=AXIS2_PLACEMENT_3D('',#487,#488,#489);
#319=PRE_DEFINED_MARKER('');
#320=COLOUR_RGB('',0.800000011920929,0.800000011920929,0.800000011920929);
#321=DRAUGHTING_PRE_DEFINED_CURVE_FONT('continuous');
#322=COLOUR_RGB('',0.800000011920929,0.800000011920929,0.800000011920929);
#323=CARTESIAN_POINT('',(11.7,12.7,0.0));
#324=VECTOR('',#490,1.0);
#325=DRAUGHTING_PRE_DEFINED_CURVE_FONT('continuous');
#326=COLOUR_RGB('',0.800000011920929,0.800000011920929,0.800000011920929);
#327=CARTESIAN_POINT('',(1.00000008274037E-010,11.7,0.0));
#328=VECTOR('',#491,1.0);
#329=DRAUGHTING_PRE_DEFINED_CURVE_FONT('continuous');
#330=COLOUR_RGB('',0.800000011920929,0.800000011920929,0.800000011920929);
#331=CARTESIAN_POINT('',(0.753909935944794,11.7,-4.76));
#332=VECTOR('',#492,1.0);
#333=DRAUGHTING_PRE_DEFINED_CURVE_FONT('continuous');
#334=COLOUR_RGB('',0.800000011920929,0.800000011920929,0.800000011920929);
#335=AXIS2_PLACEMENT_3D('',#493,#494,#495);
#336=DRAUGHTING_PRE_DEFINED_CURVE_FONT('continuous');
#337=COLOUR_RGB('',0.800000011920929,0.800000011920929,0.800000011920929);
#338=AXIS2_PLACEMENT_3D('',#496,#497,#498);
#339=DRAUGHTING_PRE_DEFINED_CURVE_FONT('continuous');
#340=COLOUR_RGB('',0.800000011920929,0.800000011920929,0.800000011920929);
#341=AXIS2_PLACEMENT_3D('',#499,#500,#501);
#342=PRE_DEFINED_MARKER('');
#343=COLOUR_RGB('',0.800000011920929,0.800000011920929,0.800000011920929);
#344=PRE_DEFINED_MARKER('');
#345=COLOUR_RGB('',0.800000011920929,0.800000011920929,0.800000011920929);
#346=DRAUGHTING_PRE_DEFINED_CURVE_FONT('continuous');
#347=COLOUR_RGB('',0.800000011920929,0.800000011920929,0.800000011920929);
#348=AXIS2_PLACEMENT_3D('',#502,#503,#504);
#349=DRAUGHTING_PRE_DEFINED_CURVE_FONT('continuous');
#350=COLOUR_RGB('',0.800000011920929,0.800000011920929,0.800000011920929);
#351=CARTESIAN_POINT('',(1.0,0.0,0.0));
#352=VECTOR('',#505,1.0);
#353=SURFACE_SIDE_STYLE('',(#506));
#354=EDGE_LOOP('',(#507,#508,#509,#510));
#355=AXIS2_PLACEMENT_3D('',#511,#512,#513);
#356=DRAUGHTING_PRE_DEFINED_CURVE_FONT('continuous');
#357=COLOUR_RGB('',0.800000011920929,0.800000011920929,0.800000011920929);
#358=CARTESIAN_POINT('',(11.7,0.0,0.0));
#359=VECTOR('',#514,1.0);
#360=PRE_DEFINED_MARKER('');
#361=COLOUR_RGB('',0.800000011920929,0.800000011920929,0.800000011920929);
#362=PRE_DEFINED_MARKER('');
#363=COLOUR_RGB('',0.800000011920929,0.800000011920929,0.800000011920929);
#364=PRE_DEFINED_MARKER('');
#365=COLOUR_RGB('',0.800000011920929,0.800000011920929,0.800000011920929);
#366=DRAUGHTING_PRE_DEFINED_CURVE_FONT('continuous');
#367=COLOUR_RGB('',0.800000011920929,0.800000011920929,0.800000011920929);
#368=CARTESIAN_POINT('',(11.9460900640552,1.0,-4.76));
#369=VECTOR('',#515,1.0);
#370=DRAUGHTING_PRE_DEFINED_CURVE_FONT('continuous');
#371=COLOUR_RGB('',0.800000011920929,0.800000011920929,0.800000011920929);
#372=CARTESIAN_POINT('',(12.6999999999,1.0,0.0));
#373=VECTOR('',#516,1.0);
#374=DRAUGHTING_PRE_DEFINED_CURVE_FONT('continuous');
#375=COLOUR_RGB('',0.800000011920929,0.800000011920929,0.800000011920929);
#376=CARTESIAN_POINT('',(1.0,0.753909935944794,-4.76));
#377=VECTOR('',#517,1.0);
#378=PRE_DEFINED_MARKER('');
#379=COLOUR_RGB('',0.800000011920929,0.800000011920929,0.800000011920929);
#380=PRE_DEFINED_MARKER('');
#381=COLOUR_RGB('',0.800000011920929,0.800000011920929,0.800000011920929);
#382=DRAUGHTING_PRE_DEFINED_CURVE_FONT('continuous');
#383=COLOUR_RGB('',0.800000011920929,0.800000011920929,0.800000011920929);
#384=CARTESIAN_POINT('',(12.7,11.7,0.0));
#385=VECTOR('',#518,1.0);
#386=DRAUGHTING_PRE_DEFINED_CURVE_FONT('continuous');
#387=COLOUR_RGB('',0.800000011920929,0.800000011920929,0.800000011920929);
#388=CARTESIAN_POINT('',(12.7,1.0,0.0));
#389=VECTOR('',#519,1.0);
#390=PRE_DEFINED_MARKER('');
#391=COLOUR_RGB('',0.800000011920929,0.800000011920929,0.800000011920929);
#392=SURFACE_SIDE_STYLE('',(#520));
#393=EDGE_LOOP('',(#521,#522,#523,#524));
#394=AXIS2_PLACEMENT_3D('',#525,#526,#527);
#395=DRAUGHTING_PRE_DEFINED_CURVE_FONT('continuous');
#396=COLOUR_RGB('',0.800000011920929,0.800000011920929,0.800000011920929);
#397=AXIS2_PLACEMENT_3D('',#528,#529,#530);
#398=DRAUGHTING_PRE_DEFINED_CURVE_FONT('continuous');
#399=COLOUR_RGB('',0.800000011920929,0.800000011920929,0.800000011920929);
#400=CARTESIAN_POINT('',(1.0,12.7,0.0));
#401=VECTOR('',#531,1.0);
#402=PRE_DEFINED_MARKER('');
#403=COLOUR_RGB('',0.800000011920929,0.800000011920929,0.800000011920929);
#404=SURFACE_SIDE_STYLE('',(#532));
#405=EDGE_LOOP('',(#533,#534,#535,#536));
#406=AXIS2_PLACEMENT_3D('',#537,#538,#539);
#407=PRE_DEFINED_MARKER('');
#408=COLOUR_RGB('',0.800000011920929,0.800000011920929,0.800000011920929);
#409=DRAUGHTING_PRE_DEFINED_CURVE_FONT('continuous');
#410=COLOUR_RGB('',0.800000011920929,0.800000011920929,0.800000011920929);
#411=CARTESIAN_POINT('',(11.7,12.6999999999,0.0));
#412=VECTOR('',#540,1.0);
#413=PRE_DEFINED_MARKER('');
#414=COLOUR_RGB('',0.800000011920929,0.800000011920929,0.800000011920929);
#415=SURFACE_SIDE_STYLE('',(#541));
#416=EDGE_LOOP('',(#542,#543,#544,#545));
#417=AXIS2_PLACEMENT_3D('',#546,#547,#548);
#418=SURFACE_SIDE_STYLE('',(#549));
#419=EDGE_LOOP('',(#550,#551,#552,#553,#554,#555,#556,#557));
#420=AXIS2_PLACEMENT_3D('',#558,#559,#560);
#421=PRE_DEFINED_MARKER('');
#422=COLOUR_RGB('',0.800000011920929,0.800000011920929,0.800000011920929);
#423=DRAUGHTING_PRE_DEFINED_CURVE_FONT('continuous');
#424=COLOUR_RGB('',0.800000011920929,0.800000011920929,0.800000011920929);
#425=CARTESIAN_POINT('',(11.7,11.9460900640552,-4.76));
#426=VECTOR('',#561,1.0);
#427=PRE_DEFINED_MARKER('');
#428=COLOUR_RGB('',0.800000011920929,0.800000011920929,0.800000011920929);
#429=DRAUGHTING_PRE_DEFINED_CURVE_FONT('continuous');
#430=COLOUR_RGB('',0.800000011920929,0.800000011920929,0.800000011920929);
#431=CARTESIAN_POINT('',(1.0,0.0,0.0));
#432=VECTOR('',#562,1.0);
#433=SURFACE_SIDE_STYLE('',(#563));
#434=EDGE_LOOP('',(#564,#565,#566,#567));
#435=AXIS2_PLACEMENT_3D('',#568,#569,#570);
#436=DRAUGHTING_PRE_DEFINED_CURVE_FONT('continuous');
#437=COLOUR_RGB('',0.800000011920929,0.800000011920929,0.800000011920929);
#438=CARTESIAN_POINT('',(0.0,11.7,0.0));
#439=VECTOR('',#571,1.0);
#440=DRAUGHTING_PRE_DEFINED_CURVE_FONT('continuous');
#441=COLOUR_RGB('',0.800000011920929,0.800000011920929,0.800000011920929);
#442=AXIS2_PLACEMENT_3D('',#572,#573,#574);
#443=DRAUGHTING_PRE_DEFINED_CURVE_FONT('continuous');
#444=COLOUR_RGB('',0.800000011920929,0.800000011920929,0.800000011920929);
#445=AXIS2_PLACEMENT_3D('',#575,#576,#577);
#446=SURFACE_SIDE_STYLE('',(#578));
#447=EDGE_LOOP('',(#579,#580,#581,#582));
#448=AXIS2_PLACEMENT_3D('',#583,#584,#585);
#449=DRAUGHTING_PRE_DEFINED_CURVE_FONT('continuous');
#450=COLOUR_RGB('',0.800000011920929,0.800000011920929,0.800000011920929);
#451=CARTESIAN_POINT('',(0.0,1.0,0.0));
#452=VECTOR('',#586,1.0);
#453=PRE_DEFINED_MARKER('');
#454=COLOUR_RGB('',0.800000011920929,0.800000011920929,0.800000011920929);
#455=PRE_DEFINED_MARKER('');
#456=COLOUR_RGB('',0.800000011920929,0.800000011920929,0.800000011920929);
#457=DRAUGHTING_PRE_DEFINED_CURVE_FONT('continuous');
#458=COLOUR_RGB('',0.800000011920929,0.800000011920929,0.800000011920929);
#459=AXIS2_PLACEMENT_3D('',#587,#588,#589);
#460=SURFACE_SIDE_STYLE('',(#590));
#462=SURFACE_STYLE_FILL_AREA(#591);
#463=ORIENTED_EDGE('',*,*,#117,.T.);
#464=ORIENTED_EDGE('',*,*,#105,.F.);
#465=ORIENTED_EDGE('',*,*,#155,.F.);
#466=ORIENTED_EDGE('',*,*,#101,.T.);
#467=CARTESIAN_POINT('',(1.0,0.0,0.0));
#468=DIRECTION('',(-0.0,-0.987688340595138,-0.156434465040231));
#469=DIRECTION('',(-1.0,0.0,0.0));
#470=SURFACE_STYLE_FILL_AREA(#592);
#471=ORIENTED_EDGE('',*,*,#155,.T.);
#472=ORIENTED_EDGE('',*,*,#93,.T.);
#473=ORIENTED_EDGE('',*,*,#125,.T.);
#474=ORIENTED_EDGE('',*,*,#131,.T.);
#475=ORIENTED_EDGE('',*,*,#83,.T.);
#476=ORIENTED_EDGE('',*,*,#161,.T.);
#477=ORIENTED_EDGE('',*,*,#159,.T.);
#478=ORIENTED_EDGE('',*,*,#99,.T.);
#479=CARTESIAN_POINT('',(6.35,6.35,0.0));
#480=DIRECTION('',(0.0,0.0,1.0));
#481=DIRECTION('',(1.0,0.0,0.0));
#482=SURFACE_STYLE_FILL_AREA(#593);
#483=ORIENTED_EDGE('',*,*,#87,.T.);
#484=ORIENTED_EDGE('',*,*,#167,.F.);
#485=ORIENTED_EDGE('',*,*,#159,.F.);
#486=ORIENTED_EDGE('',*,*,#85,.T.);
#487=CARTESIAN_POINT('',(1.00000008274037E-010,11.7,0.0));
#488=DIRECTION('',(-0.987688340598344,0.0,-0.156434465019989));
#489=DIRECTION('',(0.0,1.0,0.0));
#490=DIRECTION('',(-1.0,0.0,0.0));
#491=DIRECTION('',(0.156434465019989,0.0,-0.987688340598344));
#492=DIRECTION('',(0.0,-1.0,0.0));
#493=CARTESIAN_POINT('',(11.6999999999,1.0000000001,-4.76));
#494=DIRECTION('',(0.0,0.0,1.0));
#495=DIRECTION('',(1.00000008274037E-010,-1.0,0.0));
#496=CARTESIAN_POINT('',(11.6999999999,11.6999999999,-4.76));
#497=DIRECTION('',(0.0,-0.0,1.0));
#498=DIRECTION('',(1.0,9.99982319171979E-011,0.0));
#499=CARTESIAN_POINT('',(11.6999999999,1.0000000001,0.0));
#500=DIRECTION('',(0.0,0.0,1.0));
#501=DIRECTION('',(1.00000008274037E-010,-1.0,0.0));
#502=CARTESIAN_POINT('',(1.0000000001,1.0000000001,0.0));
#503=DIRECTION('',(0.0,0.0,1.0));
#504=DIRECTION('',(-1.0,-9.99991200956174E-011,0.0));
#505=DIRECTION('',(0.0,0.156434465040231,-0.987688340595138));
#506=SURFACE_STYLE_FILL_AREA(#594);
#507=ORIENTED_EDGE('',*,*,#163,.T.);
#508=ORIENTED_EDGE('',*,*,#85,.F.);
#509=ORIENTED_EDGE('',*,*,#161,.F.);
#510=ORIENTED_EDGE('',*,*,#133,.T.);
#511=CARTESIAN_POINT('',(1.0000000001,11.6999999999,0.0));
#512=DIRECTION('',(-0.0,-0.0,1.0));
#513=DIRECTION('',(-9.99983429395003E-011,1.0,0.0));
#514=DIRECTION('',(-1.56433151635229E-011,0.156434465060473,-0.987688340591932));
#515=DIRECTION('',(0.0,1.0,0.0));
#516=DIRECTION('',(-0.156434465019989,0.0,-0.987688340598344));
#517=DIRECTION('',(1.0,0.0,0.0));
#518=DIRECTION('',(-0.156434465060473,-1.56433151635229E-011,-0.987688340591932));
#519=DIRECTION('',(0.0,1.0,0.0));
#520=SURFACE_STYLE_FILL_AREA(#595);
#521=ORIENTED_EDGE('',*,*,#91,.T.);
#522=ORIENTED_EDGE('',*,*,#141,.F.);
#523=ORIENTED_EDGE('',*,*,#131,.F.);
#524=ORIENTED_EDGE('',*,*,#123,.T.);
#525=CARTESIAN_POINT('',(11.6999999999,11.6999999999,0.0));
#526=DIRECTION('',(-0.0,-0.0,1.0));
#527=DIRECTION('',(1.0,9.99982319171979E-011,0.0));
#528=CARTESIAN_POINT('',(11.6999999999,11.6999999999,0.0));
#529=DIRECTION('',(0.0,-0.0,1.0));
#530=DIRECTION('',(1.0,9.99982319171979E-011,0.0));
#531=DIRECTION('',(1.5643176942388E-011,-0.156434465060473,-0.987688340591932));
#532=SURFACE_STYLE_FILL_AREA(#596);
#533=ORIENTED_EDGE('',*,*,#173,.T.);
#534=ORIENTED_EDGE('',*,*,#101,.F.);
#535=ORIENTED_EDGE('',*,*,#99,.F.);
#536=ORIENTED_EDGE('',*,*,#167,.T.);
#537=CARTESIAN_POINT('',(1.0000000001,1.0000000001,0.0));
#538=DIRECTION('',(0.0,-0.0,1.0));
#539=DIRECTION('',(-1.0,-9.99991200956174E-011,0.0));
#540=DIRECTION('',(0.0,-0.156434465019989,-0.987688340598344));
#541=SURFACE_STYLE_FILL_AREA(#597);
#542=ORIENTED_EDGE('',*,*,#151,.T.);
#543=ORIENTED_EDGE('',*,*,#133,.F.);
#544=ORIENTED_EDGE('',*,*,#83,.F.);
#545=ORIENTED_EDGE('',*,*,#141,.T.);
#546=CARTESIAN_POINT('',(11.7,12.6999999999,0.0));
#547=DIRECTION('',(0.0,0.987688340598344,-0.156434465019989));
#548=DIRECTION('',(1.0,-0.0,0.0));
#549=SURFACE_STYLE_FILL_AREA(#598);
#550=ORIENTED_EDGE('',*,*,#89,.F.);
#551=ORIENTED_EDGE('',*,*,#117,.F.);
#552=ORIENTED_EDGE('',*,*,#173,.F.);
#553=ORIENTED_EDGE('',*,*,#87,.F.);
#554=ORIENTED_EDGE('',*,*,#163,.F.);
#555=ORIENTED_EDGE('',*,*,#151,.F.);
#556=ORIENTED_EDGE('',*,*,#91,.F.);
#557=ORIENTED_EDGE('',*,*,#113,.F.);
#558=CARTESIAN_POINT('',(6.35,6.35,-4.76));
#559=DIRECTION('',(0.0,0.0,1.0));
#560=DIRECTION('',(1.0,0.0,0.0));
#561=DIRECTION('',(-1.0,0.0,0.0));
#562=DIRECTION('',(1.0,0.0,0.0));
#563=SURFACE_STYLE_FILL_AREA(#599);
#564=ORIENTED_EDGE('',*,*,#113,.T.);
#565=ORIENTED_EDGE('',*,*,#123,.F.);
#566=ORIENTED_EDGE('',*,*,#125,.F.);
#567=ORIENTED_EDGE('',*,*,#115,.T.);
#568=CARTESIAN_POINT('',(12.6999999999,1.0,0.0));
#569=DIRECTION('',(0.987688340598344,-0.0,-0.156434465019989));
#570=DIRECTION('',(-0.0,-1.0,0.0));
#571=DIRECTION('',(0.0,-1.0,0.0));
#572=CARTESIAN_POINT('',(1.0000000001,11.6999999999,0.0));
#573=DIRECTION('',(0.0,0.0,1.0));
#574=DIRECTION('',(-9.99983429395003E-011,1.0,0.0));
#575=CARTESIAN_POINT('',(1.0000000001,11.6999999999,-4.76));
#576=DIRECTION('',(0.0,0.0,1.0));
#577=DIRECTION('',(-9.99983429395003E-011,1.0,0.0));
#578=SURFACE_STYLE_FILL_AREA(#600);
#579=ORIENTED_EDGE('',*,*,#89,.T.);
#580=ORIENTED_EDGE('',*,*,#115,.F.);
#581=ORIENTED_EDGE('',*,*,#93,.F.);
#582=ORIENTED_EDGE('',*,*,#105,.T.);
#583=CARTESIAN_POINT('',(11.6999999999,1.0000000001,0.0));
#584=DIRECTION('',(-0.0,-0.0,1.0));
#585=DIRECTION('',(1.00000008274037E-010,-1.0,0.0));
#586=DIRECTION('',(0.156434465060473,1.56434994583694E-011,-0.987688340591932));
#587=CARTESIAN_POINT('',(1.0000000001,1.0000000001,-4.76));
#588=DIRECTION('',(0.0,0.0,1.0));
#589=DIRECTION('',(-1.0,-9.99991200956174E-011,0.0));
#590=SURFACE_STYLE_FILL_AREA(#601);
#591=FILL_AREA_STYLE('',(#602));
#592=FILL_AREA_STYLE('',(#603));
#593=FILL_AREA_STYLE('',(#604));
#594=FILL_AREA_STYLE('',(#605));
#595=FILL_AREA_STYLE('',(#606));
#596=FILL_AREA_STYLE('',(#607));
#597=FILL_AREA_STYLE('',(#608));
#598=FILL_AREA_STYLE('',(#609));
#599=FILL_AREA_STYLE('',(#610));
#600=FILL_AREA_STYLE('',(#611));
#601=FILL_AREA_STYLE('',(#612));
#602=FILL_AREA_STYLE_COLOUR('',#613);
#603=FILL_AREA_STYLE_COLOUR('',#614);
#604=FILL_AREA_STYLE_COLOUR('',#615);
#605=FILL_AREA_STYLE_COLOUR('',#616);
#606=FILL_AREA_STYLE_COLOUR('',#617);
#607=FILL_AREA_STYLE_COLOUR('',#618);
#608=FILL_AREA_STYLE_COLOUR('',#619);
#609=FILL_AREA_STYLE_COLOUR('',#620);
#610=FILL_AREA_STYLE_COLOUR('',#621);
#611=FILL_AREA_STYLE_COLOUR('',#622);
#612=FILL_AREA_STYLE_COLOUR('',#623);
#613=COLOUR_RGB('',0.800000011920929,0.800000011920929,0.800000011920929);
#614=COLOUR_RGB('',0.800000011920929,0.800000011920929,0.800000011920929);
#615=COLOUR_RGB('',0.800000011920929,0.800000011920929,0.800000011920929);
#616=COLOUR_RGB('',0.800000011920929,0.800000011920929,0.800000011920929);
#617=COLOUR_RGB('',0.800000011920929,0.800000011920929,0.800000011920929);
#618=COLOUR_RGB('',0.800000011920929,0.800000011920929,0.800000011920929);
#619=COLOUR_RGB('',0.800000011920929,0.800000011920929,0.800000011920929);
#620=COLOUR_RGB('',0.800000011920929,0.800000011920929,0.800000011920929);
#621=COLOUR_RGB('',0.800000011920929,0.800000011920929,0.800000011920929);
#622=COLOUR_RGB('',0.800000011920929,0.800000011920929,0.800000011920929);
#623=COLOUR_RGB('',0.800000011920929,0.800000011920929,0.800000011920929);
#624=AXIS2_PLACEMENT_3D('PCS',#625,#626,#627);
#625=CARTESIAN_POINT('',(0.0,0.0,0.0));
#626=DIRECTION('',(0.0,0.0,1.0));
#627=DIRECTION('',(1.0,0.0,0.0));
#628=AXIS2_PLACEMENT_3D('MCS',#629,#630,#631);
#629=CARTESIAN_POINT('',(6.35,6.35,0.0));
#630=DIRECTION('',(0.0,0.0,1.0));
#631=DIRECTION('',(1.0,0.0,0.0));
#632=CONSTRUCTIVE_GEOMETRY_REPRESENTATION_RELATIONSHIP('coordinate systems',$,#65,#633);
#633=CONSTRUCTIVE_GEOMETRY_REPRESENTATION('coordinate systems',(#624,#628),#6);
ENDSEC;
END-ISO-10303-21;
