ISO-10303-21;
HEADER;
FILE_DESCRIPTION(('no description'),'unknown implementation level');
FILE_NAME('solidFupNIGt1d802Qf6cnpohAmQXQqI_1.STP','  ',('CIMSOURCE GmbH'),('CADClick - KiM GmbH - www.kimweb.de'),'unknown preprocess','ACIS','unknown authorization');
FILE_SCHEMA(('automotive_design'));
ENDSEC;
DATA;
#1=MECHANICAL_DESIGN_GEOMETRIC_PRESENTATION_REPRESENTATION(' ',(#10,#11,#12,#13,#14,#15,#16,#17,#18,#19,#20,#21,#22,#23,#24,#25,#26,#27,#28,#29,#30,#31,#32,#33,#34,#35,#36,#37,#38,#39,#40,#41,#42,#43,#44,#45,#46,#47,#48,#49,#50,#51,#52,#53,#54,#55,#56,#57,#58,#59,#60),#6);
#2=PRODUCT_DEFINITION_CONTEXT('',#61,'design');
#3=APPLICATION_PROTOCOL_DEFINITION('INTERNATIONAL STANDARD','automotive_design',1994,#61);
#4=PRODUCT_CATEGORY_RELATIONSHIP('NONE','NONE',#62,#63);
#5=SHAPE_DEFINITION_REPRESENTATION(#64,#65);
#6= (GEOMETRIC_REPRESENTATION_CONTEXT(3)GLOBAL_UNCERTAINTY_ASSIGNED_CONTEXT((#68))GLOBAL_UNIT_ASSIGNED_CONTEXT((#70,#71,#72))REPRESENTATION_CONTEXT('NONE','WORKSPACE'));
#10=STYLED_ITEM('',(#74),#75);
#11=STYLED_ITEM('',(#76),#77);
#12=STYLED_ITEM('',(#78),#79);
#13=STYLED_ITEM('',(#80),#81);
#14=STYLED_ITEM('',(#82),#83);
#15=STYLED_ITEM('',(#84),#85);
#16=STYLED_ITEM('',(#86),#87);
#17=STYLED_ITEM('',(#88),#89);
#18=STYLED_ITEM('',(#90),#91);
#19=STYLED_ITEM('',(#92),#93);
#20=STYLED_ITEM('',(#94),#95);
#21=STYLED_ITEM('',(#96),#97);
#22=STYLED_ITEM('',(#98),#99);
#23=STYLED_ITEM('',(#100),#101);
#24=STYLED_ITEM('',(#102),#103);
#25=STYLED_ITEM('',(#104),#105);
#26=STYLED_ITEM('',(#106),#107);
#27=STYLED_ITEM('',(#108),#109);
#28=STYLED_ITEM('',(#110),#111);
#29=STYLED_ITEM('',(#112),#113);
#30=STYLED_ITEM('',(#114),#115);
#31=STYLED_ITEM('',(#116),#117);
#32=STYLED_ITEM('',(#118),#119);
#33=STYLED_ITEM('',(#120),#121);
#34=STYLED_ITEM('',(#122),#123);
#35=STYLED_ITEM('',(#124),#125);
#36=STYLED_ITEM('',(#126),#127);
#37=STYLED_ITEM('',(#128),#129);
#38=STYLED_ITEM('',(#130),#131);
#39=STYLED_ITEM('',(#132),#133);
#40=STYLED_ITEM('',(#134),#135);
#41=STYLED_ITEM('',(#136),#137);
#42=STYLED_ITEM('',(#138),#139);
#43=STYLED_ITEM('',(#140),#141);
#44=STYLED_ITEM('',(#142),#143);
#45=STYLED_ITEM('',(#144),#145);
#46=STYLED_ITEM('',(#146),#147);
#47=STYLED_ITEM('',(#148),#149);
#48=STYLED_ITEM('',(#150),#151);
#49=STYLED_ITEM('',(#152),#153);
#50=STYLED_ITEM('',(#154),#155);
#51=STYLED_ITEM('',(#156),#157);
#52=STYLED_ITEM('',(#158),#159);
#53=STYLED_ITEM('',(#160),#161);
#54=STYLED_ITEM('',(#162),#163);
#55=STYLED_ITEM('',(#164),#165);
#56=STYLED_ITEM('',(#166),#167);
#57=STYLED_ITEM('',(#168),#169);
#58=STYLED_ITEM('',(#170),#171);
#59=STYLED_ITEM('',(#172),#173);
#60=STYLED_ITEM('',(#174),#175);
#61=APPLICATION_CONTEXT(' ');
#62=PRODUCT_CATEGORY('part','NONE');
#63=PRODUCT_RELATED_PRODUCT_CATEGORY('detail',' ',(#176));
#64=PRODUCT_DEFINITION_SHAPE('NONE','NONE',#177);
#65=ADVANCED_BREP_SHAPE_REPRESENTATION('1',(#91,#178),#6);
#68=UNCERTAINTY_MEASURE_WITH_UNIT(LENGTH_MEASURE(1.0E-006),#70,'','');
#70= (CONVERSION_BASED_UNIT('MILLIMETRE',#181)LENGTH_UNIT()NAMED_UNIT(#184));
#71= (NAMED_UNIT(#186)PLANE_ANGLE_UNIT()SI_UNIT($,.RADIAN.));
#72= (NAMED_UNIT(#186)SOLID_ANGLE_UNIT()SI_UNIT($,.STERADIAN.));
#74=PRESENTATION_STYLE_ASSIGNMENT((#192));
#75=ADVANCED_FACE('',(#193),#194,.T.);
#76=PRESENTATION_STYLE_ASSIGNMENT((#195));
#77=EDGE_CURVE('',#149,#169,#196,.T.);
#78=PRESENTATION_STYLE_ASSIGNMENT((#197));
#79=VERTEX_POINT('',#198);
#80=PRESENTATION_STYLE_ASSIGNMENT((#199));
#81=VERTEX_POINT('',#200);
#82=PRESENTATION_STYLE_ASSIGNMENT((#201));
#83=VERTEX_POINT('',#202);
#84=PRESENTATION_STYLE_ASSIGNMENT((#203));
#85=VERTEX_POINT('',#204);
#86=PRESENTATION_STYLE_ASSIGNMENT((#205));
#87=VERTEX_POINT('',#206);
#88=PRESENTATION_STYLE_ASSIGNMENT((#207));
#89=EDGE_CURVE('',#137,#163,#208,.T.);
#90=PRESENTATION_STYLE_ASSIGNMENT((#209));
#91=MANIFOLD_SOLID_BREP('1',#210);
#92=PRESENTATION_STYLE_ASSIGNMENT((#211));
#93=EDGE_CURVE('',#169,#79,#212,.T.);
#94=PRESENTATION_STYLE_ASSIGNMENT((#213));
#95=EDGE_CURVE('',#79,#99,#214,.T.);
#96=PRESENTATION_STYLE_ASSIGNMENT((#215));
#97=VERTEX_POINT('',#216);
#98=PRESENTATION_STYLE_ASSIGNMENT((#217));
#99=VERTEX_POINT('',#218);
#100=PRESENTATION_STYLE_ASSIGNMENT((#219));
#101=EDGE_CURVE('',#87,#153,#220,.T.);
#102=PRESENTATION_STYLE_ASSIGNMENT((#221));
#103=EDGE_CURVE('',#137,#81,#222,.T.);
#104=PRESENTATION_STYLE_ASSIGNMENT((#223));
#105=ADVANCED_FACE('',(#224),#225,.T.);
#106=PRESENTATION_STYLE_ASSIGNMENT((#226));
#107=ADVANCED_FACE('',(#227),#228,.T.);
#108=PRESENTATION_STYLE_ASSIGNMENT((#229));
#109=ADVANCED_FACE('',(#230),#231,.F.);
#110=PRESENTATION_STYLE_ASSIGNMENT((#232));
#111=EDGE_CURVE('',#117,#153,#233,.T.);
#112=PRESENTATION_STYLE_ASSIGNMENT((#234));
#113=ADVANCED_FACE('',(#235),#236,.T.);
#114=PRESENTATION_STYLE_ASSIGNMENT((#237));
#115=EDGE_CURVE('',#163,#149,#238,.T.);
#116=PRESENTATION_STYLE_ASSIGNMENT((#239));
#117=VERTEX_POINT('',#240);
#118=PRESENTATION_STYLE_ASSIGNMENT((#241));
#119=EDGE_CURVE('',#151,#85,#242,.T.);
#120=PRESENTATION_STYLE_ASSIGNMENT((#243));
#121=EDGE_CURVE('',#79,#161,#244,.T.);
#122=PRESENTATION_STYLE_ASSIGNMENT((#245));
#123=EDGE_CURVE('',#161,#87,#246,.T.);
#124=PRESENTATION_STYLE_ASSIGNMENT((#247));
#125=VERTEX_POINT('',#248);
#126=PRESENTATION_STYLE_ASSIGNMENT((#249));
#127=EDGE_CURVE('',#99,#117,#250,.T.);
#128=PRESENTATION_STYLE_ASSIGNMENT((#251));
#129=EDGE_CURVE('',#153,#125,#252,.T.);
#130=PRESENTATION_STYLE_ASSIGNMENT((#253));
#131=EDGE_CURVE('',#87,#83,#254,.T.);
#132=PRESENTATION_STYLE_ASSIGNMENT((#255));
#133=EDGE_CURVE('',#83,#137,#256,.T.);
#134=PRESENTATION_STYLE_ASSIGNMENT((#257));
#135=EDGE_CURVE('',#81,#151,#258,.T.);
#136=PRESENTATION_STYLE_ASSIGNMENT((#259));
#137=VERTEX_POINT('',#260);
#138=PRESENTATION_STYLE_ASSIGNMENT((#261));
#139=EDGE_CURVE('',#97,#99,#262,.T.);
#140=PRESENTATION_STYLE_ASSIGNMENT((#263));
#141=EDGE_CURVE('',#161,#117,#264,.T.);
#142=PRESENTATION_STYLE_ASSIGNMENT((#265));
#143=EDGE_CURVE('',#149,#85,#266,.T.);
#144=PRESENTATION_STYLE_ASSIGNMENT((#267));
#145=ADVANCED_FACE('',(#268),#269,.T.);
#146=PRESENTATION_STYLE_ASSIGNMENT((#270));
#147=EDGE_CURVE('',#163,#151,#271,.T.);
#148=PRESENTATION_STYLE_ASSIGNMENT((#272));
#149=VERTEX_POINT('',#273);
#150=PRESENTATION_STYLE_ASSIGNMENT((#274));
#151=VERTEX_POINT('',#275);
#152=PRESENTATION_STYLE_ASSIGNMENT((#276));
#153=VERTEX_POINT('',#277);
#154=PRESENTATION_STYLE_ASSIGNMENT((#278));
#155=ADVANCED_FACE('',(#279),#280,.T.);
#156=PRESENTATION_STYLE_ASSIGNMENT((#281));
#157=ADVANCED_FACE('',(#282),#283,.T.);
#158=PRESENTATION_STYLE_ASSIGNMENT((#284));
#159=EDGE_CURVE('',#125,#81,#285,.T.);
#160=PRESENTATION_STYLE_ASSIGNMENT((#286));
#161=VERTEX_POINT('',#287);
#162=PRESENTATION_STYLE_ASSIGNMENT((#288));
#163=VERTEX_POINT('',#289);
#164=PRESENTATION_STYLE_ASSIGNMENT((#290));
#165=EDGE_CURVE('',#85,#97,#291,.T.);
#166=PRESENTATION_STYLE_ASSIGNMENT((#292));
#167=ADVANCED_FACE('',(#293),#294,.T.);
#168=PRESENTATION_STYLE_ASSIGNMENT((#295));
#169=VERTEX_POINT('',#296);
#170=PRESENTATION_STYLE_ASSIGNMENT((#297));
#171=ADVANCED_FACE('',(#298),#299,.T.);
#172=PRESENTATION_STYLE_ASSIGNMENT((#300));
#173=EDGE_CURVE('',#169,#97,#301,.T.);
#174=PRESENTATION_STYLE_ASSIGNMENT((#302));
#175=EDGE_CURVE('',#83,#125,#303,.T.);
#176=PRODUCT('1','1','PART-1-DESC',(#304));
#177=PRODUCT_DEFINITION('NONE','NONE',#305,#2);
#178=AXIS2_PLACEMENT_3D('',#306,#307,#308);
#181=LENGTH_MEASURE_WITH_UNIT(LENGTH_MEASURE(1.0),#309);
#184=DIMENSIONAL_EXPONENTS(1.0,0.0,0.0,0.0,0.0,0.0,0.0);
#186=DIMENSIONAL_EXPONENTS(0.0,0.0,0.0,0.0,0.0,0.0,0.0);
#192=SURFACE_STYLE_USAGE(.BOTH.,#310);
#193=FACE_OUTER_BOUND('',#311,.T.);
#194=CONICAL_SURFACE('',#312,0.4,0.139626340159547);
#195=CURVE_STYLE('',#313,POSITIVE_LENGTH_MEASURE(1.0E-006),#314);
#196=LINE('',#315,#316);
#197=POINT_STYLE(' ',#317,POSITIVE_LENGTH_MEASURE(1.0E-006),#318);
#198=CARTESIAN_POINT('',(4.6,4.9999999999,0.0));
#199=POINT_STYLE(' ',#319,POSITIVE_LENGTH_MEASURE(1.0E-006),#320);
#200=CARTESIAN_POINT('',(0.4,0.309189836345262,-2.2));
#201=POINT_STYLE(' ',#321,POSITIVE_LENGTH_MEASURE(1.0E-006),#322);
#202=CARTESIAN_POINT('',(0.0,0.4,0.0));
#203=POINT_STYLE(' ',#323,POSITIVE_LENGTH_MEASURE(1.0E-006),#324);
#204=CARTESIAN_POINT('',(4.69081016365474,0.4,-2.2));
#205=POINT_STYLE(' ',#325,POSITIVE_LENGTH_MEASURE(1.0E-006),#326);
#206=CARTESIAN_POINT('',(9.99991200956174E-011,4.6,0.0));
#207=CURVE_STYLE('',#327,POSITIVE_LENGTH_MEASURE(1.0E-006),#328);
#208=LINE('',#329,#330);
#209=SURFACE_STYLE_USAGE(.BOTH.,#331);
#210=CLOSED_SHELL('',(#75,#167,#155,#105,#113,#157,#171,#145,#109,#107));
#211=CURVE_STYLE('',#332,POSITIVE_LENGTH_MEASURE(1.0E-006),#333);
#212=CIRCLE('',#334,0.400000000000001);
#213=CURVE_STYLE('',#335,POSITIVE_LENGTH_MEASURE(1.0E-006),#336);
#214=LINE('',#337,#338);
#215=POINT_STYLE(' ',#339,POSITIVE_LENGTH_MEASURE(1.0E-006),#340);
#216=CARTESIAN_POINT('',(4.69081016355474,4.5999999999227,-2.2));
#217=POINT_STYLE(' ',#341,POSITIVE_LENGTH_MEASURE(1.0E-006),#342);
#218=CARTESIAN_POINT('',(4.6,4.69081016365474,-2.2));
#219=CURVE_STYLE('',#343,POSITIVE_LENGTH_MEASURE(1.0E-006),#344);
#220=LINE('',#345,#346);
#221=CURVE_STYLE('',#347,POSITIVE_LENGTH_MEASURE(1.0E-006),#348);
#222=LINE('',#349,#350);
#223=SURFACE_STYLE_USAGE(.BOTH.,#351);
#224=FACE_OUTER_BOUND('',#352,.T.);
#225=PLANE('',#353);
#226=SURFACE_STYLE_USAGE(.BOTH.,#354);
#227=FACE_OUTER_BOUND('',#355,.T.);
#228=PLANE('',#356);
#229=SURFACE_STYLE_USAGE(.BOTH.,#357);
#230=FACE_OUTER_BOUND('',#358,.T.);
#231=PLANE('',#359);
#232=CURVE_STYLE('',#360,POSITIVE_LENGTH_MEASURE(1.0E-006),#361);
#233=CIRCLE('',#362,0.0908101636547391);
#234=SURFACE_STYLE_USAGE(.BOTH.,#363);
#235=FACE_OUTER_BOUND('',#364,.T.);
#236=CONICAL_SURFACE('',#365,0.400000000000001,0.139626340159547);
#237=CURVE_STYLE('',#366,POSITIVE_LENGTH_MEASURE(1.0E-006),#367);
#238=CIRCLE('',#368,0.4);
#239=POINT_STYLE(' ',#369,POSITIVE_LENGTH_MEASURE(1.0E-006),#370);
#240=CARTESIAN_POINT('',(0.400000000077298,4.69081016355474,-2.2));
#241=CURVE_STYLE('',#371,POSITIVE_LENGTH_MEASURE(1.0E-006),#372);
#242=CIRCLE('',#373,0.0908101636547378);
#243=CURVE_STYLE('',#374,POSITIVE_LENGTH_MEASURE(1.0E-006),#375);
#244=LINE('',#376,#377);
#245=CURVE_STYLE('',#378,POSITIVE_LENGTH_MEASURE(1.0E-006),#379);
#246=CIRCLE('',#380,0.400000000000001);
#247=POINT_STYLE(' ',#381,POSITIVE_LENGTH_MEASURE(1.0E-006),#382);
#248=CARTESIAN_POINT('',(0.309189836445262,0.400000000077297,-2.2));
#249=CURVE_STYLE('',#383,POSITIVE_LENGTH_MEASURE(1.0E-006),#384);
#250=LINE('',#385,#386);
#251=CURVE_STYLE('',#387,POSITIVE_LENGTH_MEASURE(1.0E-006),#388);
#252=LINE('',#389,#390);
#253=CURVE_STYLE('',#391,POSITIVE_LENGTH_MEASURE(1.0E-006),#392);
#254=LINE('',#393,#394);
#255=CURVE_STYLE('',#395,POSITIVE_LENGTH_MEASURE(1.0E-006),#396);
#256=CIRCLE('',#397,0.4);
#257=CURVE_STYLE('',#398,POSITIVE_LENGTH_MEASURE(1.0E-006),#399);
#258=LINE('',#400,#401);
#259=POINT_STYLE(' ',#402,POSITIVE_LENGTH_MEASURE(1.0E-006),#403);
#260=CARTESIAN_POINT('',(0.4,0.0,0.0));
#261=CURVE_STYLE('',#404,POSITIVE_LENGTH_MEASURE(1.0E-006),#405);
#262=CIRCLE('',#406,0.0908101636547391);
#263=CURVE_STYLE('',#407,POSITIVE_LENGTH_MEASURE(1.0E-006),#408);
#264=LINE('',#409,#410);
#265=CURVE_STYLE('',#411,POSITIVE_LENGTH_MEASURE(1.0E-006),#412);
#266=LINE('',#413,#414);
#267=SURFACE_STYLE_USAGE(.BOTH.,#415);
#268=FACE_OUTER_BOUND('',#416,.T.);
#269=PLANE('',#417);
#270=CURVE_STYLE('',#418,POSITIVE_LENGTH_MEASURE(1.0E-006),#419);
#271=LINE('',#420,#421);
#272=POINT_STYLE(' ',#422,POSITIVE_LENGTH_MEASURE(1.0E-006),#423);
#273=CARTESIAN_POINT('',(4.9999999999,0.4,0.0));
#274=POINT_STYLE(' ',#424,POSITIVE_LENGTH_MEASURE(1.0E-006),#425);
#275=CARTESIAN_POINT('',(4.5999999999227,0.309189836445262,-2.2));
#276=POINT_STYLE(' ',#426,POSITIVE_LENGTH_MEASURE(1.0E-006),#427);
#277=CARTESIAN_POINT('',(0.309189836345262,4.6,-2.2));
#278=SURFACE_STYLE_USAGE(.BOTH.,#428);
#279=FACE_OUTER_BOUND('',#429,.T.);
#280=CONICAL_SURFACE('',#430,0.400000000000001,0.139626340159547);
#281=SURFACE_STYLE_USAGE(.BOTH.,#431);
#282=FACE_OUTER_BOUND('',#432,.T.);
#283=PLANE('',#433);
#284=CURVE_STYLE('',#434,POSITIVE_LENGTH_MEASURE(1.0E-006),#435);
#285=CIRCLE('',#436,0.0908101636547381);
#286=POINT_STYLE(' ',#437,POSITIVE_LENGTH_MEASURE(1.0E-006),#438);
#287=CARTESIAN_POINT('',(0.4,5.0,0.0));
#288=POINT_STYLE(' ',#439,POSITIVE_LENGTH_MEASURE(1.0E-006),#440);
#289=CARTESIAN_POINT('',(4.6,0.0,0.0));
#290=CURVE_STYLE('',#441,POSITIVE_LENGTH_MEASURE(1.0E-006),#442);
#291=LINE('',#443,#444);
#292=SURFACE_STYLE_USAGE(.BOTH.,#445);
#293=FACE_OUTER_BOUND('',#446,.T.);
#294=PLANE('',#447);
#295=POINT_STYLE(' ',#448,POSITIVE_LENGTH_MEASURE(1.0E-006),#449);
#296=CARTESIAN_POINT('',(5.0,4.6,0.0));
#297=SURFACE_STYLE_USAGE(.BOTH.,#450);
#298=FACE_OUTER_BOUND('',#451,.T.);
#299=CONICAL_SURFACE('',#452,0.4,0.139626340159547);
#300=CURVE_STYLE('',#453,POSITIVE_LENGTH_MEASURE(1.0E-006),#454);
#301=LINE('',#455,#456);
#302=CURVE_STYLE('',#457,POSITIVE_LENGTH_MEASURE(1.0E-006),#458);
#303=LINE('',#459,#460);
#304=PRODUCT_CONTEXT('',#61,'mechanical');
#305=PRODUCT_DEFINITION_FORMATION_WITH_SPECIFIED_SOURCE(' ','NONE',#176,.NOT_KNOWN.);
#306=CARTESIAN_POINT('',(0.0,0.0,0.0));
#307=DIRECTION('',(0.0,0.0,1.0));
#308=DIRECTION('',(1.0,0.0,0.0));
#309= (NAMED_UNIT(#184)LENGTH_UNIT()SI_UNIT(.MILLI.,.METRE.));
#310=SURFACE_SIDE_STYLE('',(#462));
#311=EDGE_LOOP('',(#463,#464,#465,#466));
#312=AXIS2_PLACEMENT_3D('',#467,#468,#469);
#313=DRAUGHTING_PRE_DEFINED_CURVE_FONT('continuous');
#314=COLOUR_RGB('',0.800000011920929,0.800000011920929,0.800000011920929);
#315=CARTESIAN_POINT('',(5.0,0.4,0.0));
#316=VECTOR('',#470,1.0);
#317=PRE_DEFINED_MARKER('');
#318=COLOUR_RGB('',0.800000011920929,0.800000011920929,0.800000011920929);
#319=PRE_DEFINED_MARKER('');
#320=COLOUR_RGB('',0.800000011920929,0.800000011920929,0.800000011920929);
#321=PRE_DEFINED_MARKER('');
#322=COLOUR_RGB('',0.800000011920929,0.800000011920929,0.800000011920929);
#323=PRE_DEFINED_MARKER('');
#324=COLOUR_RGB('',0.800000011920929,0.800000011920929,0.800000011920929);
#325=PRE_DEFINED_MARKER('');
#326=COLOUR_RGB('',0.800000011920929,0.800000011920929,0.800000011920929);
#327=DRAUGHTING_PRE_DEFINED_CURVE_FONT('continuous');
#328=COLOUR_RGB('',0.800000011920929,0.800000011920929,0.800000011920929);
#329=CARTESIAN_POINT('',(0.4,0.0,0.0));
#330=VECTOR('',#471,1.0);
#331=SURFACE_SIDE_STYLE('',(#472));
#332=DRAUGHTING_PRE_DEFINED_CURVE_FONT('continuous');
#333=COLOUR_RGB('',0.800000011920929,0.800000011920929,0.800000011920929);
#334=AXIS2_PLACEMENT_3D('',#473,#474,#475);
#335=DRAUGHTING_PRE_DEFINED_CURVE_FONT('continuous');
#336=COLOUR_RGB('',0.800000011920929,0.800000011920929,0.800000011920929);
#337=CARTESIAN_POINT('',(4.6,4.9999999999,0.0));
#338=VECTOR('',#476,1.0);
#339=PRE_DEFINED_MARKER('');
#340=COLOUR_RGB('',0.800000011920929,0.800000011920929,0.800000011920929);
#341=PRE_DEFINED_MARKER('');
#342=COLOUR_RGB('',0.800000011920929,0.800000011920929,0.800000011920929);
#343=DRAUGHTING_PRE_DEFINED_CURVE_FONT('continuous');
#344=COLOUR_RGB('',0.800000011920929,0.800000011920929,0.800000011920929);
#345=CARTESIAN_POINT('',(9.99991200956174E-011,4.6,0.0));
#346=VECTOR('',#477,1.0);
#347=DRAUGHTING_PRE_DEFINED_CURVE_FONT('continuous');
#348=COLOUR_RGB('',0.800000011920929,0.800000011920929,0.800000011920929);
#349=CARTESIAN_POINT('',(0.4,0.0,0.0));
#350=VECTOR('',#478,1.0);
#351=SURFACE_SIDE_STYLE('',(#479));
#352=EDGE_LOOP('',(#480,#481,#482,#483));
#353=AXIS2_PLACEMENT_3D('',#484,#485,#486);
#354=SURFACE_SIDE_STYLE('',(#487));
#355=EDGE_LOOP('',(#488,#489,#490,#491,#492,#493,#494,#495));
#356=AXIS2_PLACEMENT_3D('',#496,#497,#498);
#357=SURFACE_SIDE_STYLE('',(#499));
#358=EDGE_LOOP('',(#500,#501,#502,#503,#504,#505,#506,#507));
#359=AXIS2_PLACEMENT_3D('',#508,#509,#510);
#360=DRAUGHTING_PRE_DEFINED_CURVE_FONT('continuous');
#361=COLOUR_RGB('',0.800000011920929,0.800000011920929,0.800000011920929);
#362=AXIS2_PLACEMENT_3D('',#511,#512,#513);
#363=SURFACE_SIDE_STYLE('',(#514));
#364=EDGE_LOOP('',(#515,#516,#517,#518));
#365=AXIS2_PLACEMENT_3D('',#519,#520,#521);
#366=DRAUGHTING_PRE_DEFINED_CURVE_FONT('continuous');
#367=COLOUR_RGB('',0.800000011920929,0.800000011920929,0.800000011920929);
#368=AXIS2_PLACEMENT_3D('',#522,#523,#524);
#369=PRE_DEFINED_MARKER('');
#370=COLOUR_RGB('',0.800000011920929,0.800000011920929,0.800000011920929);
#371=DRAUGHTING_PRE_DEFINED_CURVE_FONT('continuous');
#372=COLOUR_RGB('',0.800000011920929,0.800000011920929,0.800000011920929);
#373=AXIS2_PLACEMENT_3D('',#525,#526,#527);
#374=DRAUGHTING_PRE_DEFINED_CURVE_FONT('continuous');
#375=COLOUR_RGB('',0.800000011920929,0.800000011920929,0.800000011920929);
#376=CARTESIAN_POINT('',(4.6,5.0,0.0));
#377=VECTOR('',#528,1.0);
#378=DRAUGHTING_PRE_DEFINED_CURVE_FONT('continuous');
#379=COLOUR_RGB('',0.800000011920929,0.800000011920929,0.800000011920929);
#380=AXIS2_PLACEMENT_3D('',#529,#530,#531);
#381=PRE_DEFINED_MARKER('');
#382=COLOUR_RGB('',0.800000011920929,0.800000011920929,0.800000011920929);
#383=DRAUGHTING_PRE_DEFINED_CURVE_FONT('continuous');
#384=COLOUR_RGB('',0.800000011920929,0.800000011920929,0.800000011920929);
#385=CARTESIAN_POINT('',(4.6,4.69081016365474,-2.2));
#386=VECTOR('',#532,1.0);
#387=DRAUGHTING_PRE_DEFINED_CURVE_FONT('continuous');
#388=COLOUR_RGB('',0.800000011920929,0.800000011920929,0.800000011920929);
#389=CARTESIAN_POINT('',(0.309189836345262,4.6,-2.2));
#390=VECTOR('',#533,1.0);
#391=DRAUGHTING_PRE_DEFINED_CURVE_FONT('continuous');
#392=COLOUR_RGB('',0.800000011920929,0.800000011920929,0.800000011920929);
#393=CARTESIAN_POINT('',(0.0,4.6,0.0));
#394=VECTOR('',#534,1.0);
#395=DRAUGHTING_PRE_DEFINED_CURVE_FONT('continuous');
#396=COLOUR_RGB('',0.800000011920929,0.800000011920929,0.800000011920929);
#397=AXIS2_PLACEMENT_3D('',#535,#536,#537);
#398=DRAUGHTING_PRE_DEFINED_CURVE_FONT('continuous');
#399=COLOUR_RGB('',0.800000011920929,0.800000011920929,0.800000011920929);
#400=CARTESIAN_POINT('',(0.4,0.309189836345262,-2.2));
#401=VECTOR('',#538,1.0);
#402=PRE_DEFINED_MARKER('');
#403=COLOUR_RGB('',0.800000011920929,0.800000011920929,0.800000011920929);
#404=DRAUGHTING_PRE_DEFINED_CURVE_FONT('continuous');
#405=COLOUR_RGB('',0.800000011920929,0.800000011920929,0.800000011920929);
#406=AXIS2_PLACEMENT_3D('',#539,#540,#541);
#407=DRAUGHTING_PRE_DEFINED_CURVE_FONT('continuous');
#408=COLOUR_RGB('',0.800000011920929,0.800000011920929,0.800000011920929);
#409=CARTESIAN_POINT('',(0.4,5.0,0.0));
#410=VECTOR('',#542,1.0);
#411=DRAUGHTING_PRE_DEFINED_CURVE_FONT('continuous');
#412=COLOUR_RGB('',0.800000011920929,0.800000011920929,0.800000011920929);
#413=CARTESIAN_POINT('',(4.9999999999,0.4,0.0));
#414=VECTOR('',#543,1.0);
#415=SURFACE_SIDE_STYLE('',(#544));
#416=EDGE_LOOP('',(#545,#546,#547,#548));
#417=AXIS2_PLACEMENT_3D('',#549,#550,#551);
#418=DRAUGHTING_PRE_DEFINED_CURVE_FONT('continuous');
#419=COLOUR_RGB('',0.800000011920929,0.800000011920929,0.800000011920929);
#420=CARTESIAN_POINT('',(4.6,0.0,0.0));
#421=VECTOR('',#552,1.0);
#422=PRE_DEFINED_MARKER('');
#423=COLOUR_RGB('',0.800000011920929,0.800000011920929,0.800000011920929);
#424=PRE_DEFINED_MARKER('');
#425=COLOUR_RGB('',0.800000011920929,0.800000011920929,0.800000011920929);
#426=PRE_DEFINED_MARKER('');
#427=COLOUR_RGB('',0.800000011920929,0.800000011920929,0.800000011920929);
#428=SURFACE_SIDE_STYLE('',(#553));
#429=EDGE_LOOP('',(#554,#555,#556,#557));
#430=AXIS2_PLACEMENT_3D('',#558,#559,#560);
#431=SURFACE_SIDE_STYLE('',(#561));
#432=EDGE_LOOP('',(#562,#563,#564,#565));
#433=AXIS2_PLACEMENT_3D('',#566,#567,#568);
#434=DRAUGHTING_PRE_DEFINED_CURVE_FONT('continuous');
#435=COLOUR_RGB('',0.800000011920929,0.800000011920929,0.800000011920929);
#436=AXIS2_PLACEMENT_3D('',#569,#570,#571);
#437=PRE_DEFINED_MARKER('');
#438=COLOUR_RGB('',0.800000011920929,0.800000011920929,0.800000011920929);
#439=PRE_DEFINED_MARKER('');
#440=COLOUR_RGB('',0.800000011920929,0.800000011920929,0.800000011920929);
#441=DRAUGHTING_PRE_DEFINED_CURVE_FONT('continuous');
#442=COLOUR_RGB('',0.800000011920929,0.800000011920929,0.800000011920929);
#443=CARTESIAN_POINT('',(4.69081016365474,0.4,-2.2));
#444=VECTOR('',#572,1.0);
#445=SURFACE_SIDE_STYLE('',(#573));
#446=EDGE_LOOP('',(#574,#575,#576,#577));
#447=AXIS2_PLACEMENT_3D('',#578,#579,#580);
#448=PRE_DEFINED_MARKER('');
#449=COLOUR_RGB('',0.800000011920929,0.800000011920929,0.800000011920929);
#450=SURFACE_SIDE_STYLE('',(#581));
#451=EDGE_LOOP('',(#582,#583,#584,#585));
#452=AXIS2_PLACEMENT_3D('',#586,#587,#588);
#453=DRAUGHTING_PRE_DEFINED_CURVE_FONT('continuous');
#454=COLOUR_RGB('',0.800000011920929,0.800000011920929,0.800000011920929);
#455=CARTESIAN_POINT('',(5.0,4.6,0.0));
#456=VECTOR('',#589,1.0);
#457=DRAUGHTING_PRE_DEFINED_CURVE_FONT('continuous');
#458=COLOUR_RGB('',0.800000011920929,0.800000011920929,0.800000011920929);
#459=CARTESIAN_POINT('',(0.0,0.4,0.0));
#460=VECTOR('',#590,1.0);
#462=SURFACE_STYLE_FILL_AREA(#591);
#463=ORIENTED_EDGE('',*,*,#119,.T.);
#464=ORIENTED_EDGE('',*,*,#143,.F.);
#465=ORIENTED_EDGE('',*,*,#115,.F.);
#466=ORIENTED_EDGE('',*,*,#147,.T.);
#467=CARTESIAN_POINT('',(4.5999999999,0.4000000001,0.0));
#468=DIRECTION('',(-0.0,-0.0,1.0));
#469=DIRECTION('',(2.50000020685093E-010,-1.0,0.0));
#470=DIRECTION('',(0.0,1.0,0.0));
#471=DIRECTION('',(1.0,0.0,0.0));
#472=SURFACE_STYLE_FILL_AREA(#592);
#473=CARTESIAN_POINT('',(4.5999999999,4.5999999999,0.0));
#474=DIRECTION('',(0.0,-0.0,1.0));
#475=DIRECTION('',(1.0,2.50002241131141E-010,0.0));
#476=DIRECTION('',(0.0,-0.139173100915926,-0.990268068747774));
#477=DIRECTION('',(0.139173100915926,0.0,-0.990268068747774));
#478=DIRECTION('',(0.0,0.139173100960066,-0.99026806874157));
#479=SURFACE_STYLE_FILL_AREA(#593);
#480=ORIENTED_EDGE('',*,*,#127,.T.);
#481=ORIENTED_EDGE('',*,*,#141,.F.);
#482=ORIENTED_EDGE('',*,*,#121,.F.);
#483=ORIENTED_EDGE('',*,*,#95,.T.);
#484=CARTESIAN_POINT('',(4.6,4.9999999999,0.0));
#485=DIRECTION('',(0.0,0.990268068747774,-0.139173100915926));
#486=DIRECTION('',(1.0,-0.0,0.0));
#487=SURFACE_STYLE_FILL_AREA(#594);
#488=ORIENTED_EDGE('',*,*,#89,.T.);
#489=ORIENTED_EDGE('',*,*,#115,.T.);
#490=ORIENTED_EDGE('',*,*,#77,.T.);
#491=ORIENTED_EDGE('',*,*,#93,.T.);
#492=ORIENTED_EDGE('',*,*,#121,.T.);
#493=ORIENTED_EDGE('',*,*,#123,.T.);
#494=ORIENTED_EDGE('',*,*,#131,.T.);
#495=ORIENTED_EDGE('',*,*,#133,.T.);
#496=CARTESIAN_POINT('',(2.5,2.5,0.0));
#497=DIRECTION('',(0.0,0.0,1.0));
#498=DIRECTION('',(1.0,0.0,0.0));
#499=SURFACE_STYLE_FILL_AREA(#595);
#500=ORIENTED_EDGE('',*,*,#119,.F.);
#501=ORIENTED_EDGE('',*,*,#135,.F.);
#502=ORIENTED_EDGE('',*,*,#159,.F.);
#503=ORIENTED_EDGE('',*,*,#129,.F.);
#504=ORIENTED_EDGE('',*,*,#111,.F.);
#505=ORIENTED_EDGE('',*,*,#127,.F.);
#506=ORIENTED_EDGE('',*,*,#139,.F.);
#507=ORIENTED_EDGE('',*,*,#165,.F.);
#508=CARTESIAN_POINT('',(2.5,2.5,-2.2));
#509=DIRECTION('',(0.0,0.0,1.0));
#510=DIRECTION('',(1.0,0.0,0.0));
#511=CARTESIAN_POINT('',(0.4000000001,4.5999999999,-2.2));
#512=DIRECTION('',(0.0,0.0,1.0));
#513=DIRECTION('',(-2.50001269685995E-010,1.0,0.0));
#514=SURFACE_STYLE_FILL_AREA(#596);
#515=ORIENTED_EDGE('',*,*,#111,.T.);
#516=ORIENTED_EDGE('',*,*,#101,.F.);
#517=ORIENTED_EDGE('',*,*,#123,.F.);
#518=ORIENTED_EDGE('',*,*,#141,.T.);
#519=CARTESIAN_POINT('',(0.4000000001,4.5999999999,0.0));
#520=DIRECTION('',(-0.0,-0.0,1.0));
#521=DIRECTION('',(-2.50001269685995E-010,1.0,0.0));
#522=CARTESIAN_POINT('',(4.5999999999,0.4000000001,0.0));
#523=DIRECTION('',(0.0,0.0,1.0));
#524=DIRECTION('',(2.50000020685093E-010,-1.0,0.0));
#525=CARTESIAN_POINT('',(4.5999999999,0.4000000001,-2.2));
#526=DIRECTION('',(0.0,0.0,1.0));
#527=DIRECTION('',(2.50000020685093E-010,-1.0,0.0));
#528=DIRECTION('',(-1.0,0.0,0.0));
#529=CARTESIAN_POINT('',(0.4000000001,4.5999999999,0.0));
#530=DIRECTION('',(0.0,0.0,1.0));
#531=DIRECTION('',(-2.50001269685995E-010,1.0,0.0));
#532=DIRECTION('',(-1.0,0.0,0.0));
#533=DIRECTION('',(0.0,-1.0,0.0));
#534=DIRECTION('',(0.0,-1.0,0.0));
#535=CARTESIAN_POINT('',(0.4000000001,0.4000000001,0.0));
#536=DIRECTION('',(0.0,0.0,1.0));
#537=DIRECTION('',(-1.0,-2.49998494128434E-010,0.0));
#538=DIRECTION('',(1.0,0.0,0.0));
#539=CARTESIAN_POINT('',(4.5999999999,4.5999999999,-2.2));
#540=DIRECTION('',(0.0,-0.0,1.0));
#541=DIRECTION('',(1.0,2.50002241131141E-010,0.0));
#542=DIRECTION('',(3.47932694490801E-011,-0.139173101004206,-0.990268068735367));
#543=DIRECTION('',(-0.139173100915926,0.0,-0.990268068747774));
#544=SURFACE_STYLE_FILL_AREA(#597);
#545=ORIENTED_EDGE('',*,*,#135,.T.);
#546=ORIENTED_EDGE('',*,*,#147,.F.);
#547=ORIENTED_EDGE('',*,*,#89,.F.);
#548=ORIENTED_EDGE('',*,*,#103,.T.);
#549=CARTESIAN_POINT('',(0.4,0.0,0.0));
#550=DIRECTION('',(-0.0,-0.99026806874157,-0.139173100960066));
#551=DIRECTION('',(-1.0,0.0,0.0));
#552=DIRECTION('',(-3.4792794700221E-011,0.139173101004206,-0.990268068735367));
#553=SURFACE_STYLE_FILL_AREA(#598);
#554=ORIENTED_EDGE('',*,*,#139,.T.);
#555=ORIENTED_EDGE('',*,*,#95,.F.);
#556=ORIENTED_EDGE('',*,*,#93,.F.);
#557=ORIENTED_EDGE('',*,*,#173,.T.);
#558=CARTESIAN_POINT('',(4.5999999999,4.5999999999,0.0));
#559=DIRECTION('',(-0.0,-0.0,1.0));
#560=DIRECTION('',(1.0,2.50002241131141E-010,0.0));
#561=SURFACE_STYLE_FILL_AREA(#599);
#562=ORIENTED_EDGE('',*,*,#129,.T.);
#563=ORIENTED_EDGE('',*,*,#175,.F.);
#564=ORIENTED_EDGE('',*,*,#131,.F.);
#565=ORIENTED_EDGE('',*,*,#101,.T.);
#566=CARTESIAN_POINT('',(9.99991200956174E-011,4.6,0.0));
#567=DIRECTION('',(-0.990268068747774,0.0,-0.139173100915926));
#568=DIRECTION('',(0.0,1.0,0.0));
#569=CARTESIAN_POINT('',(0.4000000001,0.4000000001,-2.2));
#570=DIRECTION('',(0.0,0.0,1.0));
#571=DIRECTION('',(-1.0,-2.49998494128434E-010,0.0));
#572=DIRECTION('',(0.0,1.0,0.0));
#573=SURFACE_STYLE_FILL_AREA(#600);
#574=ORIENTED_EDGE('',*,*,#165,.T.);
#575=ORIENTED_EDGE('',*,*,#173,.F.);
#576=ORIENTED_EDGE('',*,*,#77,.F.);
#577=ORIENTED_EDGE('',*,*,#143,.T.);
#578=CARTESIAN_POINT('',(4.9999999999,0.4,0.0));
#579=DIRECTION('',(0.990268068747774,-0.0,-0.139173100915926));
#580=DIRECTION('',(-0.0,-1.0,0.0));
#581=SURFACE_STYLE_FILL_AREA(#601);
#582=ORIENTED_EDGE('',*,*,#159,.T.);
#583=ORIENTED_EDGE('',*,*,#103,.F.);
#584=ORIENTED_EDGE('',*,*,#133,.F.);
#585=ORIENTED_EDGE('',*,*,#175,.T.);
#586=CARTESIAN_POINT('',(0.4000000001,0.4000000001,0.0));
#587=DIRECTION('',(0.0,-0.0,1.0));
#588=DIRECTION('',(-1.0,-2.49998494128434E-010,0.0));
#589=DIRECTION('',(-0.139173101004206,-3.47935942772468E-011,-0.990268068735367));
#590=DIRECTION('',(0.139173101004206,3.47931195283878E-011,-0.990268068735367));
#591=FILL_AREA_STYLE('',(#602));
#592=FILL_AREA_STYLE('',(#603));
#593=FILL_AREA_STYLE('',(#604));
#594=FILL_AREA_STYLE('',(#605));
#595=FILL_AREA_STYLE('',(#606));
#596=FILL_AREA_STYLE('',(#607));
#597=FILL_AREA_STYLE('',(#608));
#598=FILL_AREA_STYLE('',(#609));
#599=FILL_AREA_STYLE('',(#610));
#600=FILL_AREA_STYLE('',(#611));
#601=FILL_AREA_STYLE('',(#612));
#602=FILL_AREA_STYLE_COLOUR('',#613);
#603=FILL_AREA_STYLE_COLOUR('',#614);
#604=FILL_AREA_STYLE_COLOUR('',#615);
#605=FILL_AREA_STYLE_COLOUR('',#616);
#606=FILL_AREA_STYLE_COLOUR('',#617);
#607=FILL_AREA_STYLE_COLOUR('',#618);
#608=FILL_AREA_STYLE_COLOUR('',#619);
#609=FILL_AREA_STYLE_COLOUR('',#620);
#610=FILL_AREA_STYLE_COLOUR('',#621);
#611=FILL_AREA_STYLE_COLOUR('',#622);
#612=FILL_AREA_STYLE_COLOUR('',#623);
#613=COLOUR_RGB('',0.800000011920929,0.800000011920929,0.800000011920929);
#614=COLOUR_RGB('',0.800000011920929,0.800000011920929,0.800000011920929);
#615=COLOUR_RGB('',0.800000011920929,0.800000011920929,0.800000011920929);
#616=COLOUR_RGB('',0.800000011920929,0.800000011920929,0.800000011920929);
#617=COLOUR_RGB('',0.800000011920929,0.800000011920929,0.800000011920929);
#618=COLOUR_RGB('',0.800000011920929,0.800000011920929,0.800000011920929);
#619=COLOUR_RGB('',0.800000011920929,0.800000011920929,0.800000011920929);
#620=COLOUR_RGB('',0.800000011920929,0.800000011920929,0.800000011920929);
#621=COLOUR_RGB('',0.800000011920929,0.800000011920929,0.800000011920929);
#622=COLOUR_RGB('',0.800000011920929,0.800000011920929,0.800000011920929);
#623=COLOUR_RGB('',0.800000011920929,0.800000011920929,0.800000011920929);
#624=AXIS2_PLACEMENT_3D('PCS',#625,#626,#627);
#625=CARTESIAN_POINT('',(0.0,0.0,0.0));
#626=DIRECTION('',(0.0,0.0,1.0));
#627=DIRECTION('',(1.0,0.0,0.0));
#628=AXIS2_PLACEMENT_3D('MCS',#629,#630,#631);
#629=CARTESIAN_POINT('',(2.5,2.5,0.0));
#630=DIRECTION('',(0.0,0.0,1.0));
#631=DIRECTION('',(1.0,0.0,0.0));
#632=CONSTRUCTIVE_GEOMETRY_REPRESENTATION_RELATIONSHIP('coordinate systems',$,#65,#633);
#633=CONSTRUCTIVE_GEOMETRY_REPRESENTATION('coordinate systems',(#624,#628),#6);
ENDSEC;
END-ISO-10303-21;
