ISO-10303-21;
HEADER;
FILE_DESCRIPTION(('no description'),'unknown implementation level');
FILE_NAME('solidSFGkIoRT3DXaapiH75dcMONpvI4_1.STP','  ',('CIMSOURCE GmbH'),('CADClick - KiM GmbH - www.kimweb.de'),'unknown preprocess','ACIS','unknown authorization');
FILE_SCHEMA(('automotive_design'));
ENDSEC;
DATA;
#1=MECHANICAL_DESIGN_GEOMETRIC_PRESENTATION_REPRESENTATION(' ',(#10,#11,#12,#13,#14,#15,#16,#17,#18,#19,#20,#21,#22,#23,#24,#25,#26,#27,#28,#29,#30,#31,#32,#33,#34,#35,#36,#37,#38,#39,#40),#6);
#2=PRODUCT_DEFINITION_CONTEXT('',#41,'design');
#3=APPLICATION_PROTOCOL_DEFINITION('INTERNATIONAL STANDARD','automotive_design',1994,#41);
#4=PRODUCT_CATEGORY_RELATIONSHIP('NONE','NONE',#42,#43);
#5=SHAPE_DEFINITION_REPRESENTATION(#44,#45);
#6= (GEOMETRIC_REPRESENTATION_CONTEXT(3)GLOBAL_UNCERTAINTY_ASSIGNED_CONTEXT((#48))GLOBAL_UNIT_ASSIGNED_CONTEXT((#50,#51,#52))REPRESENTATION_CONTEXT('NONE','WORKSPACE'));
#10=STYLED_ITEM('',(#54),#55);
#11=STYLED_ITEM('',(#56),#57);
#12=STYLED_ITEM('',(#58),#59);
#13=STYLED_ITEM('',(#60),#61);
#14=STYLED_ITEM('',(#62),#63);
#15=STYLED_ITEM('',(#64),#65);
#16=STYLED_ITEM('',(#66),#67);
#17=STYLED_ITEM('',(#68),#69);
#18=STYLED_ITEM('',(#70),#71);
#19=STYLED_ITEM('',(#72),#73);
#20=STYLED_ITEM('',(#74),#75);
#21=STYLED_ITEM('',(#76),#77);
#22=STYLED_ITEM('',(#78),#79);
#23=STYLED_ITEM('',(#80),#81);
#24=STYLED_ITEM('',(#82),#83);
#25=STYLED_ITEM('',(#84),#85);
#26=STYLED_ITEM('',(#86),#87);
#27=STYLED_ITEM('',(#88),#89);
#28=STYLED_ITEM('',(#90),#91);
#29=STYLED_ITEM('',(#92),#93);
#30=STYLED_ITEM('',(#94),#95);
#31=STYLED_ITEM('',(#96),#97);
#32=STYLED_ITEM('',(#98),#99);
#33=STYLED_ITEM('',(#100),#101);
#34=STYLED_ITEM('',(#102),#103);
#35=STYLED_ITEM('',(#104),#105);
#36=STYLED_ITEM('',(#106),#107);
#37=STYLED_ITEM('',(#108),#109);
#38=STYLED_ITEM('',(#110),#111);
#39=STYLED_ITEM('',(#112),#113);
#40=STYLED_ITEM('',(#114),#115);
#41=APPLICATION_CONTEXT(' ');
#42=PRODUCT_CATEGORY('part','NONE');
#43=PRODUCT_RELATED_PRODUCT_CATEGORY('detail',' ',(#116));
#44=PRODUCT_DEFINITION_SHAPE('NONE','NONE',#117);
#45=ADVANCED_BREP_SHAPE_REPRESENTATION('1',(#67,#118),#6);
#48=UNCERTAINTY_MEASURE_WITH_UNIT(LENGTH_MEASURE(1.0E-006),#50,'','');
#50= (CONVERSION_BASED_UNIT('MILLIMETRE',#121)LENGTH_UNIT()NAMED_UNIT(#124));
#51= (NAMED_UNIT(#126)PLANE_ANGLE_UNIT()SI_UNIT($,.RADIAN.));
#52= (NAMED_UNIT(#126)SOLID_ANGLE_UNIT()SI_UNIT($,.STERADIAN.));
#54=PRESENTATION_STYLE_ASSIGNMENT((#132));
#55=VERTEX_POINT('',#133);
#56=PRESENTATION_STYLE_ASSIGNMENT((#134));
#57=ADVANCED_FACE('',(#135),#136,.T.);
#58=PRESENTATION_STYLE_ASSIGNMENT((#137));
#59=EDGE_CURVE('',#75,#107,#138,.T.);
#60=PRESENTATION_STYLE_ASSIGNMENT((#139));
#61=EDGE_CURVE('',#55,#105,#140,.T.);
#62=PRESENTATION_STYLE_ASSIGNMENT((#141));
#63=ADVANCED_FACE('',(#142),#143,.T.);
#64=PRESENTATION_STYLE_ASSIGNMENT((#144));
#65=EDGE_CURVE('',#111,#95,#145,.T.);
#66=PRESENTATION_STYLE_ASSIGNMENT((#146));
#67=MANIFOLD_SOLID_BREP('1',#147);
#68=PRESENTATION_STYLE_ASSIGNMENT((#148));
#69=ADVANCED_FACE('',(#149),#150,.T.);
#70=PRESENTATION_STYLE_ASSIGNMENT((#151));
#71=EDGE_CURVE('',#55,#75,#152,.T.);
#72=PRESENTATION_STYLE_ASSIGNMENT((#153));
#73=ADVANCED_FACE('',(#154),#155,.T.);
#74=PRESENTATION_STYLE_ASSIGNMENT((#156));
#75=VERTEX_POINT('',#157);
#76=PRESENTATION_STYLE_ASSIGNMENT((#158));
#77=EDGE_CURVE('',#105,#55,#159,.T.);
#78=PRESENTATION_STYLE_ASSIGNMENT((#160));
#79=EDGE_CURVE('',#81,#105,#161,.T.);
#80=PRESENTATION_STYLE_ASSIGNMENT((#162));
#81=VERTEX_POINT('',#163);
#82=PRESENTATION_STYLE_ASSIGNMENT((#164));
#83=ADVANCED_FACE('',(#165),#166,.T.);
#84=PRESENTATION_STYLE_ASSIGNMENT((#167));
#85=EDGE_CURVE('',#93,#107,#168,.T.);
#86=PRESENTATION_STYLE_ASSIGNMENT((#169));
#87=EDGE_CURVE('',#75,#81,#170,.T.);
#88=PRESENTATION_STYLE_ASSIGNMENT((#171));
#89=ADVANCED_FACE('',(#172),#173,.T.);
#90=PRESENTATION_STYLE_ASSIGNMENT((#174));
#91=EDGE_CURVE('',#81,#75,#175,.T.);
#92=PRESENTATION_STYLE_ASSIGNMENT((#176));
#93=VERTEX_POINT('',#177);
#94=PRESENTATION_STYLE_ASSIGNMENT((#178));
#95=VERTEX_POINT('',#179);
#96=PRESENTATION_STYLE_ASSIGNMENT((#180));
#97=EDGE_CURVE('',#107,#95,#181,.T.);
#98=PRESENTATION_STYLE_ASSIGNMENT((#182));
#99=EDGE_CURVE('',#95,#111,#183,.T.);
#100=PRESENTATION_STYLE_ASSIGNMENT((#184));
#101=ADVANCED_FACE('',(#185),#186,.T.);
#102=PRESENTATION_STYLE_ASSIGNMENT((#187));
#103=EDGE_CURVE('',#111,#93,#188,.T.);
#104=PRESENTATION_STYLE_ASSIGNMENT((#189));
#105=VERTEX_POINT('',#190);
#106=PRESENTATION_STYLE_ASSIGNMENT((#191));
#107=VERTEX_POINT('',#192);
#108=PRESENTATION_STYLE_ASSIGNMENT((#193));
#109=EDGE_CURVE('',#107,#93,#194,.T.);
#110=PRESENTATION_STYLE_ASSIGNMENT((#195));
#111=VERTEX_POINT('',#196);
#112=PRESENTATION_STYLE_ASSIGNMENT((#197));
#113=ADVANCED_FACE('',(#198),#199,.T.);
#114=PRESENTATION_STYLE_ASSIGNMENT((#200));
#115=EDGE_CURVE('',#93,#81,#201,.T.);
#116=PRODUCT('1','1','PART-1-DESC',(#202));
#117=PRODUCT_DEFINITION('NONE','NONE',#203,#2);
#118=AXIS2_PLACEMENT_3D('',#204,#205,#206);
#121=LENGTH_MEASURE_WITH_UNIT(LENGTH_MEASURE(1.0),#207);
#124=DIMENSIONAL_EXPONENTS(1.0,0.0,0.0,0.0,0.0,0.0,0.0);
#126=DIMENSIONAL_EXPONENTS(0.0,0.0,0.0,0.0,0.0,0.0,0.0);
#132=POINT_STYLE(' ',#208,POSITIVE_LENGTH_MEASURE(1.0E-006),#209);
#133=CARTESIAN_POINT('',(4.99673806247285E-016,-4.08028102,-85.0));
#134=SURFACE_STYLE_USAGE(.BOTH.,#210);
#135=FACE_OUTER_BOUND('',#211,.T.);
#136=CYLINDRICAL_SURFACE('',#212,5.0);
#137=CURVE_STYLE('',#213,POSITIVE_LENGTH_MEASURE(1.0E-006),#214);
#138=LINE('',#215,#216);
#139=CURVE_STYLE('',#217,POSITIVE_LENGTH_MEASURE(1.0E-006),#218);
#140=CIRCLE('',#219,4.08028102);
#141=SURFACE_STYLE_USAGE(.BOTH.,#220);
#142=FACE_OUTER_BOUND('',#221,.T.);
#143=CYLINDRICAL_SURFACE('',#222,5.0);
#144=CURVE_STYLE('',#223,POSITIVE_LENGTH_MEASURE(1.0E-006),#224);
#145=CIRCLE('',#225,4.5);
#146=SURFACE_STYLE_USAGE(.BOTH.,#226);
#147=CLOSED_SHELL('',(#57,#101,#69,#113,#89,#83,#63,#73));
#148=SURFACE_STYLE_USAGE(.BOTH.,#227);
#149=FACE_OUTER_BOUND('',#228,.T.);
#150=CONICAL_SURFACE('',#229,4.54014051,1.0471975511966);
#151=CURVE_STYLE('',#230,POSITIVE_LENGTH_MEASURE(1.0E-006),#231);
#152=LINE('',#232,#233);
#153=SURFACE_STYLE_USAGE(.BOTH.,#234);
#154=FACE_OUTER_BOUND('',#235,.T.);
#155=PLANE('',#236);
#156=POINT_STYLE(' ',#237,POSITIVE_LENGTH_MEASURE(1.0E-006),#238);
#157=CARTESIAN_POINT('',(6.12303176911189E-016,-5.0,-84.4689999993182));
#158=CURVE_STYLE('',#239,POSITIVE_LENGTH_MEASURE(1.0E-006),#240);
#159=CIRCLE('',#241,4.08028102);
#160=CURVE_STYLE('',#242,POSITIVE_LENGTH_MEASURE(1.0E-006),#243);
#161=LINE('',#244,#245);
#162=POINT_STYLE(' ',#246,POSITIVE_LENGTH_MEASURE(1.0E-006),#247);
#163=CARTESIAN_POINT('',(0.0,5.0,-84.4689999993182));
#164=SURFACE_STYLE_USAGE(.BOTH.,#248);
#165=FACE_OUTER_BOUND('',#249,.T.);
#166=CONICAL_SURFACE('',#250,4.75,0.785398163397448);
#167=CURVE_STYLE('',#251,POSITIVE_LENGTH_MEASURE(1.0E-006),#252);
#168=CIRCLE('',#253,5.0);
#169=CURVE_STYLE('',#254,POSITIVE_LENGTH_MEASURE(1.0E-006),#255);
#170=CIRCLE('',#256,5.0);
#171=SURFACE_STYLE_USAGE(.BOTH.,#257);
#172=FACE_OUTER_BOUND('',#258,.T.);
#173=PLANE('',#259);
#174=CURVE_STYLE('',#260,POSITIVE_LENGTH_MEASURE(1.0E-006),#261);
#175=CIRCLE('',#262,5.0);
#176=POINT_STYLE(' ',#263,POSITIVE_LENGTH_MEASURE(1.0E-006),#264);
#177=CARTESIAN_POINT('',(0.0,5.0,-0.5));
#178=POINT_STYLE(' ',#265,POSITIVE_LENGTH_MEASURE(1.0E-006),#266);
#179=CARTESIAN_POINT('',(5.5107285922007E-016,-4.5,0.0));
#180=CURVE_STYLE('',#267,POSITIVE_LENGTH_MEASURE(1.0E-006),#268);
#181=LINE('',#269,#270);
#182=CURVE_STYLE('',#271,POSITIVE_LENGTH_MEASURE(1.0E-006),#272);
#183=CIRCLE('',#273,4.5);
#184=SURFACE_STYLE_USAGE(.BOTH.,#274);
#185=FACE_OUTER_BOUND('',#275,.T.);
#186=CONICAL_SURFACE('',#276,4.75,0.785398163397448);
#187=CURVE_STYLE('',#277,POSITIVE_LENGTH_MEASURE(1.0E-006),#278);
#188=LINE('',#279,#280);
#189=POINT_STYLE(' ',#281,POSITIVE_LENGTH_MEASURE(1.0E-006),#282);
#190=CARTESIAN_POINT('',(0.0,4.08028102,-85.0));
#191=POINT_STYLE(' ',#283,POSITIVE_LENGTH_MEASURE(1.0E-006),#284);
#192=CARTESIAN_POINT('',(6.12303176911189E-016,-5.0,-0.5));
#193=CURVE_STYLE('',#285,POSITIVE_LENGTH_MEASURE(1.0E-006),#286);
#194=CIRCLE('',#287,5.0);
#195=POINT_STYLE(' ',#288,POSITIVE_LENGTH_MEASURE(1.0E-006),#289);
#196=CARTESIAN_POINT('',(0.0,4.5,0.0));
#197=SURFACE_STYLE_USAGE(.BOTH.,#290);
#198=FACE_OUTER_BOUND('',#291,.T.);
#199=CONICAL_SURFACE('',#292,4.54014051,1.0471975511966);
#200=CURVE_STYLE('',#293,POSITIVE_LENGTH_MEASURE(1.0E-006),#294);
#201=LINE('',#295,#296);
#202=PRODUCT_CONTEXT('',#41,'mechanical');
#203=PRODUCT_DEFINITION_FORMATION_WITH_SPECIFIED_SOURCE(' ','NONE',#116,.NOT_KNOWN.);
#204=CARTESIAN_POINT('',(0.0,0.0,0.0));
#205=DIRECTION('',(0.0,0.0,1.0));
#206=DIRECTION('',(1.0,0.0,0.0));
#207= (NAMED_UNIT(#124)LENGTH_UNIT()SI_UNIT(.MILLI.,.METRE.));
#208=PRE_DEFINED_MARKER('');
#209=COLOUR_RGB('',0.498039215803146,0.498039215803146,0.498039215803146);
#210=SURFACE_SIDE_STYLE('',(#298));
#211=EDGE_LOOP('',(#299,#300,#301,#302));
#212=AXIS2_PLACEMENT_3D('',#303,#304,#305);
#213=DRAUGHTING_PRE_DEFINED_CURVE_FONT('continuous');
#214=COLOUR_RGB('',0.498039215803146,0.498039215803146,0.498039215803146);
#215=CARTESIAN_POINT('',(6.12303176911189E-016,-5.0,-21.75));
#216=VECTOR('',#306,1.0);
#217=DRAUGHTING_PRE_DEFINED_CURVE_FONT('continuous');
#218=COLOUR_RGB('',0.498039215803146,0.498039215803146,0.498039215803146);
#219=AXIS2_PLACEMENT_3D('',#307,#308,#309);
#220=SURFACE_SIDE_STYLE('',(#310));
#221=EDGE_LOOP('',(#311,#312,#313,#314));
#222=AXIS2_PLACEMENT_3D('',#315,#316,#317);
#223=DRAUGHTING_PRE_DEFINED_CURVE_FONT('continuous');
#224=COLOUR_RGB('',0.498039215803146,0.498039215803146,0.498039215803146);
#225=AXIS2_PLACEMENT_3D('',#318,#319,#320);
#226=SURFACE_SIDE_STYLE('',(#321));
#227=SURFACE_SIDE_STYLE('',(#322));
#228=EDGE_LOOP('',(#323,#324,#325,#326));
#229=AXIS2_PLACEMENT_3D('',#327,#328,#329);
#230=DRAUGHTING_PRE_DEFINED_CURVE_FONT('continuous');
#231=COLOUR_RGB('',0.800000011920929,0.800000011920929,0.800000011920929);
#232=CARTESIAN_POINT('',(5.55988491579237E-016,-4.54014051,-84.7344999996591));
#233=VECTOR('',#330,1.0);
#234=SURFACE_SIDE_STYLE('',(#331));
#235=EDGE_LOOP('',(#332,#333));
#236=AXIS2_PLACEMENT_3D('',#334,#335,#336);
#237=PRE_DEFINED_MARKER('');
#238=COLOUR_RGB('',0.800000011920929,0.800000011920929,0.800000011920929);
#239=DRAUGHTING_PRE_DEFINED_CURVE_FONT('continuous');
#240=COLOUR_RGB('',0.498039215803146,0.498039215803146,0.498039215803146);
#241=AXIS2_PLACEMENT_3D('',#337,#338,#339);
#242=DRAUGHTING_PRE_DEFINED_CURVE_FONT('continuous');
#243=COLOUR_RGB('',0.800000011920929,0.800000011920929,0.800000011920929);
#244=CARTESIAN_POINT('',(-5.55988491579237E-016,4.54014051,-84.7344999996591));
#245=VECTOR('',#340,1.0);
#246=PRE_DEFINED_MARKER('');
#247=COLOUR_RGB('',0.800000011920929,0.800000011920929,0.800000011920929);
#248=SURFACE_SIDE_STYLE('',(#341));
#249=EDGE_LOOP('',(#342,#343,#344,#345));
#250=AXIS2_PLACEMENT_3D('',#346,#347,#348);
#251=DRAUGHTING_PRE_DEFINED_CURVE_FONT('continuous');
#252=COLOUR_RGB('',0.498039215803146,0.498039215803146,0.498039215803146);
#253=AXIS2_PLACEMENT_3D('',#349,#350,#351);
#254=DRAUGHTING_PRE_DEFINED_CURVE_FONT('continuous');
#255=COLOUR_RGB('',0.800000011920929,0.800000011920929,0.800000011920929);
#256=AXIS2_PLACEMENT_3D('',#352,#353,#354);
#257=SURFACE_SIDE_STYLE('',(#355));
#258=EDGE_LOOP('',(#356,#357));
#259=AXIS2_PLACEMENT_3D('',#358,#359,#360);
#260=DRAUGHTING_PRE_DEFINED_CURVE_FONT('continuous');
#261=COLOUR_RGB('',0.800000011920929,0.800000011920929,0.800000011920929);
#262=AXIS2_PLACEMENT_3D('',#361,#362,#363);
#263=PRE_DEFINED_MARKER('');
#264=COLOUR_RGB('',0.498039215803146,0.498039215803146,0.498039215803146);
#265=PRE_DEFINED_MARKER('');
#266=COLOUR_RGB('',0.498039215803146,0.498039215803146,0.498039215803146);
#267=DRAUGHTING_PRE_DEFINED_CURVE_FONT('continuous');
#268=COLOUR_RGB('',0.498039215803146,0.498039215803146,0.498039215803146);
#269=CARTESIAN_POINT('',(5.81688018065629E-016,-4.75,-0.25));
#270=VECTOR('',#364,1.0);
#271=DRAUGHTING_PRE_DEFINED_CURVE_FONT('continuous');
#272=COLOUR_RGB('',0.498039215803146,0.498039215803146,0.498039215803146);
#273=AXIS2_PLACEMENT_3D('',#365,#366,#367);
#274=SURFACE_SIDE_STYLE('',(#368));
#275=EDGE_LOOP('',(#369,#370,#371,#372));
#276=AXIS2_PLACEMENT_3D('',#373,#374,#375);
#277=DRAUGHTING_PRE_DEFINED_CURVE_FONT('continuous');
#278=COLOUR_RGB('',0.498039215803146,0.498039215803146,0.498039215803146);
#279=CARTESIAN_POINT('',(-5.81688018065629E-016,4.75,-0.25));
#280=VECTOR('',#376,1.0);
#281=PRE_DEFINED_MARKER('');
#282=COLOUR_RGB('',0.498039215803146,0.498039215803146,0.498039215803146);
#283=PRE_DEFINED_MARKER('');
#284=COLOUR_RGB('',0.498039215803146,0.498039215803146,0.498039215803146);
#285=DRAUGHTING_PRE_DEFINED_CURVE_FONT('continuous');
#286=COLOUR_RGB('',0.498039215803146,0.498039215803146,0.498039215803146);
#287=AXIS2_PLACEMENT_3D('',#377,#378,#379);
#288=PRE_DEFINED_MARKER('');
#289=COLOUR_RGB('',0.498039215803146,0.498039215803146,0.498039215803146);
#290=SURFACE_SIDE_STYLE('',(#380));
#291=EDGE_LOOP('',(#381,#382,#383,#384));
#292=AXIS2_PLACEMENT_3D('',#385,#386,#387);
#293=DRAUGHTING_PRE_DEFINED_CURVE_FONT('continuous');
#294=COLOUR_RGB('',0.498039215803146,0.498039215803146,0.498039215803146);
#295=CARTESIAN_POINT('',(-6.12303176911189E-016,5.0,-21.75));
#296=VECTOR('',#388,1.0);
#298=SURFACE_STYLE_FILL_AREA(#389);
#299=ORIENTED_EDGE('',*,*,#115,.F.);
#300=ORIENTED_EDGE('',*,*,#85,.T.);
#301=ORIENTED_EDGE('',*,*,#59,.F.);
#302=ORIENTED_EDGE('',*,*,#91,.F.);
#303=CARTESIAN_POINT('',(0.0,0.0,-21.75));
#304=DIRECTION('',(-0.0,-0.0,1.0));
#305=DIRECTION('',(0.0,1.0,0.0));
#306=DIRECTION('',(-0.0,-0.0,1.0));
#307=CARTESIAN_POINT('',(0.0,0.0,-85.0));
#308=DIRECTION('',(0.0,0.0,-1.0));
#309=DIRECTION('',(0.0,1.0,0.0));
#310=SURFACE_STYLE_FILL_AREA(#390);
#311=ORIENTED_EDGE('',*,*,#115,.T.);
#312=ORIENTED_EDGE('',*,*,#87,.F.);
#313=ORIENTED_EDGE('',*,*,#59,.T.);
#314=ORIENTED_EDGE('',*,*,#109,.T.);
#315=CARTESIAN_POINT('',(0.0,0.0,-21.75));
#316=DIRECTION('',(-0.0,-0.0,1.0));
#317=DIRECTION('',(0.0,1.0,0.0));
#318=CARTESIAN_POINT('',(0.0,0.0,0.0));
#319=DIRECTION('',(0.0,0.0,-1.0));
#320=DIRECTION('',(0.0,1.0,0.0));
#321=SURFACE_STYLE_FILL_AREA(#391);
#322=SURFACE_STYLE_FILL_AREA(#392);
#323=ORIENTED_EDGE('',*,*,#79,.F.);
#324=ORIENTED_EDGE('',*,*,#91,.T.);
#325=ORIENTED_EDGE('',*,*,#71,.F.);
#326=ORIENTED_EDGE('',*,*,#77,.F.);
#327=CARTESIAN_POINT('',(0.0,0.0,-84.7344999996591));
#328=DIRECTION('',(-0.0,-0.0,1.0));
#329=DIRECTION('',(0.0,1.0,0.0));
#330=DIRECTION('',(1.06054021204601E-016,-0.866025403784439,0.5));
#331=SURFACE_STYLE_FILL_AREA(#393);
#332=ORIENTED_EDGE('',*,*,#77,.T.);
#333=ORIENTED_EDGE('',*,*,#61,.T.);
#334=CARTESIAN_POINT('',(0.0,2.04014051,-85.0));
#335=DIRECTION('',(0.0,0.0,-1.0));
#336=DIRECTION('',(0.0,1.0,0.0));
#337=CARTESIAN_POINT('',(0.0,0.0,-85.0));
#338=DIRECTION('',(0.0,0.0,-1.0));
#339=DIRECTION('',(0.0,1.0,0.0));
#340=DIRECTION('',(1.06054021204601E-016,-0.866025403784439,-0.5));
#341=SURFACE_STYLE_FILL_AREA(#394);
#342=ORIENTED_EDGE('',*,*,#103,.T.);
#343=ORIENTED_EDGE('',*,*,#109,.F.);
#344=ORIENTED_EDGE('',*,*,#97,.T.);
#345=ORIENTED_EDGE('',*,*,#99,.T.);
#346=CARTESIAN_POINT('',(0.0,0.0,-0.25));
#347=DIRECTION('',(0.0,-0.0,-1.0));
#348=DIRECTION('',(0.0,1.0,0.0));
#349=CARTESIAN_POINT('',(0.0,0.0,-0.5));
#350=DIRECTION('',(0.0,0.0,-1.0));
#351=DIRECTION('',(0.0,1.0,0.0));
#352=CARTESIAN_POINT('',(0.0,0.0,-84.4689999993182));
#353=DIRECTION('',(0.0,0.0,-1.0));
#354=DIRECTION('',(0.0,1.0,0.0));
#355=SURFACE_STYLE_FILL_AREA(#395);
#356=ORIENTED_EDGE('',*,*,#65,.F.);
#357=ORIENTED_EDGE('',*,*,#99,.F.);
#358=CARTESIAN_POINT('',(0.0,2.25,0.0));
#359=DIRECTION('',(-0.0,0.0,1.0));
#360=DIRECTION('',(0.0,-1.0,0.0));
#361=CARTESIAN_POINT('',(0.0,0.0,-84.4689999993182));
#362=DIRECTION('',(0.0,0.0,-1.0));
#363=DIRECTION('',(0.0,1.0,0.0));
#364=DIRECTION('',(-8.65927457071936E-017,0.707106781186548,0.707106781186548));
#365=CARTESIAN_POINT('',(0.0,0.0,0.0));
#366=DIRECTION('',(0.0,0.0,-1.0));
#367=DIRECTION('',(0.0,1.0,0.0));
#368=SURFACE_STYLE_FILL_AREA(#396);
#369=ORIENTED_EDGE('',*,*,#103,.F.);
#370=ORIENTED_EDGE('',*,*,#65,.T.);
#371=ORIENTED_EDGE('',*,*,#97,.F.);
#372=ORIENTED_EDGE('',*,*,#85,.F.);
#373=CARTESIAN_POINT('',(0.0,0.0,-0.25));
#374=DIRECTION('',(0.0,-0.0,-1.0));
#375=DIRECTION('',(0.0,1.0,0.0));
#376=DIRECTION('',(-8.65927457071936E-017,0.707106781186548,-0.707106781186548));
#377=CARTESIAN_POINT('',(0.0,0.0,-0.5));
#378=DIRECTION('',(0.0,0.0,-1.0));
#379=DIRECTION('',(0.0,1.0,0.0));
#380=SURFACE_STYLE_FILL_AREA(#397);
#381=ORIENTED_EDGE('',*,*,#79,.T.);
#382=ORIENTED_EDGE('',*,*,#61,.F.);
#383=ORIENTED_EDGE('',*,*,#71,.T.);
#384=ORIENTED_EDGE('',*,*,#87,.T.);
#385=CARTESIAN_POINT('',(0.0,0.0,-84.7344999996591));
#386=DIRECTION('',(-0.0,-0.0,1.0));
#387=DIRECTION('',(0.0,1.0,0.0));
#388=DIRECTION('',(0.0,0.0,-1.0));
#389=FILL_AREA_STYLE('',(#398));
#390=FILL_AREA_STYLE('',(#399));
#391=FILL_AREA_STYLE('',(#400));
#392=FILL_AREA_STYLE('',(#401));
#393=FILL_AREA_STYLE('',(#402));
#394=FILL_AREA_STYLE('',(#403));
#395=FILL_AREA_STYLE('',(#404));
#396=FILL_AREA_STYLE('',(#405));
#397=FILL_AREA_STYLE('',(#406));
#398=FILL_AREA_STYLE_COLOUR('',#407);
#399=FILL_AREA_STYLE_COLOUR('',#408);
#400=FILL_AREA_STYLE_COLOUR('',#409);
#401=FILL_AREA_STYLE_COLOUR('',#410);
#402=FILL_AREA_STYLE_COLOUR('',#411);
#403=FILL_AREA_STYLE_COLOUR('',#412);
#404=FILL_AREA_STYLE_COLOUR('',#413);
#405=FILL_AREA_STYLE_COLOUR('',#414);
#406=FILL_AREA_STYLE_COLOUR('',#415);
#407=COLOUR_RGB('',0.498039215803146,0.498039215803146,0.498039215803146);
#408=COLOUR_RGB('',0.498039215803146,0.498039215803146,0.498039215803146);
#409=COLOUR_RGB('',0.498039215803146,0.498039215803146,0.498039215803146);
#410=COLOUR_RGB('',0.800000011920929,0.800000011920929,0.800000011920929);
#411=COLOUR_RGB('',0.498039215803146,0.498039215803146,0.498039215803146);
#412=COLOUR_RGB('',0.498039215803146,0.498039215803146,0.498039215803146);
#413=COLOUR_RGB('',0.498039215803146,0.498039215803146,0.498039215803146);
#414=COLOUR_RGB('',0.498039215803146,0.498039215803146,0.498039215803146);
#415=COLOUR_RGB('',0.800000011920929,0.800000011920929,0.800000011920929);
#416=AXIS2_PLACEMENT_3D('PCS',#417,#418,#419);
#417=CARTESIAN_POINT('',(0.0,0.0,0.0));
#418=DIRECTION('',(0.0,0.0,1.0));
#419=DIRECTION('',(1.0,0.0,0.0));
#420=AXIS2_PLACEMENT_3D('CIP',#421,#422,#423);
#421=CARTESIAN_POINT('',(0.0,0.0,-85.0));
#422=DIRECTION('',(0.0,0.0,1.0));
#423=DIRECTION('',(1.0,0.0,0.0));
#424=AXIS2_PLACEMENT_3D('CRP',#425,#426,#427);
#425=CARTESIAN_POINT('',(-5.0,0.0,-85.0));
#426=DIRECTION('',(0.0,0.0,1.0));
#427=DIRECTION('',(1.0,0.0,0.0));
#428=AXIS2_PLACEMENT_3D('MCS',#429,#430,#431);
#429=CARTESIAN_POINT('',(0.0,0.0,-43.0));
#430=DIRECTION('',(0.0,0.0,1.0));
#431=DIRECTION('',(1.0,0.0,0.0));
#432=CONSTRUCTIVE_GEOMETRY_REPRESENTATION_RELATIONSHIP('coordinate systems',$,#45,#433);
#433=CONSTRUCTIVE_GEOMETRY_REPRESENTATION('coordinate systems',(#416,#420,#424,#428),#6);
ENDSEC;
END-ISO-10303-21;
