ISO-10303-21;
HEADER;
FILE_DESCRIPTION(('no description'),'unknown implementation level');
FILE_NAME('solidd8zimJg6wXqCCRsrbwqXQfMXi98_1.STP','  ',('CIMSOURCE GmbH'),('CADClick - KiM GmbH - www.kimweb.de'),'unknown preprocess','ACIS','unknown authorization');
FILE_SCHEMA(('automotive_design'));
ENDSEC;
DATA;
#1=MECHANICAL_DESIGN_GEOMETRIC_PRESENTATION_REPRESENTATION(' ',(#10,#11,#12,#13,#14,#15,#16,#17,#18,#19,#20,#21,#22,#23,#24,#25,#26,#27,#28,#29,#30,#31,#32,#33,#34,#35,#36,#37,#38,#39,#40),#6);
#2=PRODUCT_DEFINITION_CONTEXT('',#41,'design');
#3=APPLICATION_PROTOCOL_DEFINITION('INTERNATIONAL STANDARD','automotive_design',1994,#41);
#4=PRODUCT_CATEGORY_RELATIONSHIP('NONE','NONE',#42,#43);
#5=SHAPE_DEFINITION_REPRESENTATION(#44,#45);
#6= (GEOMETRIC_REPRESENTATION_CONTEXT(3)GLOBAL_UNCERTAINTY_ASSIGNED_CONTEXT((#48))GLOBAL_UNIT_ASSIGNED_CONTEXT((#50,#51,#52))REPRESENTATION_CONTEXT('NONE','WORKSPACE'));
#10=STYLED_ITEM('',(#54),#55);
#11=STYLED_ITEM('',(#56),#57);
#12=STYLED_ITEM('',(#58),#59);
#13=STYLED_ITEM('',(#60),#61);
#14=STYLED_ITEM('',(#62),#63);
#15=STYLED_ITEM('',(#64),#65);
#16=STYLED_ITEM('',(#66),#67);
#17=STYLED_ITEM('',(#68),#69);
#18=STYLED_ITEM('',(#70),#71);
#19=STYLED_ITEM('',(#72),#73);
#20=STYLED_ITEM('',(#74),#75);
#21=STYLED_ITEM('',(#76),#77);
#22=STYLED_ITEM('',(#78),#79);
#23=STYLED_ITEM('',(#80),#81);
#24=STYLED_ITEM('',(#82),#83);
#25=STYLED_ITEM('',(#84),#85);
#26=STYLED_ITEM('',(#86),#87);
#27=STYLED_ITEM('',(#88),#89);
#28=STYLED_ITEM('',(#90),#91);
#29=STYLED_ITEM('',(#92),#93);
#30=STYLED_ITEM('',(#94),#95);
#31=STYLED_ITEM('',(#96),#97);
#32=STYLED_ITEM('',(#98),#99);
#33=STYLED_ITEM('',(#100),#101);
#34=STYLED_ITEM('',(#102),#103);
#35=STYLED_ITEM('',(#104),#105);
#36=STYLED_ITEM('',(#106),#107);
#37=STYLED_ITEM('',(#108),#109);
#38=STYLED_ITEM('',(#110),#111);
#39=STYLED_ITEM('',(#112),#113);
#40=STYLED_ITEM('',(#114),#115);
#41=APPLICATION_CONTEXT(' ');
#42=PRODUCT_CATEGORY('part','NONE');
#43=PRODUCT_RELATED_PRODUCT_CATEGORY('detail',' ',(#116));
#44=PRODUCT_DEFINITION_SHAPE('NONE','NONE',#117);
#45=ADVANCED_BREP_SHAPE_REPRESENTATION('1',(#79,#118),#6);
#48=UNCERTAINTY_MEASURE_WITH_UNIT(LENGTH_MEASURE(1.0E-006),#50,'','');
#50= (CONVERSION_BASED_UNIT('MILLIMETRE',#121)LENGTH_UNIT()NAMED_UNIT(#124));
#51= (NAMED_UNIT(#126)PLANE_ANGLE_UNIT()SI_UNIT($,.RADIAN.));
#52= (NAMED_UNIT(#126)SOLID_ANGLE_UNIT()SI_UNIT($,.STERADIAN.));
#54=PRESENTATION_STYLE_ASSIGNMENT((#132));
#55=EDGE_CURVE('',#115,#85,#133,.T.);
#56=PRESENTATION_STYLE_ASSIGNMENT((#134));
#57=ADVANCED_FACE('',(#135),#136,.T.);
#58=PRESENTATION_STYLE_ASSIGNMENT((#137));
#59=ADVANCED_FACE('',(#138),#139,.T.);
#60=PRESENTATION_STYLE_ASSIGNMENT((#140));
#61=EDGE_CURVE('',#81,#115,#141,.T.);
#62=PRESENTATION_STYLE_ASSIGNMENT((#142));
#63=EDGE_CURVE('',#103,#71,#143,.T.);
#64=PRESENTATION_STYLE_ASSIGNMENT((#144));
#65=EDGE_CURVE('',#71,#95,#145,.T.);
#66=PRESENTATION_STYLE_ASSIGNMENT((#146));
#67=ADVANCED_FACE('',(#147),#148,.T.);
#68=PRESENTATION_STYLE_ASSIGNMENT((#149));
#69=EDGE_CURVE('',#81,#97,#150,.T.);
#70=PRESENTATION_STYLE_ASSIGNMENT((#151));
#71=VERTEX_POINT('',#152);
#72=PRESENTATION_STYLE_ASSIGNMENT((#153));
#73=ADVANCED_FACE('',(#154),#155,.T.);
#74=PRESENTATION_STYLE_ASSIGNMENT((#156));
#75=EDGE_CURVE('',#115,#95,#157,.T.);
#76=PRESENTATION_STYLE_ASSIGNMENT((#158));
#77=EDGE_CURVE('',#85,#71,#159,.T.);
#78=PRESENTATION_STYLE_ASSIGNMENT((#160));
#79=MANIFOLD_SOLID_BREP('1',#161);
#80=PRESENTATION_STYLE_ASSIGNMENT((#162));
#81=VERTEX_POINT('',#163);
#82=PRESENTATION_STYLE_ASSIGNMENT((#164));
#83=EDGE_CURVE('',#95,#97,#165,.T.);
#84=PRESENTATION_STYLE_ASSIGNMENT((#166));
#85=VERTEX_POINT('',#167);
#86=PRESENTATION_STYLE_ASSIGNMENT((#168));
#87=EDGE_CURVE('',#85,#111,#169,.T.);
#88=PRESENTATION_STYLE_ASSIGNMENT((#170));
#89=ADVANCED_FACE('',(#171),#172,.T.);
#90=PRESENTATION_STYLE_ASSIGNMENT((#173));
#91=ADVANCED_FACE('',(#174),#175,.T.);
#92=PRESENTATION_STYLE_ASSIGNMENT((#176));
#93=EDGE_CURVE('',#71,#85,#177,.T.);
#94=PRESENTATION_STYLE_ASSIGNMENT((#178));
#95=VERTEX_POINT('',#179);
#96=PRESENTATION_STYLE_ASSIGNMENT((#180));
#97=VERTEX_POINT('',#181);
#98=PRESENTATION_STYLE_ASSIGNMENT((#182));
#99=EDGE_CURVE('',#111,#103,#183,.T.);
#100=PRESENTATION_STYLE_ASSIGNMENT((#184));
#101=EDGE_CURVE('',#97,#81,#185,.T.);
#102=PRESENTATION_STYLE_ASSIGNMENT((#186));
#103=VERTEX_POINT('',#187);
#104=PRESENTATION_STYLE_ASSIGNMENT((#188));
#105=ADVANCED_FACE('',(#189),#190,.T.);
#106=PRESENTATION_STYLE_ASSIGNMENT((#191));
#107=EDGE_CURVE('',#95,#115,#192,.T.);
#108=PRESENTATION_STYLE_ASSIGNMENT((#193));
#109=EDGE_CURVE('',#103,#111,#194,.T.);
#110=PRESENTATION_STYLE_ASSIGNMENT((#195));
#111=VERTEX_POINT('',#196);
#112=PRESENTATION_STYLE_ASSIGNMENT((#197));
#113=ADVANCED_FACE('',(#198),#199,.T.);
#114=PRESENTATION_STYLE_ASSIGNMENT((#200));
#115=VERTEX_POINT('',#201);
#116=PRODUCT('1','1','PART-1-DESC',(#202));
#117=PRODUCT_DEFINITION('NONE','NONE',#203,#2);
#118=AXIS2_PLACEMENT_3D('',#204,#205,#206);
#121=LENGTH_MEASURE_WITH_UNIT(LENGTH_MEASURE(1.0),#207);
#124=DIMENSIONAL_EXPONENTS(1.0,0.0,0.0,0.0,0.0,0.0,0.0);
#126=DIMENSIONAL_EXPONENTS(0.0,0.0,0.0,0.0,0.0,0.0,0.0);
#132=CURVE_STYLE('',#208,POSITIVE_LENGTH_MEASURE(1.0E-006),#209);
#133=LINE('',#210,#211);
#134=SURFACE_STYLE_USAGE(.BOTH.,#212);
#135=FACE_OUTER_BOUND('',#213,.T.);
#136=CYLINDRICAL_SURFACE('',#214,5.0);
#137=SURFACE_STYLE_USAGE(.BOTH.,#215);
#138=FACE_OUTER_BOUND('',#216,.T.);
#139=PLANE('',#217);
#140=CURVE_STYLE('',#218,POSITIVE_LENGTH_MEASURE(1.0E-006),#219);
#141=LINE('',#220,#221);
#142=CURVE_STYLE('',#222,POSITIVE_LENGTH_MEASURE(1.0E-006),#223);
#143=LINE('',#224,#225);
#144=CURVE_STYLE('',#226,POSITIVE_LENGTH_MEASURE(1.0E-006),#227);
#145=LINE('',#228,#229);
#146=SURFACE_STYLE_USAGE(.BOTH.,#230);
#147=FACE_OUTER_BOUND('',#231,.T.);
#148=CYLINDRICAL_SURFACE('',#232,5.0);
#149=CURVE_STYLE('',#233,POSITIVE_LENGTH_MEASURE(1.0E-006),#234);
#150=CIRCLE('',#235,4.5);
#151=POINT_STYLE(' ',#236,POSITIVE_LENGTH_MEASURE(1.0E-006),#237);
#152=CARTESIAN_POINT('',(6.12303176911189E-016,-5.0,-84.2920000010154));
#153=SURFACE_STYLE_USAGE(.BOTH.,#238);
#154=FACE_OUTER_BOUND('',#239,.T.);
#155=CONICAL_SURFACE('',#240,4.75,0.785398163397448);
#156=CURVE_STYLE('',#241,POSITIVE_LENGTH_MEASURE(1.0E-006),#242);
#157=CIRCLE('',#243,5.0);
#158=CURVE_STYLE('',#244,POSITIVE_LENGTH_MEASURE(1.0E-006),#245);
#159=CIRCLE('',#246,5.0);
#160=SURFACE_STYLE_USAGE(.BOTH.,#247);
#161=CLOSED_SHELL('',(#57,#73,#113,#105,#59,#91,#67,#89));
#162=POINT_STYLE(' ',#248,POSITIVE_LENGTH_MEASURE(1.0E-006),#249);
#163=CARTESIAN_POINT('',(0.0,4.5,0.0));
#164=CURVE_STYLE('',#250,POSITIVE_LENGTH_MEASURE(1.0E-006),#251);
#165=LINE('',#252,#253);
#166=POINT_STYLE(' ',#254,POSITIVE_LENGTH_MEASURE(1.0E-006),#255);
#167=CARTESIAN_POINT('',(0.0,5.0,-84.2920000010154));
#168=CURVE_STYLE('',#256,POSITIVE_LENGTH_MEASURE(1.0E-006),#257);
#169=LINE('',#258,#259);
#170=SURFACE_STYLE_USAGE(.BOTH.,#260);
#171=FACE_OUTER_BOUND('',#261,.T.);
#172=PLANE('',#262);
#173=SURFACE_STYLE_USAGE(.BOTH.,#263);
#174=FACE_OUTER_BOUND('',#264,.T.);
#175=CONICAL_SURFACE('',#265,4.75,0.785398163397448);
#176=CURVE_STYLE('',#266,POSITIVE_LENGTH_MEASURE(1.0E-006),#267);
#177=CIRCLE('',#268,5.0);
#178=POINT_STYLE(' ',#269,POSITIVE_LENGTH_MEASURE(1.0E-006),#270);
#179=CARTESIAN_POINT('',(6.12303176911189E-016,-5.0,-0.5));
#180=POINT_STYLE(' ',#271,POSITIVE_LENGTH_MEASURE(1.0E-006),#272);
#181=CARTESIAN_POINT('',(5.5107285922007E-016,-4.5,0.0));
#182=CURVE_STYLE('',#273,POSITIVE_LENGTH_MEASURE(1.0E-006),#274);
#183=CIRCLE('',#275,3.77370803);
#184=CURVE_STYLE('',#276,POSITIVE_LENGTH_MEASURE(1.0E-006),#277);
#185=CIRCLE('',#278,4.5);
#186=POINT_STYLE(' ',#279,POSITIVE_LENGTH_MEASURE(1.0E-006),#280);
#187=CARTESIAN_POINT('',(4.62130683100853E-016,-3.77370803,-85.0));
#188=SURFACE_STYLE_USAGE(.BOTH.,#281);
#189=FACE_OUTER_BOUND('',#282,.T.);
#190=CONICAL_SURFACE('',#283,4.386854015,1.0471975511966);
#191=CURVE_STYLE('',#284,POSITIVE_LENGTH_MEASURE(1.0E-006),#285);
#192=CIRCLE('',#286,5.0);
#193=CURVE_STYLE('',#287,POSITIVE_LENGTH_MEASURE(1.0E-006),#288);
#194=CIRCLE('',#289,3.77370803);
#195=POINT_STYLE(' ',#290,POSITIVE_LENGTH_MEASURE(1.0E-006),#291);
#196=CARTESIAN_POINT('',(0.0,3.77370803,-85.0));
#197=SURFACE_STYLE_USAGE(.BOTH.,#292);
#198=FACE_OUTER_BOUND('',#293,.T.);
#199=CONICAL_SURFACE('',#294,4.386854015,1.0471975511966);
#200=POINT_STYLE(' ',#295,POSITIVE_LENGTH_MEASURE(1.0E-006),#296);
#201=CARTESIAN_POINT('',(0.0,5.0,-0.5));
#202=PRODUCT_CONTEXT('',#41,'mechanical');
#203=PRODUCT_DEFINITION_FORMATION_WITH_SPECIFIED_SOURCE(' ','NONE',#116,.NOT_KNOWN.);
#204=CARTESIAN_POINT('',(0.0,0.0,0.0));
#205=DIRECTION('',(0.0,0.0,1.0));
#206=DIRECTION('',(1.0,0.0,0.0));
#207= (NAMED_UNIT(#124)LENGTH_UNIT()SI_UNIT(.MILLI.,.METRE.));
#208=DRAUGHTING_PRE_DEFINED_CURVE_FONT('continuous');
#209=COLOUR_RGB('',0.498039215803146,0.498039215803146,0.498039215803146);
#210=CARTESIAN_POINT('',(-6.12303176911189E-016,5.0,-21.75));
#211=VECTOR('',#298,1.0);
#212=SURFACE_SIDE_STYLE('',(#299));
#213=EDGE_LOOP('',(#300,#301,#302,#303));
#214=AXIS2_PLACEMENT_3D('',#304,#305,#306);
#215=SURFACE_SIDE_STYLE('',(#307));
#216=EDGE_LOOP('',(#308,#309));
#217=AXIS2_PLACEMENT_3D('',#310,#311,#312);
#218=DRAUGHTING_PRE_DEFINED_CURVE_FONT('continuous');
#219=COLOUR_RGB('',0.498039215803146,0.498039215803146,0.498039215803146);
#220=CARTESIAN_POINT('',(-5.81688018065629E-016,4.75,-0.25));
#221=VECTOR('',#313,1.0);
#222=DRAUGHTING_PRE_DEFINED_CURVE_FONT('continuous');
#223=COLOUR_RGB('',0.800000011920929,0.800000011920929,0.800000011920929);
#224=CARTESIAN_POINT('',(5.37216930006021E-016,-4.386854015,-84.6460000005077));
#225=VECTOR('',#314,1.0);
#226=DRAUGHTING_PRE_DEFINED_CURVE_FONT('continuous');
#227=COLOUR_RGB('',0.498039215803146,0.498039215803146,0.498039215803146);
#228=CARTESIAN_POINT('',(6.12303176911189E-016,-5.0,-21.75));
#229=VECTOR('',#315,1.0);
#230=SURFACE_SIDE_STYLE('',(#316));
#231=EDGE_LOOP('',(#317,#318,#319,#320));
#232=AXIS2_PLACEMENT_3D('',#321,#322,#323);
#233=DRAUGHTING_PRE_DEFINED_CURVE_FONT('continuous');
#234=COLOUR_RGB('',0.498039215803146,0.498039215803146,0.498039215803146);
#235=AXIS2_PLACEMENT_3D('',#324,#325,#326);
#236=PRE_DEFINED_MARKER('');
#237=COLOUR_RGB('',0.800000011920929,0.800000011920929,0.800000011920929);
#238=SURFACE_SIDE_STYLE('',(#327));
#239=EDGE_LOOP('',(#328,#329,#330,#331));
#240=AXIS2_PLACEMENT_3D('',#332,#333,#334);
#241=DRAUGHTING_PRE_DEFINED_CURVE_FONT('continuous');
#242=COLOUR_RGB('',0.498039215803146,0.498039215803146,0.498039215803146);
#243=AXIS2_PLACEMENT_3D('',#335,#336,#337);
#244=DRAUGHTING_PRE_DEFINED_CURVE_FONT('continuous');
#245=COLOUR_RGB('',0.800000011920929,0.800000011920929,0.800000011920929);
#246=AXIS2_PLACEMENT_3D('',#338,#339,#340);
#247=SURFACE_SIDE_STYLE('',(#341));
#248=PRE_DEFINED_MARKER('');
#249=COLOUR_RGB('',0.498039215803146,0.498039215803146,0.498039215803146);
#250=DRAUGHTING_PRE_DEFINED_CURVE_FONT('continuous');
#251=COLOUR_RGB('',0.498039215803146,0.498039215803146,0.498039215803146);
#252=CARTESIAN_POINT('',(5.81688018065629E-016,-4.75,-0.25));
#253=VECTOR('',#342,1.0);
#254=PRE_DEFINED_MARKER('');
#255=COLOUR_RGB('',0.800000011920929,0.800000011920929,0.800000011920929);
#256=DRAUGHTING_PRE_DEFINED_CURVE_FONT('continuous');
#257=COLOUR_RGB('',0.800000011920929,0.800000011920929,0.800000011920929);
#258=CARTESIAN_POINT('',(-5.37216930006021E-016,4.386854015,-84.6460000005077));
#259=VECTOR('',#343,1.0);
#260=SURFACE_SIDE_STYLE('',(#344));
#261=EDGE_LOOP('',(#345,#346));
#262=AXIS2_PLACEMENT_3D('',#347,#348,#349);
#263=SURFACE_SIDE_STYLE('',(#350));
#264=EDGE_LOOP('',(#351,#352,#353,#354));
#265=AXIS2_PLACEMENT_3D('',#355,#356,#357);
#266=DRAUGHTING_PRE_DEFINED_CURVE_FONT('continuous');
#267=COLOUR_RGB('',0.800000011920929,0.800000011920929,0.800000011920929);
#268=AXIS2_PLACEMENT_3D('',#358,#359,#360);
#269=PRE_DEFINED_MARKER('');
#270=COLOUR_RGB('',0.498039215803146,0.498039215803146,0.498039215803146);
#271=PRE_DEFINED_MARKER('');
#272=COLOUR_RGB('',0.498039215803146,0.498039215803146,0.498039215803146);
#273=DRAUGHTING_PRE_DEFINED_CURVE_FONT('continuous');
#274=COLOUR_RGB('',0.498039215803146,0.498039215803146,0.498039215803146);
#275=AXIS2_PLACEMENT_3D('',#361,#362,#363);
#276=DRAUGHTING_PRE_DEFINED_CURVE_FONT('continuous');
#277=COLOUR_RGB('',0.498039215803146,0.498039215803146,0.498039215803146);
#278=AXIS2_PLACEMENT_3D('',#364,#365,#366);
#279=PRE_DEFINED_MARKER('');
#280=COLOUR_RGB('',0.498039215803146,0.498039215803146,0.498039215803146);
#281=SURFACE_SIDE_STYLE('',(#367));
#282=EDGE_LOOP('',(#368,#369,#370,#371));
#283=AXIS2_PLACEMENT_3D('',#372,#373,#374);
#284=DRAUGHTING_PRE_DEFINED_CURVE_FONT('continuous');
#285=COLOUR_RGB('',0.498039215803146,0.498039215803146,0.498039215803146);
#286=AXIS2_PLACEMENT_3D('',#375,#376,#377);
#287=DRAUGHTING_PRE_DEFINED_CURVE_FONT('continuous');
#288=COLOUR_RGB('',0.498039215803146,0.498039215803146,0.498039215803146);
#289=AXIS2_PLACEMENT_3D('',#378,#379,#380);
#290=PRE_DEFINED_MARKER('');
#291=COLOUR_RGB('',0.498039215803146,0.498039215803146,0.498039215803146);
#292=SURFACE_SIDE_STYLE('',(#381));
#293=EDGE_LOOP('',(#382,#383,#384,#385));
#294=AXIS2_PLACEMENT_3D('',#386,#387,#388);
#295=PRE_DEFINED_MARKER('');
#296=COLOUR_RGB('',0.498039215803146,0.498039215803146,0.498039215803146);
#298=DIRECTION('',(0.0,0.0,-1.0));
#299=SURFACE_STYLE_FILL_AREA(#389);
#300=ORIENTED_EDGE('',*,*,#55,.F.);
#301=ORIENTED_EDGE('',*,*,#75,.T.);
#302=ORIENTED_EDGE('',*,*,#65,.F.);
#303=ORIENTED_EDGE('',*,*,#77,.F.);
#304=CARTESIAN_POINT('',(0.0,0.0,-21.75));
#305=DIRECTION('',(-0.0,-0.0,1.0));
#306=DIRECTION('',(0.0,1.0,0.0));
#307=SURFACE_STYLE_FILL_AREA(#390);
#308=ORIENTED_EDGE('',*,*,#69,.F.);
#309=ORIENTED_EDGE('',*,*,#101,.F.);
#310=CARTESIAN_POINT('',(0.0,2.25,0.0));
#311=DIRECTION('',(-0.0,0.0,1.0));
#312=DIRECTION('',(0.0,-1.0,0.0));
#313=DIRECTION('',(-8.65927457071936E-017,0.707106781186548,-0.707106781186548));
#314=DIRECTION('',(1.06054021204601E-016,-0.866025403784439,0.5));
#315=DIRECTION('',(-0.0,-0.0,1.0));
#316=SURFACE_STYLE_FILL_AREA(#391);
#317=ORIENTED_EDGE('',*,*,#55,.T.);
#318=ORIENTED_EDGE('',*,*,#93,.F.);
#319=ORIENTED_EDGE('',*,*,#65,.T.);
#320=ORIENTED_EDGE('',*,*,#107,.T.);
#321=CARTESIAN_POINT('',(0.0,0.0,-21.75));
#322=DIRECTION('',(-0.0,-0.0,1.0));
#323=DIRECTION('',(0.0,1.0,0.0));
#324=CARTESIAN_POINT('',(0.0,0.0,0.0));
#325=DIRECTION('',(0.0,0.0,-1.0));
#326=DIRECTION('',(0.0,1.0,0.0));
#327=SURFACE_STYLE_FILL_AREA(#392);
#328=ORIENTED_EDGE('',*,*,#61,.F.);
#329=ORIENTED_EDGE('',*,*,#69,.T.);
#330=ORIENTED_EDGE('',*,*,#83,.F.);
#331=ORIENTED_EDGE('',*,*,#75,.F.);
#332=CARTESIAN_POINT('',(0.0,0.0,-0.25));
#333=DIRECTION('',(0.0,-0.0,-1.0));
#334=DIRECTION('',(0.0,1.0,0.0));
#335=CARTESIAN_POINT('',(0.0,0.0,-0.5));
#336=DIRECTION('',(0.0,0.0,-1.0));
#337=DIRECTION('',(0.0,1.0,0.0));
#338=CARTESIAN_POINT('',(0.0,0.0,-84.2920000010154));
#339=DIRECTION('',(0.0,0.0,-1.0));
#340=DIRECTION('',(0.0,1.0,0.0));
#341=SURFACE_STYLE_FILL_AREA(#393);
#342=DIRECTION('',(-8.65927457071936E-017,0.707106781186548,0.707106781186548));
#343=DIRECTION('',(1.06054021204601E-016,-0.866025403784439,-0.5));
#344=SURFACE_STYLE_FILL_AREA(#394);
#345=ORIENTED_EDGE('',*,*,#99,.T.);
#346=ORIENTED_EDGE('',*,*,#109,.T.);
#347=CARTESIAN_POINT('',(0.0,1.886854015,-85.0));
#348=DIRECTION('',(0.0,0.0,-1.0));
#349=DIRECTION('',(0.0,1.0,0.0));
#350=SURFACE_STYLE_FILL_AREA(#395);
#351=ORIENTED_EDGE('',*,*,#61,.T.);
#352=ORIENTED_EDGE('',*,*,#107,.F.);
#353=ORIENTED_EDGE('',*,*,#83,.T.);
#354=ORIENTED_EDGE('',*,*,#101,.T.);
#355=CARTESIAN_POINT('',(0.0,0.0,-0.25));
#356=DIRECTION('',(0.0,-0.0,-1.0));
#357=DIRECTION('',(0.0,1.0,0.0));
#358=CARTESIAN_POINT('',(0.0,0.0,-84.2920000010154));
#359=DIRECTION('',(0.0,0.0,-1.0));
#360=DIRECTION('',(0.0,1.0,0.0));
#361=CARTESIAN_POINT('',(0.0,0.0,-85.0));
#362=DIRECTION('',(0.0,0.0,-1.0));
#363=DIRECTION('',(0.0,1.0,0.0));
#364=CARTESIAN_POINT('',(0.0,0.0,0.0));
#365=DIRECTION('',(0.0,0.0,-1.0));
#366=DIRECTION('',(0.0,1.0,0.0));
#367=SURFACE_STYLE_FILL_AREA(#396);
#368=ORIENTED_EDGE('',*,*,#87,.T.);
#369=ORIENTED_EDGE('',*,*,#109,.F.);
#370=ORIENTED_EDGE('',*,*,#63,.T.);
#371=ORIENTED_EDGE('',*,*,#93,.T.);
#372=CARTESIAN_POINT('',(0.0,0.0,-84.6460000005077));
#373=DIRECTION('',(-0.0,-0.0,1.0));
#374=DIRECTION('',(0.0,1.0,0.0));
#375=CARTESIAN_POINT('',(0.0,0.0,-0.5));
#376=DIRECTION('',(0.0,0.0,-1.0));
#377=DIRECTION('',(0.0,1.0,0.0));
#378=CARTESIAN_POINT('',(0.0,0.0,-85.0));
#379=DIRECTION('',(0.0,0.0,-1.0));
#380=DIRECTION('',(0.0,1.0,0.0));
#381=SURFACE_STYLE_FILL_AREA(#397);
#382=ORIENTED_EDGE('',*,*,#87,.F.);
#383=ORIENTED_EDGE('',*,*,#77,.T.);
#384=ORIENTED_EDGE('',*,*,#63,.F.);
#385=ORIENTED_EDGE('',*,*,#99,.F.);
#386=CARTESIAN_POINT('',(0.0,0.0,-84.6460000005077));
#387=DIRECTION('',(-0.0,-0.0,1.0));
#388=DIRECTION('',(0.0,1.0,0.0));
#389=FILL_AREA_STYLE('',(#398));
#390=FILL_AREA_STYLE('',(#399));
#391=FILL_AREA_STYLE('',(#400));
#392=FILL_AREA_STYLE('',(#401));
#393=FILL_AREA_STYLE('',(#402));
#394=FILL_AREA_STYLE('',(#403));
#395=FILL_AREA_STYLE('',(#404));
#396=FILL_AREA_STYLE('',(#405));
#397=FILL_AREA_STYLE('',(#406));
#398=FILL_AREA_STYLE_COLOUR('',#407);
#399=FILL_AREA_STYLE_COLOUR('',#408);
#400=FILL_AREA_STYLE_COLOUR('',#409);
#401=FILL_AREA_STYLE_COLOUR('',#410);
#402=FILL_AREA_STYLE_COLOUR('',#411);
#403=FILL_AREA_STYLE_COLOUR('',#412);
#404=FILL_AREA_STYLE_COLOUR('',#413);
#405=FILL_AREA_STYLE_COLOUR('',#414);
#406=FILL_AREA_STYLE_COLOUR('',#415);
#407=COLOUR_RGB('',0.498039215803146,0.498039215803146,0.498039215803146);
#408=COLOUR_RGB('',0.498039215803146,0.498039215803146,0.498039215803146);
#409=COLOUR_RGB('',0.498039215803146,0.498039215803146,0.498039215803146);
#410=COLOUR_RGB('',0.498039215803146,0.498039215803146,0.498039215803146);
#411=COLOUR_RGB('',0.498039215803146,0.498039215803146,0.498039215803146);
#412=COLOUR_RGB('',0.498039215803146,0.498039215803146,0.498039215803146);
#413=COLOUR_RGB('',0.498039215803146,0.498039215803146,0.498039215803146);
#414=COLOUR_RGB('',0.800000011920929,0.800000011920929,0.800000011920929);
#415=COLOUR_RGB('',0.800000011920929,0.800000011920929,0.800000011920929);
#416=AXIS2_PLACEMENT_3D('PCS',#417,#418,#419);
#417=CARTESIAN_POINT('',(0.0,0.0,0.0));
#418=DIRECTION('',(0.0,0.0,1.0));
#419=DIRECTION('',(1.0,0.0,0.0));
#420=AXIS2_PLACEMENT_3D('CIP',#421,#422,#423);
#421=CARTESIAN_POINT('',(0.0,0.0,-85.0));
#422=DIRECTION('',(0.0,0.0,1.0));
#423=DIRECTION('',(1.0,0.0,0.0));
#424=AXIS2_PLACEMENT_3D('CRP',#425,#426,#427);
#425=CARTESIAN_POINT('',(-5.0,0.0,-85.0));
#426=DIRECTION('',(0.0,0.0,1.0));
#427=DIRECTION('',(1.0,0.0,0.0));
#428=AXIS2_PLACEMENT_3D('MCS',#429,#430,#431);
#429=CARTESIAN_POINT('',(0.0,0.0,-43.0));
#430=DIRECTION('',(0.0,0.0,1.0));
#431=DIRECTION('',(1.0,0.0,0.0));
#432=CONSTRUCTIVE_GEOMETRY_REPRESENTATION_RELATIONSHIP('coordinate systems',$,#45,#433);
#433=CONSTRUCTIVE_GEOMETRY_REPRESENTATION('coordinate systems',(#416,#420,#424,#428),#6);
ENDSEC;
END-ISO-10303-21;
