ISO-10303-21;
HEADER;
FILE_DESCRIPTION(('no description'),'unknown implementation level');
FILE_NAME('solidV9onQzo_J4fFi_qaY5nnOtpbd18_1.STP','  ',('CIMSOURCE GmbH'),('CADClick - KiM GmbH - www.kimweb.de'),'unknown preprocess','ACIS','unknown authorization');
FILE_SCHEMA(('automotive_design'));
ENDSEC;
DATA;
#1=MECHANICAL_DESIGN_GEOMETRIC_PRESENTATION_REPRESENTATION(' ',(#10,#11,#12,#13,#14,#15,#16,#17,#18,#19,#20,#21,#22,#23,#24,#25,#26,#27,#28,#29,#30,#31,#32,#33,#34,#35,#36,#37,#38,#39,#40),#6);
#2=PRODUCT_DEFINITION_CONTEXT('',#41,'design');
#3=APPLICATION_PROTOCOL_DEFINITION('INTERNATIONAL STANDARD','automotive_design',1994,#41);
#4=PRODUCT_CATEGORY_RELATIONSHIP('NONE','NONE',#42,#43);
#5=SHAPE_DEFINITION_REPRESENTATION(#44,#45);
#6= (GEOMETRIC_REPRESENTATION_CONTEXT(3)GLOBAL_UNCERTAINTY_ASSIGNED_CONTEXT((#48))GLOBAL_UNIT_ASSIGNED_CONTEXT((#50,#51,#52))REPRESENTATION_CONTEXT('NONE','WORKSPACE'));
#10=STYLED_ITEM('',(#54),#55);
#11=STYLED_ITEM('',(#56),#57);
#12=STYLED_ITEM('',(#58),#59);
#13=STYLED_ITEM('',(#60),#61);
#14=STYLED_ITEM('',(#62),#63);
#15=STYLED_ITEM('',(#64),#65);
#16=STYLED_ITEM('',(#66),#67);
#17=STYLED_ITEM('',(#68),#69);
#18=STYLED_ITEM('',(#70),#71);
#19=STYLED_ITEM('',(#72),#73);
#20=STYLED_ITEM('',(#74),#75);
#21=STYLED_ITEM('',(#76),#77);
#22=STYLED_ITEM('',(#78),#79);
#23=STYLED_ITEM('',(#80),#81);
#24=STYLED_ITEM('',(#82),#83);
#25=STYLED_ITEM('',(#84),#85);
#26=STYLED_ITEM('',(#86),#87);
#27=STYLED_ITEM('',(#88),#89);
#28=STYLED_ITEM('',(#90),#91);
#29=STYLED_ITEM('',(#92),#93);
#30=STYLED_ITEM('',(#94),#95);
#31=STYLED_ITEM('',(#96),#97);
#32=STYLED_ITEM('',(#98),#99);
#33=STYLED_ITEM('',(#100),#101);
#34=STYLED_ITEM('',(#102),#103);
#35=STYLED_ITEM('',(#104),#105);
#36=STYLED_ITEM('',(#106),#107);
#37=STYLED_ITEM('',(#108),#109);
#38=STYLED_ITEM('',(#110),#111);
#39=STYLED_ITEM('',(#112),#113);
#40=STYLED_ITEM('',(#114),#115);
#41=APPLICATION_CONTEXT(' ');
#42=PRODUCT_CATEGORY('part','NONE');
#43=PRODUCT_RELATED_PRODUCT_CATEGORY('detail',' ',(#116));
#44=PRODUCT_DEFINITION_SHAPE('NONE','NONE',#117);
#45=ADVANCED_BREP_SHAPE_REPRESENTATION('1',(#103,#118),#6);
#48=UNCERTAINTY_MEASURE_WITH_UNIT(LENGTH_MEASURE(1.0E-006),#50,'','');
#50= (CONVERSION_BASED_UNIT('MILLIMETRE',#121)LENGTH_UNIT()NAMED_UNIT(#124));
#51= (NAMED_UNIT(#126)PLANE_ANGLE_UNIT()SI_UNIT($,.RADIAN.));
#52= (NAMED_UNIT(#126)SOLID_ANGLE_UNIT()SI_UNIT($,.STERADIAN.));
#54=PRESENTATION_STYLE_ASSIGNMENT((#132));
#55=ADVANCED_FACE('',(#133),#134,.T.);
#56=PRESENTATION_STYLE_ASSIGNMENT((#135));
#57=ADVANCED_FACE('',(#136),#137,.T.);
#58=PRESENTATION_STYLE_ASSIGNMENT((#138));
#59=EDGE_CURVE('',#81,#77,#139,.T.);
#60=PRESENTATION_STYLE_ASSIGNMENT((#140));
#61=EDGE_CURVE('',#85,#83,#141,.T.);
#62=PRESENTATION_STYLE_ASSIGNMENT((#142));
#63=ADVANCED_FACE('',(#143),#144,.T.);
#64=PRESENTATION_STYLE_ASSIGNMENT((#145));
#65=ADVANCED_FACE('',(#146),#147,.T.);
#66=PRESENTATION_STYLE_ASSIGNMENT((#148));
#67=VERTEX_POINT('',#149);
#68=PRESENTATION_STYLE_ASSIGNMENT((#150));
#69=EDGE_CURVE('',#83,#111,#151,.T.);
#70=PRESENTATION_STYLE_ASSIGNMENT((#152));
#71=EDGE_CURVE('',#67,#111,#153,.T.);
#72=PRESENTATION_STYLE_ASSIGNMENT((#154));
#73=VERTEX_POINT('',#155);
#74=PRESENTATION_STYLE_ASSIGNMENT((#156));
#75=ADVANCED_FACE('',(#157),#158,.T.);
#76=PRESENTATION_STYLE_ASSIGNMENT((#159));
#77=VERTEX_POINT('',#160);
#78=PRESENTATION_STYLE_ASSIGNMENT((#161));
#79=EDGE_CURVE('',#113,#81,#162,.T.);
#80=PRESENTATION_STYLE_ASSIGNMENT((#163));
#81=VERTEX_POINT('',#164);
#82=PRESENTATION_STYLE_ASSIGNMENT((#165));
#83=VERTEX_POINT('',#166);
#84=PRESENTATION_STYLE_ASSIGNMENT((#167));
#85=VERTEX_POINT('',#168);
#86=PRESENTATION_STYLE_ASSIGNMENT((#169));
#87=ADVANCED_FACE('',(#170),#171,.T.);
#88=PRESENTATION_STYLE_ASSIGNMENT((#172));
#89=EDGE_CURVE('',#67,#85,#173,.T.);
#90=PRESENTATION_STYLE_ASSIGNMENT((#174));
#91=EDGE_CURVE('',#73,#113,#175,.T.);
#92=PRESENTATION_STYLE_ASSIGNMENT((#176));
#93=EDGE_CURVE('',#111,#67,#177,.T.);
#94=PRESENTATION_STYLE_ASSIGNMENT((#178));
#95=EDGE_CURVE('',#83,#85,#179,.T.);
#96=PRESENTATION_STYLE_ASSIGNMENT((#180));
#97=EDGE_CURVE('',#113,#67,#181,.T.);
#98=PRESENTATION_STYLE_ASSIGNMENT((#182));
#99=EDGE_CURVE('',#81,#113,#183,.T.);
#100=PRESENTATION_STYLE_ASSIGNMENT((#184));
#101=EDGE_CURVE('',#73,#77,#185,.T.);
#102=PRESENTATION_STYLE_ASSIGNMENT((#186));
#103=MANIFOLD_SOLID_BREP('1',#187);
#104=PRESENTATION_STYLE_ASSIGNMENT((#188));
#105=ADVANCED_FACE('',(#189),#190,.T.);
#106=PRESENTATION_STYLE_ASSIGNMENT((#191));
#107=EDGE_CURVE('',#77,#73,#192,.T.);
#108=PRESENTATION_STYLE_ASSIGNMENT((#193));
#109=EDGE_CURVE('',#111,#81,#194,.T.);
#110=PRESENTATION_STYLE_ASSIGNMENT((#195));
#111=VERTEX_POINT('',#196);
#112=PRESENTATION_STYLE_ASSIGNMENT((#197));
#113=VERTEX_POINT('',#198);
#114=PRESENTATION_STYLE_ASSIGNMENT((#199));
#115=ADVANCED_FACE('',(#200),#201,.T.);
#116=PRODUCT('1','1','PART-1-DESC',(#202));
#117=PRODUCT_DEFINITION('NONE','NONE',#203,#2);
#118=AXIS2_PLACEMENT_3D('',#204,#205,#206);
#121=LENGTH_MEASURE_WITH_UNIT(LENGTH_MEASURE(1.0),#207);
#124=DIMENSIONAL_EXPONENTS(1.0,0.0,0.0,0.0,0.0,0.0,0.0);
#126=DIMENSIONAL_EXPONENTS(0.0,0.0,0.0,0.0,0.0,0.0,0.0);
#132=SURFACE_STYLE_USAGE(.BOTH.,#208);
#133=FACE_OUTER_BOUND('',#209,.T.);
#134=CONICAL_SURFACE('',#210,5.7,0.785398163397447);
#135=SURFACE_STYLE_USAGE(.BOTH.,#211);
#136=FACE_OUTER_BOUND('',#212,.T.);
#137=CONICAL_SURFACE('',#213,5.54014051,1.0471975511966);
#138=CURVE_STYLE('',#214,POSITIVE_LENGTH_MEASURE(1.0E-006),#215);
#139=LINE('',#216,#217);
#140=CURVE_STYLE('',#218,POSITIVE_LENGTH_MEASURE(1.0E-006),#219);
#141=CIRCLE('',#220,5.4);
#142=SURFACE_STYLE_USAGE(.BOTH.,#221);
#143=FACE_OUTER_BOUND('',#222,.T.);
#144=PLANE('',#223);
#145=SURFACE_STYLE_USAGE(.BOTH.,#224);
#146=FACE_OUTER_BOUND('',#225,.T.);
#147=CYLINDRICAL_SURFACE('',#226,6.0);
#148=POINT_STYLE(' ',#227,POSITIVE_LENGTH_MEASURE(1.0E-006),#228);
#149=CARTESIAN_POINT('',(7.34763812293426E-016,-6.0,-0.600000000000001));
#150=CURVE_STYLE('',#229,POSITIVE_LENGTH_MEASURE(1.0E-006),#230);
#151=LINE('',#231,#232);
#152=CURVE_STYLE('',#233,POSITIVE_LENGTH_MEASURE(1.0E-006),#234);
#153=CIRCLE('',#235,6.0);
#154=POINT_STYLE(' ',#236,POSITIVE_LENGTH_MEASURE(1.0E-006),#237);
#155=CARTESIAN_POINT('',(6.22134441629523E-016,-5.08028102,-95.0));
#156=SURFACE_STYLE_USAGE(.BOTH.,#238);
#157=FACE_OUTER_BOUND('',#239,.T.);
#158=CONICAL_SURFACE('',#240,5.54014051,1.0471975511966);
#159=POINT_STYLE(' ',#241,POSITIVE_LENGTH_MEASURE(1.0E-006),#242);
#160=CARTESIAN_POINT('',(0.0,5.08028102,-95.0));
#161=CURVE_STYLE('',#243,POSITIVE_LENGTH_MEASURE(1.0E-006),#244);
#162=CIRCLE('',#245,6.0);
#163=POINT_STYLE(' ',#246,POSITIVE_LENGTH_MEASURE(1.0E-006),#247);
#164=CARTESIAN_POINT('',(0.0,6.0,-94.4689999993182));
#165=POINT_STYLE(' ',#248,POSITIVE_LENGTH_MEASURE(1.0E-006),#249);
#166=CARTESIAN_POINT('',(0.0,5.4,0.0));
#167=POINT_STYLE(' ',#250,POSITIVE_LENGTH_MEASURE(1.0E-006),#251);
#168=CARTESIAN_POINT('',(6.61287431064084E-016,-5.4,0.0));
#169=SURFACE_STYLE_USAGE(.BOTH.,#252);
#170=FACE_OUTER_BOUND('',#253,.T.);
#171=PLANE('',#254);
#172=CURVE_STYLE('',#255,POSITIVE_LENGTH_MEASURE(1.0E-006),#256);
#173=LINE('',#257,#258);
#174=CURVE_STYLE('',#259,POSITIVE_LENGTH_MEASURE(1.0E-006),#260);
#175=LINE('',#261,#262);
#176=CURVE_STYLE('',#263,POSITIVE_LENGTH_MEASURE(1.0E-006),#264);
#177=CIRCLE('',#265,6.0);
#178=CURVE_STYLE('',#266,POSITIVE_LENGTH_MEASURE(1.0E-006),#267);
#179=CIRCLE('',#268,5.4);
#180=CURVE_STYLE('',#269,POSITIVE_LENGTH_MEASURE(1.0E-006),#270);
#181=LINE('',#271,#272);
#182=CURVE_STYLE('',#273,POSITIVE_LENGTH_MEASURE(1.0E-006),#274);
#183=CIRCLE('',#275,6.0);
#184=CURVE_STYLE('',#276,POSITIVE_LENGTH_MEASURE(1.0E-006),#277);
#185=CIRCLE('',#278,5.08028102);
#186=SURFACE_STYLE_USAGE(.BOTH.,#279);
#187=CLOSED_SHELL('',(#105,#115,#75,#57,#87,#55,#65,#63));
#188=SURFACE_STYLE_USAGE(.BOTH.,#280);
#189=FACE_OUTER_BOUND('',#281,.T.);
#190=CYLINDRICAL_SURFACE('',#282,6.0);
#191=CURVE_STYLE('',#283,POSITIVE_LENGTH_MEASURE(1.0E-006),#284);
#192=CIRCLE('',#285,5.08028102);
#193=CURVE_STYLE('',#286,POSITIVE_LENGTH_MEASURE(1.0E-006),#287);
#194=LINE('',#288,#289);
#195=POINT_STYLE(' ',#290,POSITIVE_LENGTH_MEASURE(1.0E-006),#291);
#196=CARTESIAN_POINT('',(0.0,6.0,-0.600000000000001));
#197=POINT_STYLE(' ',#292,POSITIVE_LENGTH_MEASURE(1.0E-006),#293);
#198=CARTESIAN_POINT('',(7.34763812293426E-016,-6.0,-94.4689999993182));
#199=SURFACE_STYLE_USAGE(.BOTH.,#294);
#200=FACE_OUTER_BOUND('',#295,.T.);
#201=CONICAL_SURFACE('',#296,5.7,0.785398163397447);
#202=PRODUCT_CONTEXT('',#41,'mechanical');
#203=PRODUCT_DEFINITION_FORMATION_WITH_SPECIFIED_SOURCE(' ','NONE',#116,.NOT_KNOWN.);
#204=CARTESIAN_POINT('',(0.0,0.0,0.0));
#205=DIRECTION('',(0.0,0.0,1.0));
#206=DIRECTION('',(1.0,0.0,0.0));
#207= (NAMED_UNIT(#124)LENGTH_UNIT()SI_UNIT(.MILLI.,.METRE.));
#208=SURFACE_SIDE_STYLE('',(#298));
#209=EDGE_LOOP('',(#299,#300,#301,#302));
#210=AXIS2_PLACEMENT_3D('',#303,#304,#305);
#211=SURFACE_SIDE_STYLE('',(#306));
#212=EDGE_LOOP('',(#307,#308,#309,#310));
#213=AXIS2_PLACEMENT_3D('',#311,#312,#313);
#214=DRAUGHTING_PRE_DEFINED_CURVE_FONT('continuous');
#215=COLOUR_RGB('',0.800000011920929,0.800000011920929,0.800000011920929);
#216=CARTESIAN_POINT('',(-6.78449126961475E-016,5.54014051,-94.7344999996591));
#217=VECTOR('',#314,1.0);
#218=DRAUGHTING_PRE_DEFINED_CURVE_FONT('continuous');
#219=COLOUR_RGB('',0.498039215803146,0.498039215803146,0.498039215803146);
#220=AXIS2_PLACEMENT_3D('',#315,#316,#317);
#221=SURFACE_SIDE_STYLE('',(#318));
#222=EDGE_LOOP('',(#319,#320));
#223=AXIS2_PLACEMENT_3D('',#321,#322,#323);
#224=SURFACE_SIDE_STYLE('',(#324));
#225=EDGE_LOOP('',(#325,#326,#327,#328));
#226=AXIS2_PLACEMENT_3D('',#329,#330,#331);
#227=PRE_DEFINED_MARKER('');
#228=COLOUR_RGB('',0.498039215803146,0.498039215803146,0.498039215803146);
#229=DRAUGHTING_PRE_DEFINED_CURVE_FONT('continuous');
#230=COLOUR_RGB('',0.498039215803146,0.498039215803146,0.498039215803146);
#231=CARTESIAN_POINT('',(-6.98025621678755E-016,5.7,-0.300000000000004));
#232=VECTOR('',#332,1.0);
#233=DRAUGHTING_PRE_DEFINED_CURVE_FONT('continuous');
#234=COLOUR_RGB('',0.498039215803146,0.498039215803146,0.498039215803146);
#235=AXIS2_PLACEMENT_3D('',#333,#334,#335);
#236=PRE_DEFINED_MARKER('');
#237=COLOUR_RGB('',0.498039215803146,0.498039215803146,0.498039215803146);
#238=SURFACE_SIDE_STYLE('',(#336));
#239=EDGE_LOOP('',(#337,#338,#339,#340));
#240=AXIS2_PLACEMENT_3D('',#341,#342,#343);
#241=PRE_DEFINED_MARKER('');
#242=COLOUR_RGB('',0.498039215803146,0.498039215803146,0.498039215803146);
#243=DRAUGHTING_PRE_DEFINED_CURVE_FONT('continuous');
#244=COLOUR_RGB('',0.800000011920929,0.800000011920929,0.800000011920929);
#245=AXIS2_PLACEMENT_3D('',#344,#345,#346);
#246=PRE_DEFINED_MARKER('');
#247=COLOUR_RGB('',0.800000011920929,0.800000011920929,0.800000011920929);
#248=PRE_DEFINED_MARKER('');
#249=COLOUR_RGB('',0.498039215803146,0.498039215803146,0.498039215803146);
#250=PRE_DEFINED_MARKER('');
#251=COLOUR_RGB('',0.498039215803146,0.498039215803146,0.498039215803146);
#252=SURFACE_SIDE_STYLE('',(#347));
#253=EDGE_LOOP('',(#348,#349));
#254=AXIS2_PLACEMENT_3D('',#350,#351,#352);
#255=DRAUGHTING_PRE_DEFINED_CURVE_FONT('continuous');
#256=COLOUR_RGB('',0.498039215803146,0.498039215803146,0.498039215803146);
#257=CARTESIAN_POINT('',(6.98025621678755E-016,-5.7,-0.300000000000004));
#258=VECTOR('',#353,1.0);
#259=DRAUGHTING_PRE_DEFINED_CURVE_FONT('continuous');
#260=COLOUR_RGB('',0.800000011920929,0.800000011920929,0.800000011920929);
#261=CARTESIAN_POINT('',(6.78449126961475E-016,-5.54014051,-94.7344999996591));
#262=VECTOR('',#354,1.0);
#263=DRAUGHTING_PRE_DEFINED_CURVE_FONT('continuous');
#264=COLOUR_RGB('',0.498039215803146,0.498039215803146,0.498039215803146);
#265=AXIS2_PLACEMENT_3D('',#355,#356,#357);
#266=DRAUGHTING_PRE_DEFINED_CURVE_FONT('continuous');
#267=COLOUR_RGB('',0.498039215803146,0.498039215803146,0.498039215803146);
#268=AXIS2_PLACEMENT_3D('',#358,#359,#360);
#269=DRAUGHTING_PRE_DEFINED_CURVE_FONT('continuous');
#270=COLOUR_RGB('',0.498039215803146,0.498039215803146,0.498039215803146);
#271=CARTESIAN_POINT('',(7.34763812293426E-016,-6.0,-24.55));
#272=VECTOR('',#361,1.0);
#273=DRAUGHTING_PRE_DEFINED_CURVE_FONT('continuous');
#274=COLOUR_RGB('',0.800000011920929,0.800000011920929,0.800000011920929);
#275=AXIS2_PLACEMENT_3D('',#362,#363,#364);
#276=DRAUGHTING_PRE_DEFINED_CURVE_FONT('continuous');
#277=COLOUR_RGB('',0.498039215803146,0.498039215803146,0.498039215803146);
#278=AXIS2_PLACEMENT_3D('',#365,#366,#367);
#279=SURFACE_SIDE_STYLE('',(#368));
#280=SURFACE_SIDE_STYLE('',(#369));
#281=EDGE_LOOP('',(#370,#371,#372,#373));
#282=AXIS2_PLACEMENT_3D('',#374,#375,#376);
#283=DRAUGHTING_PRE_DEFINED_CURVE_FONT('continuous');
#284=COLOUR_RGB('',0.498039215803146,0.498039215803146,0.498039215803146);
#285=AXIS2_PLACEMENT_3D('',#377,#378,#379);
#286=DRAUGHTING_PRE_DEFINED_CURVE_FONT('continuous');
#287=COLOUR_RGB('',0.498039215803146,0.498039215803146,0.498039215803146);
#288=CARTESIAN_POINT('',(-7.34763812293426E-016,6.0,-24.55));
#289=VECTOR('',#380,1.0);
#290=PRE_DEFINED_MARKER('');
#291=COLOUR_RGB('',0.498039215803146,0.498039215803146,0.498039215803146);
#292=PRE_DEFINED_MARKER('');
#293=COLOUR_RGB('',0.800000011920929,0.800000011920929,0.800000011920929);
#294=SURFACE_SIDE_STYLE('',(#381));
#295=EDGE_LOOP('',(#382,#383,#384,#385));
#296=AXIS2_PLACEMENT_3D('',#386,#387,#388);
#298=SURFACE_STYLE_FILL_AREA(#389);
#299=ORIENTED_EDGE('',*,*,#69,.T.);
#300=ORIENTED_EDGE('',*,*,#71,.F.);
#301=ORIENTED_EDGE('',*,*,#89,.T.);
#302=ORIENTED_EDGE('',*,*,#61,.T.);
#303=CARTESIAN_POINT('',(0.0,0.0,-0.300000000000004));
#304=DIRECTION('',(0.0,-0.0,-1.0));
#305=DIRECTION('',(0.0,1.0,0.0));
#306=SURFACE_STYLE_FILL_AREA(#390);
#307=ORIENTED_EDGE('',*,*,#59,.T.);
#308=ORIENTED_EDGE('',*,*,#101,.F.);
#309=ORIENTED_EDGE('',*,*,#91,.T.);
#310=ORIENTED_EDGE('',*,*,#79,.T.);
#311=CARTESIAN_POINT('',(0.0,0.0,-94.7344999996591));
#312=DIRECTION('',(-0.0,-0.0,1.0));
#313=DIRECTION('',(0.0,1.0,0.0));
#314=DIRECTION('',(1.06054021204601E-016,-0.866025403784439,-0.5));
#315=CARTESIAN_POINT('',(0.0,0.0,0.0));
#316=DIRECTION('',(0.0,0.0,-1.0));
#317=DIRECTION('',(0.0,1.0,0.0));
#318=SURFACE_STYLE_FILL_AREA(#391);
#319=ORIENTED_EDGE('',*,*,#107,.T.);
#320=ORIENTED_EDGE('',*,*,#101,.T.);
#321=CARTESIAN_POINT('',(0.0,2.54014051,-95.0));
#322=DIRECTION('',(0.0,0.0,-1.0));
#323=DIRECTION('',(0.0,1.0,0.0));
#324=SURFACE_STYLE_FILL_AREA(#392);
#325=ORIENTED_EDGE('',*,*,#109,.T.);
#326=ORIENTED_EDGE('',*,*,#79,.F.);
#327=ORIENTED_EDGE('',*,*,#97,.T.);
#328=ORIENTED_EDGE('',*,*,#71,.T.);
#329=CARTESIAN_POINT('',(0.0,0.0,-24.55));
#330=DIRECTION('',(-0.0,-0.0,1.0));
#331=DIRECTION('',(0.0,1.0,0.0));
#332=DIRECTION('',(-8.65927457071934E-017,0.707106781186546,-0.707106781186549));
#333=CARTESIAN_POINT('',(0.0,0.0,-0.600000000000001));
#334=DIRECTION('',(0.0,0.0,-1.0));
#335=DIRECTION('',(0.0,1.0,0.0));
#336=SURFACE_STYLE_FILL_AREA(#393);
#337=ORIENTED_EDGE('',*,*,#59,.F.);
#338=ORIENTED_EDGE('',*,*,#99,.T.);
#339=ORIENTED_EDGE('',*,*,#91,.F.);
#340=ORIENTED_EDGE('',*,*,#107,.F.);
#341=CARTESIAN_POINT('',(0.0,0.0,-94.7344999996591));
#342=DIRECTION('',(-0.0,-0.0,1.0));
#343=DIRECTION('',(0.0,1.0,0.0));
#344=CARTESIAN_POINT('',(0.0,0.0,-94.4689999993182));
#345=DIRECTION('',(0.0,0.0,-1.0));
#346=DIRECTION('',(0.0,1.0,0.0));
#347=SURFACE_STYLE_FILL_AREA(#394);
#348=ORIENTED_EDGE('',*,*,#95,.F.);
#349=ORIENTED_EDGE('',*,*,#61,.F.);
#350=CARTESIAN_POINT('',(0.0,2.7,0.0));
#351=DIRECTION('',(-0.0,0.0,1.0));
#352=DIRECTION('',(0.0,-1.0,0.0));
#353=DIRECTION('',(-8.65927457071934E-017,0.707106781186546,0.707106781186549));
#354=DIRECTION('',(1.06054021204601E-016,-0.866025403784439,0.5));
#355=CARTESIAN_POINT('',(0.0,0.0,-0.600000000000001));
#356=DIRECTION('',(0.0,0.0,-1.0));
#357=DIRECTION('',(0.0,1.0,0.0));
#358=CARTESIAN_POINT('',(0.0,0.0,0.0));
#359=DIRECTION('',(0.0,0.0,-1.0));
#360=DIRECTION('',(0.0,1.0,0.0));
#361=DIRECTION('',(-0.0,-0.0,1.0));
#362=CARTESIAN_POINT('',(0.0,0.0,-94.4689999993182));
#363=DIRECTION('',(0.0,0.0,-1.0));
#364=DIRECTION('',(0.0,1.0,0.0));
#365=CARTESIAN_POINT('',(0.0,0.0,-95.0));
#366=DIRECTION('',(0.0,0.0,-1.0));
#367=DIRECTION('',(0.0,1.0,0.0));
#368=SURFACE_STYLE_FILL_AREA(#395);
#369=SURFACE_STYLE_FILL_AREA(#396);
#370=ORIENTED_EDGE('',*,*,#109,.F.);
#371=ORIENTED_EDGE('',*,*,#93,.T.);
#372=ORIENTED_EDGE('',*,*,#97,.F.);
#373=ORIENTED_EDGE('',*,*,#99,.F.);
#374=CARTESIAN_POINT('',(0.0,0.0,-24.55));
#375=DIRECTION('',(-0.0,-0.0,1.0));
#376=DIRECTION('',(0.0,1.0,0.0));
#377=CARTESIAN_POINT('',(0.0,0.0,-95.0));
#378=DIRECTION('',(0.0,0.0,-1.0));
#379=DIRECTION('',(0.0,1.0,0.0));
#380=DIRECTION('',(0.0,0.0,-1.0));
#381=SURFACE_STYLE_FILL_AREA(#397);
#382=ORIENTED_EDGE('',*,*,#69,.F.);
#383=ORIENTED_EDGE('',*,*,#95,.T.);
#384=ORIENTED_EDGE('',*,*,#89,.F.);
#385=ORIENTED_EDGE('',*,*,#93,.F.);
#386=CARTESIAN_POINT('',(0.0,0.0,-0.300000000000004));
#387=DIRECTION('',(0.0,-0.0,-1.0));
#388=DIRECTION('',(0.0,1.0,0.0));
#389=FILL_AREA_STYLE('',(#398));
#390=FILL_AREA_STYLE('',(#399));
#391=FILL_AREA_STYLE('',(#400));
#392=FILL_AREA_STYLE('',(#401));
#393=FILL_AREA_STYLE('',(#402));
#394=FILL_AREA_STYLE('',(#403));
#395=FILL_AREA_STYLE('',(#404));
#396=FILL_AREA_STYLE('',(#405));
#397=FILL_AREA_STYLE('',(#406));
#398=FILL_AREA_STYLE_COLOUR('',#407);
#399=FILL_AREA_STYLE_COLOUR('',#408);
#400=FILL_AREA_STYLE_COLOUR('',#409);
#401=FILL_AREA_STYLE_COLOUR('',#410);
#402=FILL_AREA_STYLE_COLOUR('',#411);
#403=FILL_AREA_STYLE_COLOUR('',#412);
#404=FILL_AREA_STYLE_COLOUR('',#413);
#405=FILL_AREA_STYLE_COLOUR('',#414);
#406=FILL_AREA_STYLE_COLOUR('',#415);
#407=COLOUR_RGB('',0.498039215803146,0.498039215803146,0.498039215803146);
#408=COLOUR_RGB('',0.800000011920929,0.800000011920929,0.800000011920929);
#409=COLOUR_RGB('',0.498039215803146,0.498039215803146,0.498039215803146);
#410=COLOUR_RGB('',0.498039215803146,0.498039215803146,0.498039215803146);
#411=COLOUR_RGB('',0.800000011920929,0.800000011920929,0.800000011920929);
#412=COLOUR_RGB('',0.498039215803146,0.498039215803146,0.498039215803146);
#413=COLOUR_RGB('',0.498039215803146,0.498039215803146,0.498039215803146);
#414=COLOUR_RGB('',0.498039215803146,0.498039215803146,0.498039215803146);
#415=COLOUR_RGB('',0.498039215803146,0.498039215803146,0.498039215803146);
#416=AXIS2_PLACEMENT_3D('PCS',#417,#418,#419);
#417=CARTESIAN_POINT('',(0.0,0.0,0.0));
#418=DIRECTION('',(0.0,0.0,1.0));
#419=DIRECTION('',(1.0,0.0,0.0));
#420=AXIS2_PLACEMENT_3D('CIP',#421,#422,#423);
#421=CARTESIAN_POINT('',(0.0,0.0,-95.0));
#422=DIRECTION('',(0.0,0.0,1.0));
#423=DIRECTION('',(1.0,0.0,0.0));
#424=AXIS2_PLACEMENT_3D('CRP',#425,#426,#427);
#425=CARTESIAN_POINT('',(-6.0,0.0,-95.0));
#426=DIRECTION('',(0.0,0.0,1.0));
#427=DIRECTION('',(1.0,0.0,0.0));
#428=AXIS2_PLACEMENT_3D('MCS',#429,#430,#431);
#429=CARTESIAN_POINT('',(0.0,0.0,-48.5));
#430=DIRECTION('',(0.0,0.0,1.0));
#431=DIRECTION('',(1.0,0.0,0.0));
#432=CONSTRUCTIVE_GEOMETRY_REPRESENTATION_RELATIONSHIP('coordinate systems',$,#45,#433);
#433=CONSTRUCTIVE_GEOMETRY_REPRESENTATION('coordinate systems',(#416,#420,#424,#428),#6);
ENDSEC;
END-ISO-10303-21;
