ISO-10303-21;
HEADER;
FILE_DESCRIPTION(('no description'),'unknown implementation level');
FILE_NAME('solidjfHOGYE_uY3gxiaAVPm6AIjcYkw_1.STP','  ',('CIMSOURCE GmbH'),('CADClick - KiM GmbH - www.kimweb.de'),'unknown preprocess','ACIS','unknown authorization');
FILE_SCHEMA(('automotive_design'));
ENDSEC;
DATA;
#1=MECHANICAL_DESIGN_GEOMETRIC_PRESENTATION_REPRESENTATION(' ',(#10,#11,#12,#13,#14,#15,#16,#17,#18,#19,#20,#21,#22,#23,#24,#25,#26,#27,#28,#29,#30,#31,#32,#33,#34,#35,#36,#37,#38,#39,#40),#6);
#2=PRODUCT_DEFINITION_CONTEXT('',#41,'design');
#3=APPLICATION_PROTOCOL_DEFINITION('INTERNATIONAL STANDARD','automotive_design',1994,#41);
#4=PRODUCT_CATEGORY_RELATIONSHIP('NONE','NONE',#42,#43);
#5=SHAPE_DEFINITION_REPRESENTATION(#44,#45);
#6= (GEOMETRIC_REPRESENTATION_CONTEXT(3)GLOBAL_UNCERTAINTY_ASSIGNED_CONTEXT((#48))GLOBAL_UNIT_ASSIGNED_CONTEXT((#50,#51,#52))REPRESENTATION_CONTEXT('NONE','WORKSPACE'));
#10=STYLED_ITEM('',(#54),#55);
#11=STYLED_ITEM('',(#56),#57);
#12=STYLED_ITEM('',(#58),#59);
#13=STYLED_ITEM('',(#60),#61);
#14=STYLED_ITEM('',(#62),#63);
#15=STYLED_ITEM('',(#64),#65);
#16=STYLED_ITEM('',(#66),#67);
#17=STYLED_ITEM('',(#68),#69);
#18=STYLED_ITEM('',(#70),#71);
#19=STYLED_ITEM('',(#72),#73);
#20=STYLED_ITEM('',(#74),#75);
#21=STYLED_ITEM('',(#76),#77);
#22=STYLED_ITEM('',(#78),#79);
#23=STYLED_ITEM('',(#80),#81);
#24=STYLED_ITEM('',(#82),#83);
#25=STYLED_ITEM('',(#84),#85);
#26=STYLED_ITEM('',(#86),#87);
#27=STYLED_ITEM('',(#88),#89);
#28=STYLED_ITEM('',(#90),#91);
#29=STYLED_ITEM('',(#92),#93);
#30=STYLED_ITEM('',(#94),#95);
#31=STYLED_ITEM('',(#96),#97);
#32=STYLED_ITEM('',(#98),#99);
#33=STYLED_ITEM('',(#100),#101);
#34=STYLED_ITEM('',(#102),#103);
#35=STYLED_ITEM('',(#104),#105);
#36=STYLED_ITEM('',(#106),#107);
#37=STYLED_ITEM('',(#108),#109);
#38=STYLED_ITEM('',(#110),#111);
#39=STYLED_ITEM('',(#112),#113);
#40=STYLED_ITEM('',(#114),#115);
#41=APPLICATION_CONTEXT(' ');
#42=PRODUCT_CATEGORY('part','NONE');
#43=PRODUCT_RELATED_PRODUCT_CATEGORY('detail',' ',(#116));
#44=PRODUCT_DEFINITION_SHAPE('NONE','NONE',#117);
#45=ADVANCED_BREP_SHAPE_REPRESENTATION('1',(#81,#118),#6);
#48=UNCERTAINTY_MEASURE_WITH_UNIT(LENGTH_MEASURE(1.0E-006),#50,'','');
#50= (CONVERSION_BASED_UNIT('MILLIMETRE',#121)LENGTH_UNIT()NAMED_UNIT(#124));
#51= (NAMED_UNIT(#126)PLANE_ANGLE_UNIT()SI_UNIT($,.RADIAN.));
#52= (NAMED_UNIT(#126)SOLID_ANGLE_UNIT()SI_UNIT($,.STERADIAN.));
#54=PRESENTATION_STYLE_ASSIGNMENT((#132));
#55=EDGE_CURVE('',#85,#65,#133,.T.);
#56=PRESENTATION_STYLE_ASSIGNMENT((#134));
#57=VERTEX_POINT('',#135);
#58=PRESENTATION_STYLE_ASSIGNMENT((#136));
#59=ADVANCED_FACE('',(#137),#138,.T.);
#60=PRESENTATION_STYLE_ASSIGNMENT((#139));
#61=VERTEX_POINT('',#140);
#62=PRESENTATION_STYLE_ASSIGNMENT((#141));
#63=VERTEX_POINT('',#142);
#64=PRESENTATION_STYLE_ASSIGNMENT((#143));
#65=VERTEX_POINT('',#144);
#66=PRESENTATION_STYLE_ASSIGNMENT((#145));
#67=VERTEX_POINT('',#146);
#68=PRESENTATION_STYLE_ASSIGNMENT((#147));
#69=EDGE_CURVE('',#63,#61,#148,.T.);
#70=PRESENTATION_STYLE_ASSIGNMENT((#149));
#71=ADVANCED_FACE('',(#150),#151,.T.);
#72=PRESENTATION_STYLE_ASSIGNMENT((#152));
#73=EDGE_CURVE('',#67,#89,#153,.T.);
#74=PRESENTATION_STYLE_ASSIGNMENT((#154));
#75=EDGE_CURVE('',#89,#61,#155,.T.);
#76=PRESENTATION_STYLE_ASSIGNMENT((#156));
#77=EDGE_CURVE('',#91,#67,#157,.T.);
#78=PRESENTATION_STYLE_ASSIGNMENT((#158));
#79=ADVANCED_FACE('',(#159),#160,.T.);
#80=PRESENTATION_STYLE_ASSIGNMENT((#161));
#81=MANIFOLD_SOLID_BREP('1',#162);
#82=PRESENTATION_STYLE_ASSIGNMENT((#163));
#83=ADVANCED_FACE('',(#164),#165,.T.);
#84=PRESENTATION_STYLE_ASSIGNMENT((#166));
#85=VERTEX_POINT('',#167);
#86=PRESENTATION_STYLE_ASSIGNMENT((#168));
#87=EDGE_CURVE('',#85,#63,#169,.T.);
#88=PRESENTATION_STYLE_ASSIGNMENT((#170));
#89=VERTEX_POINT('',#171);
#90=PRESENTATION_STYLE_ASSIGNMENT((#172));
#91=VERTEX_POINT('',#173);
#92=PRESENTATION_STYLE_ASSIGNMENT((#174));
#93=ADVANCED_FACE('',(#175),#176,.T.);
#94=PRESENTATION_STYLE_ASSIGNMENT((#177));
#95=EDGE_CURVE('',#63,#57,#178,.T.);
#96=PRESENTATION_STYLE_ASSIGNMENT((#179));
#97=ADVANCED_FACE('',(#180),#181,.T.);
#98=PRESENTATION_STYLE_ASSIGNMENT((#182));
#99=EDGE_CURVE('',#61,#91,#183,.T.);
#100=PRESENTATION_STYLE_ASSIGNMENT((#184));
#101=EDGE_CURVE('',#89,#57,#185,.T.);
#102=PRESENTATION_STYLE_ASSIGNMENT((#186));
#103=EDGE_CURVE('',#67,#91,#187,.T.);
#104=PRESENTATION_STYLE_ASSIGNMENT((#188));
#105=ADVANCED_FACE('',(#189),#190,.T.);
#106=PRESENTATION_STYLE_ASSIGNMENT((#191));
#107=EDGE_CURVE('',#57,#63,#192,.T.);
#108=PRESENTATION_STYLE_ASSIGNMENT((#193));
#109=ADVANCED_FACE('',(#194),#195,.T.);
#110=PRESENTATION_STYLE_ASSIGNMENT((#196));
#111=EDGE_CURVE('',#65,#85,#197,.T.);
#112=PRESENTATION_STYLE_ASSIGNMENT((#198));
#113=EDGE_CURVE('',#57,#65,#199,.T.);
#114=PRESENTATION_STYLE_ASSIGNMENT((#200));
#115=EDGE_CURVE('',#61,#89,#201,.T.);
#116=PRODUCT('1','1','PART-1-DESC',(#202));
#117=PRODUCT_DEFINITION('NONE','NONE',#203,#2);
#118=AXIS2_PLACEMENT_3D('',#204,#205,#206);
#121=LENGTH_MEASURE_WITH_UNIT(LENGTH_MEASURE(1.0),#207);
#124=DIMENSIONAL_EXPONENTS(1.0,0.0,0.0,0.0,0.0,0.0,0.0);
#126=DIMENSIONAL_EXPONENTS(0.0,0.0,0.0,0.0,0.0,0.0,0.0);
#132=CURVE_STYLE('',#208,POSITIVE_LENGTH_MEASURE(1.0E-006),#209);
#133=CIRCLE('',#210,4.77370803);
#134=POINT_STYLE(' ',#211,POSITIVE_LENGTH_MEASURE(1.0E-006),#212);
#135=CARTESIAN_POINT('',(0.0,6.0,-94.2920000010154));
#136=SURFACE_STYLE_USAGE(.BOTH.,#213);
#137=FACE_OUTER_BOUND('',#214,.T.);
#138=PLANE('',#215);
#139=POINT_STYLE(' ',#216,POSITIVE_LENGTH_MEASURE(1.0E-006),#217);
#140=CARTESIAN_POINT('',(7.34763812293426E-016,-6.0,-0.600000000000001));
#141=POINT_STYLE(' ',#218,POSITIVE_LENGTH_MEASURE(1.0E-006),#219);
#142=CARTESIAN_POINT('',(7.34763812293426E-016,-6.0,-94.2920000010154));
#143=POINT_STYLE(' ',#220,POSITIVE_LENGTH_MEASURE(1.0E-006),#221);
#144=CARTESIAN_POINT('',(0.0,4.77370803,-95.0));
#145=POINT_STYLE(' ',#222,POSITIVE_LENGTH_MEASURE(1.0E-006),#223);
#146=CARTESIAN_POINT('',(0.0,5.4,0.0));
#147=CURVE_STYLE('',#224,POSITIVE_LENGTH_MEASURE(1.0E-006),#225);
#148=LINE('',#226,#227);
#149=SURFACE_STYLE_USAGE(.BOTH.,#228);
#150=FACE_OUTER_BOUND('',#229,.T.);
#151=CYLINDRICAL_SURFACE('',#230,6.0);
#152=CURVE_STYLE('',#231,POSITIVE_LENGTH_MEASURE(1.0E-006),#232);
#153=LINE('',#233,#234);
#154=CURVE_STYLE('',#235,POSITIVE_LENGTH_MEASURE(1.0E-006),#236);
#155=CIRCLE('',#237,6.0);
#156=CURVE_STYLE('',#238,POSITIVE_LENGTH_MEASURE(1.0E-006),#239);
#157=CIRCLE('',#240,5.4);
#158=SURFACE_STYLE_USAGE(.BOTH.,#241);
#159=FACE_OUTER_BOUND('',#242,.T.);
#160=CONICAL_SURFACE('',#243,5.7,0.785398163397447);
#161=SURFACE_STYLE_USAGE(.BOTH.,#244);
#162=CLOSED_SHELL('',(#109,#79,#93,#97,#59,#105,#71,#83));
#163=SURFACE_STYLE_USAGE(.BOTH.,#245);
#164=FACE_OUTER_BOUND('',#246,.T.);
#165=PLANE('',#247);
#166=POINT_STYLE(' ',#248,POSITIVE_LENGTH_MEASURE(1.0E-006),#249);
#167=CARTESIAN_POINT('',(5.8459131848309E-016,-4.77370803,-95.0));
#168=CURVE_STYLE('',#250,POSITIVE_LENGTH_MEASURE(1.0E-006),#251);
#169=LINE('',#252,#253);
#170=POINT_STYLE(' ',#254,POSITIVE_LENGTH_MEASURE(1.0E-006),#255);
#171=CARTESIAN_POINT('',(0.0,6.0,-0.600000000000001));
#172=POINT_STYLE(' ',#256,POSITIVE_LENGTH_MEASURE(1.0E-006),#257);
#173=CARTESIAN_POINT('',(6.61287431064084E-016,-5.4,0.0));
#174=SURFACE_STYLE_USAGE(.BOTH.,#258);
#175=FACE_OUTER_BOUND('',#259,.T.);
#176=CONICAL_SURFACE('',#260,5.386854015,1.0471975511966);
#177=CURVE_STYLE('',#261,POSITIVE_LENGTH_MEASURE(1.0E-006),#262);
#178=CIRCLE('',#263,6.0);
#179=SURFACE_STYLE_USAGE(.BOTH.,#264);
#180=FACE_OUTER_BOUND('',#265,.T.);
#181=CONICAL_SURFACE('',#266,5.386854015,1.0471975511966);
#182=CURVE_STYLE('',#267,POSITIVE_LENGTH_MEASURE(1.0E-006),#268);
#183=LINE('',#269,#270);
#184=CURVE_STYLE('',#271,POSITIVE_LENGTH_MEASURE(1.0E-006),#272);
#185=LINE('',#273,#274);
#186=CURVE_STYLE('',#275,POSITIVE_LENGTH_MEASURE(1.0E-006),#276);
#187=CIRCLE('',#277,5.4);
#188=SURFACE_STYLE_USAGE(.BOTH.,#278);
#189=FACE_OUTER_BOUND('',#279,.T.);
#190=CONICAL_SURFACE('',#280,5.7,0.785398163397447);
#191=CURVE_STYLE('',#281,POSITIVE_LENGTH_MEASURE(1.0E-006),#282);
#192=CIRCLE('',#283,6.0);
#193=SURFACE_STYLE_USAGE(.BOTH.,#284);
#194=FACE_OUTER_BOUND('',#285,.T.);
#195=CYLINDRICAL_SURFACE('',#286,6.0);
#196=CURVE_STYLE('',#287,POSITIVE_LENGTH_MEASURE(1.0E-006),#288);
#197=CIRCLE('',#289,4.77370803);
#198=CURVE_STYLE('',#290,POSITIVE_LENGTH_MEASURE(1.0E-006),#291);
#199=LINE('',#292,#293);
#200=CURVE_STYLE('',#294,POSITIVE_LENGTH_MEASURE(1.0E-006),#295);
#201=CIRCLE('',#296,6.0);
#202=PRODUCT_CONTEXT('',#41,'mechanical');
#203=PRODUCT_DEFINITION_FORMATION_WITH_SPECIFIED_SOURCE(' ','NONE',#116,.NOT_KNOWN.);
#204=CARTESIAN_POINT('',(0.0,0.0,0.0));
#205=DIRECTION('',(0.0,0.0,1.0));
#206=DIRECTION('',(1.0,0.0,0.0));
#207= (NAMED_UNIT(#124)LENGTH_UNIT()SI_UNIT(.MILLI.,.METRE.));
#208=DRAUGHTING_PRE_DEFINED_CURVE_FONT('continuous');
#209=COLOUR_RGB('',0.498039215803146,0.498039215803146,0.498039215803146);
#210=AXIS2_PLACEMENT_3D('',#298,#299,#300);
#211=PRE_DEFINED_MARKER('');
#212=COLOUR_RGB('',0.800000011920929,0.800000011920929,0.800000011920929);
#213=SURFACE_SIDE_STYLE('',(#301));
#214=EDGE_LOOP('',(#302,#303));
#215=AXIS2_PLACEMENT_3D('',#304,#305,#306);
#216=PRE_DEFINED_MARKER('');
#217=COLOUR_RGB('',0.498039215803146,0.498039215803146,0.498039215803146);
#218=PRE_DEFINED_MARKER('');
#219=COLOUR_RGB('',0.800000011920929,0.800000011920929,0.800000011920929);
#220=PRE_DEFINED_MARKER('');
#221=COLOUR_RGB('',0.498039215803146,0.498039215803146,0.498039215803146);
#222=PRE_DEFINED_MARKER('');
#223=COLOUR_RGB('',0.498039215803146,0.498039215803146,0.498039215803146);
#224=DRAUGHTING_PRE_DEFINED_CURVE_FONT('continuous');
#225=COLOUR_RGB('',0.498039215803146,0.498039215803146,0.498039215803146);
#226=CARTESIAN_POINT('',(7.34763812293426E-016,-6.0,-24.8));
#227=VECTOR('',#307,1.0);
#228=SURFACE_SIDE_STYLE('',(#308));
#229=EDGE_LOOP('',(#309,#310,#311,#312));
#230=AXIS2_PLACEMENT_3D('',#313,#314,#315);
#231=DRAUGHTING_PRE_DEFINED_CURVE_FONT('continuous');
#232=COLOUR_RGB('',0.498039215803146,0.498039215803146,0.498039215803146);
#233=CARTESIAN_POINT('',(-6.98025621678755E-016,5.7,-0.300000000000004));
#234=VECTOR('',#316,1.0);
#235=DRAUGHTING_PRE_DEFINED_CURVE_FONT('continuous');
#236=COLOUR_RGB('',0.498039215803146,0.498039215803146,0.498039215803146);
#237=AXIS2_PLACEMENT_3D('',#317,#318,#319);
#238=DRAUGHTING_PRE_DEFINED_CURVE_FONT('continuous');
#239=COLOUR_RGB('',0.498039215803146,0.498039215803146,0.498039215803146);
#240=AXIS2_PLACEMENT_3D('',#320,#321,#322);
#241=SURFACE_SIDE_STYLE('',(#323));
#242=EDGE_LOOP('',(#324,#325,#326,#327));
#243=AXIS2_PLACEMENT_3D('',#328,#329,#330);
#244=SURFACE_SIDE_STYLE('',(#331));
#245=SURFACE_SIDE_STYLE('',(#332));
#246=EDGE_LOOP('',(#333,#334));
#247=AXIS2_PLACEMENT_3D('',#335,#336,#337);
#248=PRE_DEFINED_MARKER('');
#249=COLOUR_RGB('',0.498039215803146,0.498039215803146,0.498039215803146);
#250=DRAUGHTING_PRE_DEFINED_CURVE_FONT('continuous');
#251=COLOUR_RGB('',0.800000011920929,0.800000011920929,0.800000011920929);
#252=CARTESIAN_POINT('',(6.59677565388258E-016,-5.386854015,-94.6460000005077));
#253=VECTOR('',#338,1.0);
#254=PRE_DEFINED_MARKER('');
#255=COLOUR_RGB('',0.498039215803146,0.498039215803146,0.498039215803146);
#256=PRE_DEFINED_MARKER('');
#257=COLOUR_RGB('',0.498039215803146,0.498039215803146,0.498039215803146);
#258=SURFACE_SIDE_STYLE('',(#339));
#259=EDGE_LOOP('',(#340,#341,#342,#343));
#260=AXIS2_PLACEMENT_3D('',#344,#345,#346);
#261=DRAUGHTING_PRE_DEFINED_CURVE_FONT('continuous');
#262=COLOUR_RGB('',0.800000011920929,0.800000011920929,0.800000011920929);
#263=AXIS2_PLACEMENT_3D('',#347,#348,#349);
#264=SURFACE_SIDE_STYLE('',(#350));
#265=EDGE_LOOP('',(#351,#352,#353,#354));
#266=AXIS2_PLACEMENT_3D('',#355,#356,#357);
#267=DRAUGHTING_PRE_DEFINED_CURVE_FONT('continuous');
#268=COLOUR_RGB('',0.498039215803146,0.498039215803146,0.498039215803146);
#269=CARTESIAN_POINT('',(6.98025621678755E-016,-5.7,-0.300000000000004));
#270=VECTOR('',#358,1.0);
#271=DRAUGHTING_PRE_DEFINED_CURVE_FONT('continuous');
#272=COLOUR_RGB('',0.498039215803146,0.498039215803146,0.498039215803146);
#273=CARTESIAN_POINT('',(-7.34763812293426E-016,6.0,-24.8));
#274=VECTOR('',#359,1.0);
#275=DRAUGHTING_PRE_DEFINED_CURVE_FONT('continuous');
#276=COLOUR_RGB('',0.498039215803146,0.498039215803146,0.498039215803146);
#277=AXIS2_PLACEMENT_3D('',#360,#361,#362);
#278=SURFACE_SIDE_STYLE('',(#363));
#279=EDGE_LOOP('',(#364,#365,#366,#367));
#280=AXIS2_PLACEMENT_3D('',#368,#369,#370);
#281=DRAUGHTING_PRE_DEFINED_CURVE_FONT('continuous');
#282=COLOUR_RGB('',0.800000011920929,0.800000011920929,0.800000011920929);
#283=AXIS2_PLACEMENT_3D('',#371,#372,#373);
#284=SURFACE_SIDE_STYLE('',(#374));
#285=EDGE_LOOP('',(#375,#376,#377,#378));
#286=AXIS2_PLACEMENT_3D('',#379,#380,#381);
#287=DRAUGHTING_PRE_DEFINED_CURVE_FONT('continuous');
#288=COLOUR_RGB('',0.498039215803146,0.498039215803146,0.498039215803146);
#289=AXIS2_PLACEMENT_3D('',#382,#383,#384);
#290=DRAUGHTING_PRE_DEFINED_CURVE_FONT('continuous');
#291=COLOUR_RGB('',0.800000011920929,0.800000011920929,0.800000011920929);
#292=CARTESIAN_POINT('',(-6.59677565388258E-016,5.386854015,-94.6460000005077));
#293=VECTOR('',#385,1.0);
#294=DRAUGHTING_PRE_DEFINED_CURVE_FONT('continuous');
#295=COLOUR_RGB('',0.498039215803146,0.498039215803146,0.498039215803146);
#296=AXIS2_PLACEMENT_3D('',#386,#387,#388);
#298=CARTESIAN_POINT('',(0.0,0.0,-95.0));
#299=DIRECTION('',(0.0,0.0,-1.0));
#300=DIRECTION('',(0.0,1.0,0.0));
#301=SURFACE_STYLE_FILL_AREA(#389);
#302=ORIENTED_EDGE('',*,*,#103,.F.);
#303=ORIENTED_EDGE('',*,*,#77,.F.);
#304=CARTESIAN_POINT('',(0.0,2.7,0.0));
#305=DIRECTION('',(-0.0,0.0,1.0));
#306=DIRECTION('',(0.0,-1.0,0.0));
#307=DIRECTION('',(-0.0,-0.0,1.0));
#308=SURFACE_STYLE_FILL_AREA(#390);
#309=ORIENTED_EDGE('',*,*,#101,.T.);
#310=ORIENTED_EDGE('',*,*,#95,.F.);
#311=ORIENTED_EDGE('',*,*,#69,.T.);
#312=ORIENTED_EDGE('',*,*,#115,.T.);
#313=CARTESIAN_POINT('',(0.0,0.0,-24.8));
#314=DIRECTION('',(-0.0,-0.0,1.0));
#315=DIRECTION('',(0.0,1.0,0.0));
#316=DIRECTION('',(-8.65927457071934E-017,0.707106781186546,-0.707106781186549));
#317=CARTESIAN_POINT('',(0.0,0.0,-0.600000000000001));
#318=DIRECTION('',(0.0,0.0,-1.0));
#319=DIRECTION('',(0.0,1.0,0.0));
#320=CARTESIAN_POINT('',(0.0,0.0,0.0));
#321=DIRECTION('',(0.0,0.0,-1.0));
#322=DIRECTION('',(0.0,1.0,0.0));
#323=SURFACE_STYLE_FILL_AREA(#391);
#324=ORIENTED_EDGE('',*,*,#73,.F.);
#325=ORIENTED_EDGE('',*,*,#103,.T.);
#326=ORIENTED_EDGE('',*,*,#99,.F.);
#327=ORIENTED_EDGE('',*,*,#75,.F.);
#328=CARTESIAN_POINT('',(0.0,0.0,-0.300000000000004));
#329=DIRECTION('',(0.0,-0.0,-1.0));
#330=DIRECTION('',(0.0,1.0,0.0));
#331=SURFACE_STYLE_FILL_AREA(#392);
#332=SURFACE_STYLE_FILL_AREA(#393);
#333=ORIENTED_EDGE('',*,*,#111,.T.);
#334=ORIENTED_EDGE('',*,*,#55,.T.);
#335=CARTESIAN_POINT('',(0.0,2.386854015,-95.0));
#336=DIRECTION('',(0.0,0.0,-1.0));
#337=DIRECTION('',(0.0,1.0,0.0));
#338=DIRECTION('',(1.06054021204601E-016,-0.866025403784439,0.5));
#339=SURFACE_STYLE_FILL_AREA(#394);
#340=ORIENTED_EDGE('',*,*,#113,.F.);
#341=ORIENTED_EDGE('',*,*,#107,.T.);
#342=ORIENTED_EDGE('',*,*,#87,.F.);
#343=ORIENTED_EDGE('',*,*,#111,.F.);
#344=CARTESIAN_POINT('',(0.0,0.0,-94.6460000005077));
#345=DIRECTION('',(-0.0,-0.0,1.0));
#346=DIRECTION('',(0.0,1.0,0.0));
#347=CARTESIAN_POINT('',(0.0,0.0,-94.2920000010154));
#348=DIRECTION('',(0.0,0.0,-1.0));
#349=DIRECTION('',(0.0,1.0,0.0));
#350=SURFACE_STYLE_FILL_AREA(#395);
#351=ORIENTED_EDGE('',*,*,#113,.T.);
#352=ORIENTED_EDGE('',*,*,#55,.F.);
#353=ORIENTED_EDGE('',*,*,#87,.T.);
#354=ORIENTED_EDGE('',*,*,#95,.T.);
#355=CARTESIAN_POINT('',(0.0,0.0,-94.6460000005077));
#356=DIRECTION('',(-0.0,-0.0,1.0));
#357=DIRECTION('',(0.0,1.0,0.0));
#358=DIRECTION('',(-8.65927457071934E-017,0.707106781186546,0.707106781186549));
#359=DIRECTION('',(0.0,0.0,-1.0));
#360=CARTESIAN_POINT('',(0.0,0.0,0.0));
#361=DIRECTION('',(0.0,0.0,-1.0));
#362=DIRECTION('',(0.0,1.0,0.0));
#363=SURFACE_STYLE_FILL_AREA(#396);
#364=ORIENTED_EDGE('',*,*,#73,.T.);
#365=ORIENTED_EDGE('',*,*,#115,.F.);
#366=ORIENTED_EDGE('',*,*,#99,.T.);
#367=ORIENTED_EDGE('',*,*,#77,.T.);
#368=CARTESIAN_POINT('',(0.0,0.0,-0.300000000000004));
#369=DIRECTION('',(0.0,-0.0,-1.0));
#370=DIRECTION('',(0.0,1.0,0.0));
#371=CARTESIAN_POINT('',(0.0,0.0,-94.2920000010154));
#372=DIRECTION('',(0.0,0.0,-1.0));
#373=DIRECTION('',(0.0,1.0,0.0));
#374=SURFACE_STYLE_FILL_AREA(#397);
#375=ORIENTED_EDGE('',*,*,#101,.F.);
#376=ORIENTED_EDGE('',*,*,#75,.T.);
#377=ORIENTED_EDGE('',*,*,#69,.F.);
#378=ORIENTED_EDGE('',*,*,#107,.F.);
#379=CARTESIAN_POINT('',(0.0,0.0,-24.8));
#380=DIRECTION('',(-0.0,-0.0,1.0));
#381=DIRECTION('',(0.0,1.0,0.0));
#382=CARTESIAN_POINT('',(0.0,0.0,-95.0));
#383=DIRECTION('',(0.0,0.0,-1.0));
#384=DIRECTION('',(0.0,1.0,0.0));
#385=DIRECTION('',(1.06054021204601E-016,-0.866025403784439,-0.5));
#386=CARTESIAN_POINT('',(0.0,0.0,-0.600000000000001));
#387=DIRECTION('',(0.0,0.0,-1.0));
#388=DIRECTION('',(0.0,1.0,0.0));
#389=FILL_AREA_STYLE('',(#398));
#390=FILL_AREA_STYLE('',(#399));
#391=FILL_AREA_STYLE('',(#400));
#392=FILL_AREA_STYLE('',(#401));
#393=FILL_AREA_STYLE('',(#402));
#394=FILL_AREA_STYLE('',(#403));
#395=FILL_AREA_STYLE('',(#404));
#396=FILL_AREA_STYLE('',(#405));
#397=FILL_AREA_STYLE('',(#406));
#398=FILL_AREA_STYLE_COLOUR('',#407);
#399=FILL_AREA_STYLE_COLOUR('',#408);
#400=FILL_AREA_STYLE_COLOUR('',#409);
#401=FILL_AREA_STYLE_COLOUR('',#410);
#402=FILL_AREA_STYLE_COLOUR('',#411);
#403=FILL_AREA_STYLE_COLOUR('',#412);
#404=FILL_AREA_STYLE_COLOUR('',#413);
#405=FILL_AREA_STYLE_COLOUR('',#414);
#406=FILL_AREA_STYLE_COLOUR('',#415);
#407=COLOUR_RGB('',0.498039215803146,0.498039215803146,0.498039215803146);
#408=COLOUR_RGB('',0.498039215803146,0.498039215803146,0.498039215803146);
#409=COLOUR_RGB('',0.498039215803146,0.498039215803146,0.498039215803146);
#410=COLOUR_RGB('',0.498039215803146,0.498039215803146,0.498039215803146);
#411=COLOUR_RGB('',0.498039215803146,0.498039215803146,0.498039215803146);
#412=COLOUR_RGB('',0.800000011920929,0.800000011920929,0.800000011920929);
#413=COLOUR_RGB('',0.800000011920929,0.800000011920929,0.800000011920929);
#414=COLOUR_RGB('',0.498039215803146,0.498039215803146,0.498039215803146);
#415=COLOUR_RGB('',0.498039215803146,0.498039215803146,0.498039215803146);
#416=AXIS2_PLACEMENT_3D('PCS',#417,#418,#419);
#417=CARTESIAN_POINT('',(0.0,0.0,0.0));
#418=DIRECTION('',(0.0,0.0,1.0));
#419=DIRECTION('',(1.0,0.0,0.0));
#420=AXIS2_PLACEMENT_3D('CIP',#421,#422,#423);
#421=CARTESIAN_POINT('',(0.0,0.0,-95.0));
#422=DIRECTION('',(0.0,0.0,1.0));
#423=DIRECTION('',(1.0,0.0,0.0));
#424=AXIS2_PLACEMENT_3D('CRP',#425,#426,#427);
#425=CARTESIAN_POINT('',(-6.0,0.0,-95.0));
#426=DIRECTION('',(0.0,0.0,1.0));
#427=DIRECTION('',(1.0,0.0,0.0));
#428=AXIS2_PLACEMENT_3D('MCS',#429,#430,#431);
#429=CARTESIAN_POINT('',(0.0,0.0,-49.0));
#430=DIRECTION('',(0.0,0.0,1.0));
#431=DIRECTION('',(1.0,0.0,0.0));
#432=CONSTRUCTIVE_GEOMETRY_REPRESENTATION_RELATIONSHIP('coordinate systems',$,#45,#433);
#433=CONSTRUCTIVE_GEOMETRY_REPRESENTATION('coordinate systems',(#416,#420,#424,#428),#6);
ENDSEC;
END-ISO-10303-21;
