ISO-10303-21;
HEADER;
FILE_DESCRIPTION(('no description'),'unknown implementation level');
FILE_NAME('solidLXp_AWlCkFclEgbj5S2BmL_5VZo_1.STP','  ',('CIMSOURCE GmbH'),('CADClick - KiM GmbH - www.kimweb.de'),'unknown preprocess','ACIS','unknown authorization');
FILE_SCHEMA(('automotive_design'));
ENDSEC;
DATA;
#1=MECHANICAL_DESIGN_GEOMETRIC_PRESENTATION_REPRESENTATION(' ',(#10,#11,#12,#13,#14,#15,#16,#17,#18,#19,#20,#21,#22,#23,#24,#25,#26,#27,#28,#29,#30,#31,#32,#33,#34,#35,#36,#37,#38,#39,#40),#6);
#2=PRODUCT_DEFINITION_CONTEXT('',#41,'design');
#3=APPLICATION_PROTOCOL_DEFINITION('INTERNATIONAL STANDARD','automotive_design',1994,#41);
#4=PRODUCT_CATEGORY_RELATIONSHIP('NONE','NONE',#42,#43);
#5=SHAPE_DEFINITION_REPRESENTATION(#44,#45);
#6= (GEOMETRIC_REPRESENTATION_CONTEXT(3)GLOBAL_UNCERTAINTY_ASSIGNED_CONTEXT((#48))GLOBAL_UNIT_ASSIGNED_CONTEXT((#50,#51,#52))REPRESENTATION_CONTEXT('NONE','WORKSPACE'));
#10=STYLED_ITEM('',(#54),#55);
#11=STYLED_ITEM('',(#56),#57);
#12=STYLED_ITEM('',(#58),#59);
#13=STYLED_ITEM('',(#60),#61);
#14=STYLED_ITEM('',(#62),#63);
#15=STYLED_ITEM('',(#64),#65);
#16=STYLED_ITEM('',(#66),#67);
#17=STYLED_ITEM('',(#68),#69);
#18=STYLED_ITEM('',(#70),#71);
#19=STYLED_ITEM('',(#72),#73);
#20=STYLED_ITEM('',(#74),#75);
#21=STYLED_ITEM('',(#76),#77);
#22=STYLED_ITEM('',(#78),#79);
#23=STYLED_ITEM('',(#80),#81);
#24=STYLED_ITEM('',(#82),#83);
#25=STYLED_ITEM('',(#84),#85);
#26=STYLED_ITEM('',(#86),#87);
#27=STYLED_ITEM('',(#88),#89);
#28=STYLED_ITEM('',(#90),#91);
#29=STYLED_ITEM('',(#92),#93);
#30=STYLED_ITEM('',(#94),#95);
#31=STYLED_ITEM('',(#96),#97);
#32=STYLED_ITEM('',(#98),#99);
#33=STYLED_ITEM('',(#100),#101);
#34=STYLED_ITEM('',(#102),#103);
#35=STYLED_ITEM('',(#104),#105);
#36=STYLED_ITEM('',(#106),#107);
#37=STYLED_ITEM('',(#108),#109);
#38=STYLED_ITEM('',(#110),#111);
#39=STYLED_ITEM('',(#112),#113);
#40=STYLED_ITEM('',(#114),#115);
#41=APPLICATION_CONTEXT(' ');
#42=PRODUCT_CATEGORY('part','NONE');
#43=PRODUCT_RELATED_PRODUCT_CATEGORY('detail',' ',(#116));
#44=PRODUCT_DEFINITION_SHAPE('NONE','NONE',#117);
#45=ADVANCED_BREP_SHAPE_REPRESENTATION('1',(#115,#118),#6);
#48=UNCERTAINTY_MEASURE_WITH_UNIT(LENGTH_MEASURE(1.0E-006),#50,'','');
#50= (CONVERSION_BASED_UNIT('MILLIMETRE',#121)LENGTH_UNIT()NAMED_UNIT(#124));
#51= (NAMED_UNIT(#126)PLANE_ANGLE_UNIT()SI_UNIT($,.RADIAN.));
#52= (NAMED_UNIT(#126)SOLID_ANGLE_UNIT()SI_UNIT($,.STERADIAN.));
#54=PRESENTATION_STYLE_ASSIGNMENT((#132));
#55=ADVANCED_FACE('',(#133),#134,.T.);
#56=PRESENTATION_STYLE_ASSIGNMENT((#135));
#57=EDGE_CURVE('',#93,#113,#136,.T.);
#58=PRESENTATION_STYLE_ASSIGNMENT((#137));
#59=EDGE_CURVE('',#97,#65,#138,.T.);
#60=PRESENTATION_STYLE_ASSIGNMENT((#139));
#61=EDGE_CURVE('',#97,#107,#140,.T.);
#62=PRESENTATION_STYLE_ASSIGNMENT((#141));
#63=ADVANCED_FACE('',(#142),#143,.T.);
#64=PRESENTATION_STYLE_ASSIGNMENT((#144));
#65=VERTEX_POINT('',#145);
#66=PRESENTATION_STYLE_ASSIGNMENT((#146));
#67=ADVANCED_FACE('',(#147),#148,.T.);
#68=PRESENTATION_STYLE_ASSIGNMENT((#149));
#69=ADVANCED_FACE('',(#150),#151,.T.);
#70=PRESENTATION_STYLE_ASSIGNMENT((#152));
#71=EDGE_CURVE('',#65,#97,#153,.T.);
#72=PRESENTATION_STYLE_ASSIGNMENT((#154));
#73=EDGE_CURVE('',#105,#99,#155,.T.);
#74=PRESENTATION_STYLE_ASSIGNMENT((#156));
#75=ADVANCED_FACE('',(#157),#158,.T.);
#76=PRESENTATION_STYLE_ASSIGNMENT((#159));
#77=ADVANCED_FACE('',(#160),#161,.T.);
#78=PRESENTATION_STYLE_ASSIGNMENT((#162));
#79=VERTEX_POINT('',#163);
#80=PRESENTATION_STYLE_ASSIGNMENT((#164));
#81=EDGE_CURVE('',#79,#65,#165,.T.);
#82=PRESENTATION_STYLE_ASSIGNMENT((#166));
#83=EDGE_CURVE('',#99,#105,#167,.T.);
#84=PRESENTATION_STYLE_ASSIGNMENT((#168));
#85=EDGE_CURVE('',#99,#113,#169,.T.);
#86=PRESENTATION_STYLE_ASSIGNMENT((#170));
#87=EDGE_CURVE('',#79,#107,#171,.T.);
#88=PRESENTATION_STYLE_ASSIGNMENT((#172));
#89=ADVANCED_FACE('',(#173),#174,.T.);
#90=PRESENTATION_STYLE_ASSIGNMENT((#175));
#91=EDGE_CURVE('',#107,#79,#176,.T.);
#92=PRESENTATION_STYLE_ASSIGNMENT((#177));
#93=VERTEX_POINT('',#178);
#94=PRESENTATION_STYLE_ASSIGNMENT((#179));
#95=EDGE_CURVE('',#113,#93,#180,.T.);
#96=PRESENTATION_STYLE_ASSIGNMENT((#181));
#97=VERTEX_POINT('',#182);
#98=PRESENTATION_STYLE_ASSIGNMENT((#183));
#99=VERTEX_POINT('',#184);
#100=PRESENTATION_STYLE_ASSIGNMENT((#185));
#101=ADVANCED_FACE('',(#186),#187,.T.);
#102=PRESENTATION_STYLE_ASSIGNMENT((#188));
#103=EDGE_CURVE('',#105,#97,#189,.T.);
#104=PRESENTATION_STYLE_ASSIGNMENT((#190));
#105=VERTEX_POINT('',#191);
#106=PRESENTATION_STYLE_ASSIGNMENT((#192));
#107=VERTEX_POINT('',#193);
#108=PRESENTATION_STYLE_ASSIGNMENT((#194));
#109=EDGE_CURVE('',#93,#105,#195,.T.);
#110=PRESENTATION_STYLE_ASSIGNMENT((#196));
#111=EDGE_CURVE('',#65,#99,#197,.T.);
#112=PRESENTATION_STYLE_ASSIGNMENT((#198));
#113=VERTEX_POINT('',#199);
#114=PRESENTATION_STYLE_ASSIGNMENT((#200));
#115=MANIFOLD_SOLID_BREP('1',#201);
#116=PRODUCT('1','1','PART-1-DESC',(#202));
#117=PRODUCT_DEFINITION('NONE','NONE',#203,#2);
#118=AXIS2_PLACEMENT_3D('',#204,#205,#206);
#121=LENGTH_MEASURE_WITH_UNIT(LENGTH_MEASURE(1.0),#207);
#124=DIMENSIONAL_EXPONENTS(1.0,0.0,0.0,0.0,0.0,0.0,0.0);
#126=DIMENSIONAL_EXPONENTS(0.0,0.0,0.0,0.0,0.0,0.0,0.0);
#132=SURFACE_STYLE_USAGE(.BOTH.,#208);
#133=FACE_OUTER_BOUND('',#209,.T.);
#134=PLANE('',#210);
#135=CURVE_STYLE('',#211,POSITIVE_LENGTH_MEASURE(1.0E-006),#212);
#136=CIRCLE('',#213,7.08028102);
#137=CURVE_STYLE('',#214,POSITIVE_LENGTH_MEASURE(1.0E-006),#215);
#138=CIRCLE('',#216,8.0);
#139=CURVE_STYLE('',#217,POSITIVE_LENGTH_MEASURE(1.0E-006),#218);
#140=LINE('',#219,#220);
#141=SURFACE_STYLE_USAGE(.BOTH.,#221);
#142=FACE_OUTER_BOUND('',#222,.T.);
#143=CONICAL_SURFACE('',#223,7.54014051,1.0471975511966);
#144=POINT_STYLE(' ',#224,POSITIVE_LENGTH_MEASURE(1.0E-006),#225);
#145=CARTESIAN_POINT('',(0.0,8.0,-0.799999999999997));
#146=SURFACE_STYLE_USAGE(.BOTH.,#226);
#147=FACE_OUTER_BOUND('',#227,.T.);
#148=CYLINDRICAL_SURFACE('',#228,8.0);
#149=SURFACE_STYLE_USAGE(.BOTH.,#229);
#150=FACE_OUTER_BOUND('',#230,.T.);
#151=CONICAL_SURFACE('',#231,7.6,0.78539816339745);
#152=CURVE_STYLE('',#232,POSITIVE_LENGTH_MEASURE(1.0E-006),#233);
#153=CIRCLE('',#234,8.0);
#154=CURVE_STYLE('',#235,POSITIVE_LENGTH_MEASURE(1.0E-006),#236);
#155=CIRCLE('',#237,8.0);
#156=SURFACE_STYLE_USAGE(.BOTH.,#238);
#157=FACE_OUTER_BOUND('',#239,.T.);
#158=CYLINDRICAL_SURFACE('',#240,8.0);
#159=SURFACE_STYLE_USAGE(.BOTH.,#241);
#160=FACE_OUTER_BOUND('',#242,.T.);
#161=PLANE('',#243);
#162=POINT_STYLE(' ',#244,POSITIVE_LENGTH_MEASURE(1.0E-006),#245);
#163=CARTESIAN_POINT('',(0.0,7.2,0.0));
#164=CURVE_STYLE('',#246,POSITIVE_LENGTH_MEASURE(1.0E-006),#247);
#165=LINE('',#248,#249);
#166=CURVE_STYLE('',#250,POSITIVE_LENGTH_MEASURE(1.0E-006),#251);
#167=CIRCLE('',#252,8.0);
#168=CURVE_STYLE('',#253,POSITIVE_LENGTH_MEASURE(1.0E-006),#254);
#169=LINE('',#255,#256);
#170=CURVE_STYLE('',#257,POSITIVE_LENGTH_MEASURE(1.0E-006),#258);
#171=CIRCLE('',#259,7.2);
#172=SURFACE_STYLE_USAGE(.BOTH.,#260);
#173=FACE_OUTER_BOUND('',#261,.T.);
#174=CONICAL_SURFACE('',#262,7.6,0.78539816339745);
#175=CURVE_STYLE('',#263,POSITIVE_LENGTH_MEASURE(1.0E-006),#264);
#176=CIRCLE('',#265,7.2);
#177=POINT_STYLE(' ',#266,POSITIVE_LENGTH_MEASURE(1.0E-006),#267);
#178=CARTESIAN_POINT('',(8.67055712393998E-016,-7.08028102,-105.0));
#179=CURVE_STYLE('',#268,POSITIVE_LENGTH_MEASURE(1.0E-006),#269);
#180=CIRCLE('',#270,7.08028102);
#181=POINT_STYLE(' ',#271,POSITIVE_LENGTH_MEASURE(1.0E-006),#272);
#182=CARTESIAN_POINT('',(9.79685083057902E-016,-8.0,-0.799999999999997));
#183=POINT_STYLE(' ',#273,POSITIVE_LENGTH_MEASURE(1.0E-006),#274);
#184=CARTESIAN_POINT('',(0.0,8.0,-104.468999999318));
#185=SURFACE_STYLE_USAGE(.BOTH.,#275);
#186=FACE_OUTER_BOUND('',#276,.T.);
#187=CONICAL_SURFACE('',#277,7.54014051,1.0471975511966);
#188=CURVE_STYLE('',#278,POSITIVE_LENGTH_MEASURE(1.0E-006),#279);
#189=LINE('',#280,#281);
#190=POINT_STYLE(' ',#282,POSITIVE_LENGTH_MEASURE(1.0E-006),#283);
#191=CARTESIAN_POINT('',(9.79685083057902E-016,-8.0,-104.468999999318));
#192=POINT_STYLE(' ',#284,POSITIVE_LENGTH_MEASURE(1.0E-006),#285);
#193=CARTESIAN_POINT('',(8.81716574752112E-016,-7.2,0.0));
#194=CURVE_STYLE('',#286,POSITIVE_LENGTH_MEASURE(1.0E-006),#287);
#195=LINE('',#288,#289);
#196=CURVE_STYLE('',#290,POSITIVE_LENGTH_MEASURE(1.0E-006),#291);
#197=LINE('',#292,#293);
#198=POINT_STYLE(' ',#294,POSITIVE_LENGTH_MEASURE(1.0E-006),#295);
#199=CARTESIAN_POINT('',(0.0,7.08028102,-105.0));
#200=SURFACE_STYLE_USAGE(.BOTH.,#296);
#201=CLOSED_SHELL('',(#75,#89,#63,#101,#55,#69,#67,#77));
#202=PRODUCT_CONTEXT('',#41,'mechanical');
#203=PRODUCT_DEFINITION_FORMATION_WITH_SPECIFIED_SOURCE(' ','NONE',#116,.NOT_KNOWN.);
#204=CARTESIAN_POINT('',(0.0,0.0,0.0));
#205=DIRECTION('',(0.0,0.0,1.0));
#206=DIRECTION('',(1.0,0.0,0.0));
#207= (NAMED_UNIT(#124)LENGTH_UNIT()SI_UNIT(.MILLI.,.METRE.));
#208=SURFACE_SIDE_STYLE('',(#298));
#209=EDGE_LOOP('',(#299,#300));
#210=AXIS2_PLACEMENT_3D('',#301,#302,#303);
#211=DRAUGHTING_PRE_DEFINED_CURVE_FONT('continuous');
#212=COLOUR_RGB('',0.498039215803146,0.498039215803146,0.498039215803146);
#213=AXIS2_PLACEMENT_3D('',#304,#305,#306);
#214=DRAUGHTING_PRE_DEFINED_CURVE_FONT('continuous');
#215=COLOUR_RGB('',0.498039215803146,0.498039215803146,0.498039215803146);
#216=AXIS2_PLACEMENT_3D('',#307,#308,#309);
#217=DRAUGHTING_PRE_DEFINED_CURVE_FONT('continuous');
#218=COLOUR_RGB('',0.498039215803146,0.498039215803146,0.498039215803146);
#219=CARTESIAN_POINT('',(9.30700828905007E-016,-7.6,-0.399999999999999));
#220=VECTOR('',#310,1.0);
#221=SURFACE_SIDE_STYLE('',(#311));
#222=EDGE_LOOP('',(#312,#313,#314,#315));
#223=AXIS2_PLACEMENT_3D('',#316,#317,#318);
#224=PRE_DEFINED_MARKER('');
#225=COLOUR_RGB('',0.498039215803146,0.498039215803146,0.498039215803146);
#226=SURFACE_SIDE_STYLE('',(#319));
#227=EDGE_LOOP('',(#320,#321,#322,#323));
#228=AXIS2_PLACEMENT_3D('',#324,#325,#326);
#229=SURFACE_SIDE_STYLE('',(#327));
#230=EDGE_LOOP('',(#328,#329,#330,#331));
#231=AXIS2_PLACEMENT_3D('',#332,#333,#334);
#232=DRAUGHTING_PRE_DEFINED_CURVE_FONT('continuous');
#233=COLOUR_RGB('',0.498039215803146,0.498039215803146,0.498039215803146);
#234=AXIS2_PLACEMENT_3D('',#335,#336,#337);
#235=DRAUGHTING_PRE_DEFINED_CURVE_FONT('continuous');
#236=COLOUR_RGB('',0.800000011920929,0.800000011920929,0.800000011920929);
#237=AXIS2_PLACEMENT_3D('',#338,#339,#340);
#238=SURFACE_SIDE_STYLE('',(#341));
#239=EDGE_LOOP('',(#342,#343,#344,#345));
#240=AXIS2_PLACEMENT_3D('',#346,#347,#348);
#241=SURFACE_SIDE_STYLE('',(#349));
#242=EDGE_LOOP('',(#350,#351));
#243=AXIS2_PLACEMENT_3D('',#352,#353,#354);
#244=PRE_DEFINED_MARKER('');
#245=COLOUR_RGB('',0.498039215803146,0.498039215803146,0.498039215803146);
#246=DRAUGHTING_PRE_DEFINED_CURVE_FONT('continuous');
#247=COLOUR_RGB('',0.498039215803146,0.498039215803146,0.498039215803146);
#248=CARTESIAN_POINT('',(-9.30700828905007E-016,7.6,-0.399999999999999));
#249=VECTOR('',#355,1.0);
#250=DRAUGHTING_PRE_DEFINED_CURVE_FONT('continuous');
#251=COLOUR_RGB('',0.800000011920929,0.800000011920929,0.800000011920929);
#252=AXIS2_PLACEMENT_3D('',#356,#357,#358);
#253=DRAUGHTING_PRE_DEFINED_CURVE_FONT('continuous');
#254=COLOUR_RGB('',0.800000011920929,0.800000011920929,0.800000011920929);
#255=CARTESIAN_POINT('',(-9.2337039772595E-016,7.54014051,-104.734499999659));
#256=VECTOR('',#359,1.0);
#257=DRAUGHTING_PRE_DEFINED_CURVE_FONT('continuous');
#258=COLOUR_RGB('',0.498039215803146,0.498039215803146,0.498039215803146);
#259=AXIS2_PLACEMENT_3D('',#360,#361,#362);
#260=SURFACE_SIDE_STYLE('',(#363));
#261=EDGE_LOOP('',(#364,#365,#366,#367));
#262=AXIS2_PLACEMENT_3D('',#368,#369,#370);
#263=DRAUGHTING_PRE_DEFINED_CURVE_FONT('continuous');
#264=COLOUR_RGB('',0.498039215803146,0.498039215803146,0.498039215803146);
#265=AXIS2_PLACEMENT_3D('',#371,#372,#373);
#266=PRE_DEFINED_MARKER('');
#267=COLOUR_RGB('',0.498039215803146,0.498039215803146,0.498039215803146);
#268=DRAUGHTING_PRE_DEFINED_CURVE_FONT('continuous');
#269=COLOUR_RGB('',0.498039215803146,0.498039215803146,0.498039215803146);
#270=AXIS2_PLACEMENT_3D('',#374,#375,#376);
#271=PRE_DEFINED_MARKER('');
#272=COLOUR_RGB('',0.498039215803146,0.498039215803146,0.498039215803146);
#273=PRE_DEFINED_MARKER('');
#274=COLOUR_RGB('',0.800000011920929,0.800000011920929,0.800000011920929);
#275=SURFACE_SIDE_STYLE('',(#377));
#276=EDGE_LOOP('',(#378,#379,#380,#381));
#277=AXIS2_PLACEMENT_3D('',#382,#383,#384);
#278=DRAUGHTING_PRE_DEFINED_CURVE_FONT('continuous');
#279=COLOUR_RGB('',0.498039215803146,0.498039215803146,0.498039215803146);
#280=CARTESIAN_POINT('',(9.79685083057902E-016,-8.0,-24.9));
#281=VECTOR('',#385,1.0);
#282=PRE_DEFINED_MARKER('');
#283=COLOUR_RGB('',0.800000011920929,0.800000011920929,0.800000011920929);
#284=PRE_DEFINED_MARKER('');
#285=COLOUR_RGB('',0.498039215803146,0.498039215803146,0.498039215803146);
#286=DRAUGHTING_PRE_DEFINED_CURVE_FONT('continuous');
#287=COLOUR_RGB('',0.800000011920929,0.800000011920929,0.800000011920929);
#288=CARTESIAN_POINT('',(9.2337039772595E-016,-7.54014051,-104.734499999659));
#289=VECTOR('',#386,1.0);
#290=DRAUGHTING_PRE_DEFINED_CURVE_FONT('continuous');
#291=COLOUR_RGB('',0.498039215803146,0.498039215803146,0.498039215803146);
#292=CARTESIAN_POINT('',(-9.79685083057902E-016,8.0,-24.9));
#293=VECTOR('',#387,1.0);
#294=PRE_DEFINED_MARKER('');
#295=COLOUR_RGB('',0.498039215803146,0.498039215803146,0.498039215803146);
#296=SURFACE_SIDE_STYLE('',(#388));
#298=SURFACE_STYLE_FILL_AREA(#389);
#299=ORIENTED_EDGE('',*,*,#87,.F.);
#300=ORIENTED_EDGE('',*,*,#91,.F.);
#301=CARTESIAN_POINT('',(0.0,3.6,0.0));
#302=DIRECTION('',(-0.0,0.0,1.0));
#303=DIRECTION('',(0.0,-1.0,0.0));
#304=CARTESIAN_POINT('',(0.0,0.0,-105.0));
#305=DIRECTION('',(0.0,0.0,-1.0));
#306=DIRECTION('',(0.0,1.0,0.0));
#307=CARTESIAN_POINT('',(0.0,0.0,-0.799999999999997));
#308=DIRECTION('',(0.0,0.0,-1.0));
#309=DIRECTION('',(0.0,1.0,0.0));
#310=DIRECTION('',(-8.65927457071937E-017,0.707106781186549,0.707106781186546));
#311=SURFACE_STYLE_FILL_AREA(#390);
#312=ORIENTED_EDGE('',*,*,#85,.F.);
#313=ORIENTED_EDGE('',*,*,#83,.T.);
#314=ORIENTED_EDGE('',*,*,#109,.F.);
#315=ORIENTED_EDGE('',*,*,#95,.F.);
#316=CARTESIAN_POINT('',(0.0,0.0,-104.734499999659));
#317=DIRECTION('',(-0.0,-0.0,1.0));
#318=DIRECTION('',(0.0,1.0,0.0));
#319=SURFACE_STYLE_FILL_AREA(#391);
#320=ORIENTED_EDGE('',*,*,#111,.T.);
#321=ORIENTED_EDGE('',*,*,#73,.F.);
#322=ORIENTED_EDGE('',*,*,#103,.T.);
#323=ORIENTED_EDGE('',*,*,#59,.T.);
#324=CARTESIAN_POINT('',(0.0,0.0,-24.9));
#325=DIRECTION('',(-0.0,-0.0,1.0));
#326=DIRECTION('',(0.0,1.0,0.0));
#327=SURFACE_STYLE_FILL_AREA(#392);
#328=ORIENTED_EDGE('',*,*,#81,.T.);
#329=ORIENTED_EDGE('',*,*,#59,.F.);
#330=ORIENTED_EDGE('',*,*,#61,.T.);
#331=ORIENTED_EDGE('',*,*,#91,.T.);
#332=CARTESIAN_POINT('',(0.0,0.0,-0.399999999999999));
#333=DIRECTION('',(0.0,-0.0,-1.0));
#334=DIRECTION('',(0.0,1.0,0.0));
#335=CARTESIAN_POINT('',(0.0,0.0,-0.799999999999997));
#336=DIRECTION('',(0.0,0.0,-1.0));
#337=DIRECTION('',(0.0,1.0,0.0));
#338=CARTESIAN_POINT('',(0.0,0.0,-104.468999999318));
#339=DIRECTION('',(0.0,0.0,-1.0));
#340=DIRECTION('',(0.0,1.0,0.0));
#341=SURFACE_STYLE_FILL_AREA(#393);
#342=ORIENTED_EDGE('',*,*,#111,.F.);
#343=ORIENTED_EDGE('',*,*,#71,.T.);
#344=ORIENTED_EDGE('',*,*,#103,.F.);
#345=ORIENTED_EDGE('',*,*,#83,.F.);
#346=CARTESIAN_POINT('',(0.0,0.0,-24.9));
#347=DIRECTION('',(-0.0,-0.0,1.0));
#348=DIRECTION('',(0.0,1.0,0.0));
#349=SURFACE_STYLE_FILL_AREA(#394);
#350=ORIENTED_EDGE('',*,*,#95,.T.);
#351=ORIENTED_EDGE('',*,*,#57,.T.);
#352=CARTESIAN_POINT('',(0.0,3.54014051,-105.0));
#353=DIRECTION('',(0.0,0.0,-1.0));
#354=DIRECTION('',(0.0,1.0,0.0));
#355=DIRECTION('',(-8.65927457071937E-017,0.707106781186549,-0.707106781186546));
#356=CARTESIAN_POINT('',(0.0,0.0,-104.468999999318));
#357=DIRECTION('',(0.0,0.0,-1.0));
#358=DIRECTION('',(0.0,1.0,0.0));
#359=DIRECTION('',(1.06054021204601E-016,-0.866025403784439,-0.5));
#360=CARTESIAN_POINT('',(0.0,0.0,0.0));
#361=DIRECTION('',(0.0,0.0,-1.0));
#362=DIRECTION('',(0.0,1.0,0.0));
#363=SURFACE_STYLE_FILL_AREA(#395);
#364=ORIENTED_EDGE('',*,*,#81,.F.);
#365=ORIENTED_EDGE('',*,*,#87,.T.);
#366=ORIENTED_EDGE('',*,*,#61,.F.);
#367=ORIENTED_EDGE('',*,*,#71,.F.);
#368=CARTESIAN_POINT('',(0.0,0.0,-0.399999999999999));
#369=DIRECTION('',(0.0,-0.0,-1.0));
#370=DIRECTION('',(0.0,1.0,0.0));
#371=CARTESIAN_POINT('',(0.0,0.0,0.0));
#372=DIRECTION('',(0.0,0.0,-1.0));
#373=DIRECTION('',(0.0,1.0,0.0));
#374=CARTESIAN_POINT('',(0.0,0.0,-105.0));
#375=DIRECTION('',(0.0,0.0,-1.0));
#376=DIRECTION('',(0.0,1.0,0.0));
#377=SURFACE_STYLE_FILL_AREA(#396);
#378=ORIENTED_EDGE('',*,*,#85,.T.);
#379=ORIENTED_EDGE('',*,*,#57,.F.);
#380=ORIENTED_EDGE('',*,*,#109,.T.);
#381=ORIENTED_EDGE('',*,*,#73,.T.);
#382=CARTESIAN_POINT('',(0.0,0.0,-104.734499999659));
#383=DIRECTION('',(-0.0,-0.0,1.0));
#384=DIRECTION('',(0.0,1.0,0.0));
#385=DIRECTION('',(-0.0,-0.0,1.0));
#386=DIRECTION('',(1.06054021204601E-016,-0.866025403784439,0.5));
#387=DIRECTION('',(0.0,0.0,-1.0));
#388=SURFACE_STYLE_FILL_AREA(#397);
#389=FILL_AREA_STYLE('',(#398));
#390=FILL_AREA_STYLE('',(#399));
#391=FILL_AREA_STYLE('',(#400));
#392=FILL_AREA_STYLE('',(#401));
#393=FILL_AREA_STYLE('',(#402));
#394=FILL_AREA_STYLE('',(#403));
#395=FILL_AREA_STYLE('',(#404));
#396=FILL_AREA_STYLE('',(#405));
#397=FILL_AREA_STYLE('',(#406));
#398=FILL_AREA_STYLE_COLOUR('',#407);
#399=FILL_AREA_STYLE_COLOUR('',#408);
#400=FILL_AREA_STYLE_COLOUR('',#409);
#401=FILL_AREA_STYLE_COLOUR('',#410);
#402=FILL_AREA_STYLE_COLOUR('',#411);
#403=FILL_AREA_STYLE_COLOUR('',#412);
#404=FILL_AREA_STYLE_COLOUR('',#413);
#405=FILL_AREA_STYLE_COLOUR('',#414);
#406=FILL_AREA_STYLE_COLOUR('',#415);
#407=COLOUR_RGB('',0.498039215803146,0.498039215803146,0.498039215803146);
#408=COLOUR_RGB('',0.800000011920929,0.800000011920929,0.800000011920929);
#409=COLOUR_RGB('',0.498039215803146,0.498039215803146,0.498039215803146);
#410=COLOUR_RGB('',0.498039215803146,0.498039215803146,0.498039215803146);
#411=COLOUR_RGB('',0.498039215803146,0.498039215803146,0.498039215803146);
#412=COLOUR_RGB('',0.498039215803146,0.498039215803146,0.498039215803146);
#413=COLOUR_RGB('',0.498039215803146,0.498039215803146,0.498039215803146);
#414=COLOUR_RGB('',0.800000011920929,0.800000011920929,0.800000011920929);
#415=COLOUR_RGB('',0.498039215803146,0.498039215803146,0.498039215803146);
#416=AXIS2_PLACEMENT_3D('PCS',#417,#418,#419);
#417=CARTESIAN_POINT('',(0.0,0.0,0.0));
#418=DIRECTION('',(0.0,0.0,1.0));
#419=DIRECTION('',(1.0,0.0,0.0));
#420=AXIS2_PLACEMENT_3D('CIP',#421,#422,#423);
#421=CARTESIAN_POINT('',(0.0,0.0,-105.0));
#422=DIRECTION('',(0.0,0.0,1.0));
#423=DIRECTION('',(1.0,0.0,0.0));
#424=AXIS2_PLACEMENT_3D('CRP',#425,#426,#427);
#425=CARTESIAN_POINT('',(-8.0,0.0,-105.0));
#426=DIRECTION('',(0.0,0.0,1.0));
#427=DIRECTION('',(1.0,0.0,0.0));
#428=AXIS2_PLACEMENT_3D('MCS',#429,#430,#431);
#429=CARTESIAN_POINT('',(0.0,0.0,-49.0));
#430=DIRECTION('',(0.0,0.0,1.0));
#431=DIRECTION('',(1.0,0.0,0.0));
#432=CONSTRUCTIVE_GEOMETRY_REPRESENTATION_RELATIONSHIP('coordinate systems',$,#45,#433);
#433=CONSTRUCTIVE_GEOMETRY_REPRESENTATION('coordinate systems',(#416,#420,#424,#428),#6);
ENDSEC;
END-ISO-10303-21;
