ISO-10303-21;
HEADER;
FILE_DESCRIPTION(('no description'),'unknown implementation level');
FILE_NAME('solidmhQc1QuBSvBnjGKFDibX8Qm72dI_1.STP','  ',('CIMSOURCE GmbH'),('CADClick - KiM GmbH - www.kimweb.de'),'unknown preprocess','ACIS','unknown authorization');
FILE_SCHEMA(('automotive_design'));
ENDSEC;
DATA;
#1=MECHANICAL_DESIGN_GEOMETRIC_PRESENTATION_REPRESENTATION(' ',(#10,#11,#12,#13,#14,#15,#16,#17,#18,#19,#20,#21,#22,#23,#24,#25,#26,#27,#28,#29,#30,#31,#32,#33,#34,#35,#36,#37,#38,#39,#40),#6);
#2=PRODUCT_DEFINITION_CONTEXT('',#41,'design');
#3=APPLICATION_PROTOCOL_DEFINITION('INTERNATIONAL STANDARD','automotive_design',1994,#41);
#4=PRODUCT_CATEGORY_RELATIONSHIP('NONE','NONE',#42,#43);
#5=SHAPE_DEFINITION_REPRESENTATION(#44,#45);
#6= (GEOMETRIC_REPRESENTATION_CONTEXT(3)GLOBAL_UNCERTAINTY_ASSIGNED_CONTEXT((#48))GLOBAL_UNIT_ASSIGNED_CONTEXT((#50,#51,#52))REPRESENTATION_CONTEXT('NONE','WORKSPACE'));
#10=STYLED_ITEM('',(#54),#55);
#11=STYLED_ITEM('',(#56),#57);
#12=STYLED_ITEM('',(#58),#59);
#13=STYLED_ITEM('',(#60),#61);
#14=STYLED_ITEM('',(#62),#63);
#15=STYLED_ITEM('',(#64),#65);
#16=STYLED_ITEM('',(#66),#67);
#17=STYLED_ITEM('',(#68),#69);
#18=STYLED_ITEM('',(#70),#71);
#19=STYLED_ITEM('',(#72),#73);
#20=STYLED_ITEM('',(#74),#75);
#21=STYLED_ITEM('',(#76),#77);
#22=STYLED_ITEM('',(#78),#79);
#23=STYLED_ITEM('',(#80),#81);
#24=STYLED_ITEM('',(#82),#83);
#25=STYLED_ITEM('',(#84),#85);
#26=STYLED_ITEM('',(#86),#87);
#27=STYLED_ITEM('',(#88),#89);
#28=STYLED_ITEM('',(#90),#91);
#29=STYLED_ITEM('',(#92),#93);
#30=STYLED_ITEM('',(#94),#95);
#31=STYLED_ITEM('',(#96),#97);
#32=STYLED_ITEM('',(#98),#99);
#33=STYLED_ITEM('',(#100),#101);
#34=STYLED_ITEM('',(#102),#103);
#35=STYLED_ITEM('',(#104),#105);
#36=STYLED_ITEM('',(#106),#107);
#37=STYLED_ITEM('',(#108),#109);
#38=STYLED_ITEM('',(#110),#111);
#39=STYLED_ITEM('',(#112),#113);
#40=STYLED_ITEM('',(#114),#115);
#41=APPLICATION_CONTEXT(' ');
#42=PRODUCT_CATEGORY('part','NONE');
#43=PRODUCT_RELATED_PRODUCT_CATEGORY('detail',' ',(#116));
#44=PRODUCT_DEFINITION_SHAPE('NONE','NONE',#117);
#45=ADVANCED_BREP_SHAPE_REPRESENTATION('1',(#77,#118),#6);
#48=UNCERTAINTY_MEASURE_WITH_UNIT(LENGTH_MEASURE(1.0E-006),#50,'','');
#50= (CONVERSION_BASED_UNIT('MILLIMETRE',#121)LENGTH_UNIT()NAMED_UNIT(#124));
#51= (NAMED_UNIT(#126)PLANE_ANGLE_UNIT()SI_UNIT($,.RADIAN.));
#52= (NAMED_UNIT(#126)SOLID_ANGLE_UNIT()SI_UNIT($,.STERADIAN.));
#54=PRESENTATION_STYLE_ASSIGNMENT((#132));
#55=VERTEX_POINT('',#133);
#56=PRESENTATION_STYLE_ASSIGNMENT((#134));
#57=ADVANCED_FACE('',(#135),#136,.T.);
#58=PRESENTATION_STYLE_ASSIGNMENT((#137));
#59=ADVANCED_FACE('',(#138),#139,.T.);
#60=PRESENTATION_STYLE_ASSIGNMENT((#140));
#61=ADVANCED_FACE('',(#141),#142,.T.);
#62=PRESENTATION_STYLE_ASSIGNMENT((#143));
#63=ADVANCED_FACE('',(#144),#145,.T.);
#64=PRESENTATION_STYLE_ASSIGNMENT((#146));
#65=EDGE_CURVE('',#93,#105,#147,.T.);
#66=PRESENTATION_STYLE_ASSIGNMENT((#148));
#67=EDGE_CURVE('',#93,#83,#149,.T.);
#68=PRESENTATION_STYLE_ASSIGNMENT((#150));
#69=EDGE_CURVE('',#71,#55,#151,.T.);
#70=PRESENTATION_STYLE_ASSIGNMENT((#152));
#71=VERTEX_POINT('',#153);
#72=PRESENTATION_STYLE_ASSIGNMENT((#154));
#73=EDGE_CURVE('',#105,#71,#155,.T.);
#74=PRESENTATION_STYLE_ASSIGNMENT((#156));
#75=EDGE_CURVE('',#79,#105,#157,.T.);
#76=PRESENTATION_STYLE_ASSIGNMENT((#158));
#77=MANIFOLD_SOLID_BREP('1',#159);
#78=PRESENTATION_STYLE_ASSIGNMENT((#160));
#79=VERTEX_POINT('',#161);
#80=PRESENTATION_STYLE_ASSIGNMENT((#162));
#81=EDGE_CURVE('',#55,#95,#163,.T.);
#82=PRESENTATION_STYLE_ASSIGNMENT((#164));
#83=VERTEX_POINT('',#165);
#84=PRESENTATION_STYLE_ASSIGNMENT((#166));
#85=EDGE_CURVE('',#83,#93,#167,.T.);
#86=PRESENTATION_STYLE_ASSIGNMENT((#168));
#87=ADVANCED_FACE('',(#169),#170,.T.);
#88=PRESENTATION_STYLE_ASSIGNMENT((#171));
#89=EDGE_CURVE('',#95,#99,#172,.T.);
#90=PRESENTATION_STYLE_ASSIGNMENT((#173));
#91=EDGE_CURVE('',#105,#79,#174,.T.);
#92=PRESENTATION_STYLE_ASSIGNMENT((#175));
#93=VERTEX_POINT('',#176);
#94=PRESENTATION_STYLE_ASSIGNMENT((#177));
#95=VERTEX_POINT('',#178);
#96=PRESENTATION_STYLE_ASSIGNMENT((#179));
#97=EDGE_CURVE('',#95,#55,#180,.T.);
#98=PRESENTATION_STYLE_ASSIGNMENT((#181));
#99=VERTEX_POINT('',#182);
#100=PRESENTATION_STYLE_ASSIGNMENT((#183));
#101=ADVANCED_FACE('',(#184),#185,.T.);
#102=PRESENTATION_STYLE_ASSIGNMENT((#186));
#103=EDGE_CURVE('',#99,#71,#187,.T.);
#104=PRESENTATION_STYLE_ASSIGNMENT((#188));
#105=VERTEX_POINT('',#189);
#106=PRESENTATION_STYLE_ASSIGNMENT((#190));
#107=EDGE_CURVE('',#71,#99,#191,.T.);
#108=PRESENTATION_STYLE_ASSIGNMENT((#192));
#109=ADVANCED_FACE('',(#193),#194,.T.);
#110=PRESENTATION_STYLE_ASSIGNMENT((#195));
#111=ADVANCED_FACE('',(#196),#197,.T.);
#112=PRESENTATION_STYLE_ASSIGNMENT((#198));
#113=EDGE_CURVE('',#99,#79,#199,.T.);
#114=PRESENTATION_STYLE_ASSIGNMENT((#200));
#115=EDGE_CURVE('',#79,#83,#201,.T.);
#116=PRODUCT('1','1','PART-1-DESC',(#202));
#117=PRODUCT_DEFINITION('NONE','NONE',#203,#2);
#118=AXIS2_PLACEMENT_3D('',#204,#205,#206);
#121=LENGTH_MEASURE_WITH_UNIT(LENGTH_MEASURE(1.0),#207);
#124=DIMENSIONAL_EXPONENTS(1.0,0.0,0.0,0.0,0.0,0.0,0.0);
#126=DIMENSIONAL_EXPONENTS(0.0,0.0,0.0,0.0,0.0,0.0,0.0);
#132=POINT_STYLE(' ',#208,POSITIVE_LENGTH_MEASURE(1.0E-006),#209);
#133=CARTESIAN_POINT('',(0.0,6.46713504,-105.0));
#134=SURFACE_STYLE_USAGE(.BOTH.,#210);
#135=FACE_OUTER_BOUND('',#211,.T.);
#136=CYLINDRICAL_SURFACE('',#212,8.0);
#137=SURFACE_STYLE_USAGE(.BOTH.,#213);
#138=FACE_OUTER_BOUND('',#214,.T.);
#139=CONICAL_SURFACE('',#215,7.6,0.78539816339745);
#140=SURFACE_STYLE_USAGE(.BOTH.,#216);
#141=FACE_OUTER_BOUND('',#217,.T.);
#142=CONICAL_SURFACE('',#218,7.23356752,1.0471975511966);
#143=SURFACE_STYLE_USAGE(.BOTH.,#219);
#144=FACE_OUTER_BOUND('',#220,.T.);
#145=PLANE('',#221);
#146=CURVE_STYLE('',#222,POSITIVE_LENGTH_MEASURE(1.0E-006),#223);
#147=LINE('',#224,#225);
#148=CURVE_STYLE('',#226,POSITIVE_LENGTH_MEASURE(1.0E-006),#227);
#149=CIRCLE('',#228,7.2);
#150=CURVE_STYLE('',#229,POSITIVE_LENGTH_MEASURE(1.0E-006),#230);
#151=LINE('',#231,#232);
#152=POINT_STYLE(' ',#233,POSITIVE_LENGTH_MEASURE(1.0E-006),#234);
#153=CARTESIAN_POINT('',(0.0,8.0,-104.115000002713));
#154=CURVE_STYLE('',#235,POSITIVE_LENGTH_MEASURE(1.0E-006),#236);
#155=LINE('',#237,#238);
#156=CURVE_STYLE('',#239,POSITIVE_LENGTH_MEASURE(1.0E-006),#240);
#157=CIRCLE('',#241,8.0);
#158=SURFACE_STYLE_USAGE(.BOTH.,#242);
#159=CLOSED_SHELL('',(#109,#59,#61,#111,#87,#101,#57,#63));
#160=POINT_STYLE(' ',#243,POSITIVE_LENGTH_MEASURE(1.0E-006),#244);
#161=CARTESIAN_POINT('',(9.79685083057902E-016,-8.0,-0.799999999999997));
#162=CURVE_STYLE('',#245,POSITIVE_LENGTH_MEASURE(1.0E-006),#246);
#163=CIRCLE('',#247,6.46713504);
#164=POINT_STYLE(' ',#248,POSITIVE_LENGTH_MEASURE(1.0E-006),#249);
#165=CARTESIAN_POINT('',(8.81716574752112E-016,-7.2,0.0));
#166=CURVE_STYLE('',#250,POSITIVE_LENGTH_MEASURE(1.0E-006),#251);
#167=CIRCLE('',#252,7.2);
#168=SURFACE_STYLE_USAGE(.BOTH.,#253);
#169=FACE_OUTER_BOUND('',#254,.T.);
#170=PLANE('',#255);
#171=CURVE_STYLE('',#256,POSITIVE_LENGTH_MEASURE(1.0E-006),#257);
#172=LINE('',#258,#259);
#173=CURVE_STYLE('',#260,POSITIVE_LENGTH_MEASURE(1.0E-006),#261);
#174=CIRCLE('',#262,8.0);
#175=POINT_STYLE(' ',#263,POSITIVE_LENGTH_MEASURE(1.0E-006),#264);
#176=CARTESIAN_POINT('',(0.0,7.2,0.0));
#177=POINT_STYLE(' ',#265,POSITIVE_LENGTH_MEASURE(1.0E-006),#266);
#178=CARTESIAN_POINT('',(7.91969466101133E-016,-6.46713504,-105.0));
#179=CURVE_STYLE('',#267,POSITIVE_LENGTH_MEASURE(1.0E-006),#268);
#180=CIRCLE('',#269,6.46713504);
#181=POINT_STYLE(' ',#270,POSITIVE_LENGTH_MEASURE(1.0E-006),#271);
#182=CARTESIAN_POINT('',(9.79685083057902E-016,-8.0,-104.115000002713));
#183=SURFACE_STYLE_USAGE(.BOTH.,#272);
#184=FACE_OUTER_BOUND('',#273,.T.);
#185=CONICAL_SURFACE('',#274,7.6,0.78539816339745);
#186=CURVE_STYLE('',#275,POSITIVE_LENGTH_MEASURE(1.0E-006),#276);
#187=CIRCLE('',#277,8.0);
#188=POINT_STYLE(' ',#278,POSITIVE_LENGTH_MEASURE(1.0E-006),#279);
#189=CARTESIAN_POINT('',(0.0,8.0,-0.799999999999997));
#190=CURVE_STYLE('',#280,POSITIVE_LENGTH_MEASURE(1.0E-006),#281);
#191=CIRCLE('',#282,8.0);
#192=SURFACE_STYLE_USAGE(.BOTH.,#283);
#193=FACE_OUTER_BOUND('',#284,.T.);
#194=CYLINDRICAL_SURFACE('',#285,8.0);
#195=SURFACE_STYLE_USAGE(.BOTH.,#286);
#196=FACE_OUTER_BOUND('',#287,.T.);
#197=CONICAL_SURFACE('',#288,7.23356752,1.0471975511966);
#198=CURVE_STYLE('',#289,POSITIVE_LENGTH_MEASURE(1.0E-006),#290);
#199=LINE('',#291,#292);
#200=CURVE_STYLE('',#293,POSITIVE_LENGTH_MEASURE(1.0E-006),#294);
#201=LINE('',#295,#296);
#202=PRODUCT_CONTEXT('',#41,'mechanical');
#203=PRODUCT_DEFINITION_FORMATION_WITH_SPECIFIED_SOURCE(' ','NONE',#116,.NOT_KNOWN.);
#204=CARTESIAN_POINT('',(0.0,0.0,0.0));
#205=DIRECTION('',(0.0,0.0,1.0));
#206=DIRECTION('',(1.0,0.0,0.0));
#207= (NAMED_UNIT(#124)LENGTH_UNIT()SI_UNIT(.MILLI.,.METRE.));
#208=PRE_DEFINED_MARKER('');
#209=COLOUR_RGB('',0.498039215803146,0.498039215803146,0.498039215803146);
#210=SURFACE_SIDE_STYLE('',(#298));
#211=EDGE_LOOP('',(#299,#300,#301,#302));
#212=AXIS2_PLACEMENT_3D('',#303,#304,#305);
#213=SURFACE_SIDE_STYLE('',(#306));
#214=EDGE_LOOP('',(#307,#308,#309,#310));
#215=AXIS2_PLACEMENT_3D('',#311,#312,#313);
#216=SURFACE_SIDE_STYLE('',(#314));
#217=EDGE_LOOP('',(#315,#316,#317,#318));
#218=AXIS2_PLACEMENT_3D('',#319,#320,#321);
#219=SURFACE_SIDE_STYLE('',(#322));
#220=EDGE_LOOP('',(#323,#324));
#221=AXIS2_PLACEMENT_3D('',#325,#326,#327);
#222=DRAUGHTING_PRE_DEFINED_CURVE_FONT('continuous');
#223=COLOUR_RGB('',0.498039215803146,0.498039215803146,0.498039215803146);
#224=CARTESIAN_POINT('',(-9.30700828905007E-016,7.6,-0.399999999999999));
#225=VECTOR('',#328,1.0);
#226=DRAUGHTING_PRE_DEFINED_CURVE_FONT('continuous');
#227=COLOUR_RGB('',0.498039215803146,0.498039215803146,0.498039215803146);
#228=AXIS2_PLACEMENT_3D('',#329,#330,#331);
#229=DRAUGHTING_PRE_DEFINED_CURVE_FONT('continuous');
#230=COLOUR_RGB('',0.800000011920929,0.800000011920929,0.800000011920929);
#231=CARTESIAN_POINT('',(-8.85827274579518E-016,7.23356752,-104.557500001356));
#232=VECTOR('',#332,1.0);
#233=PRE_DEFINED_MARKER('');
#234=COLOUR_RGB('',0.800000011920929,0.800000011920929,0.800000011920929);
#235=DRAUGHTING_PRE_DEFINED_CURVE_FONT('continuous');
#236=COLOUR_RGB('',0.498039215803146,0.498039215803146,0.498039215803146);
#237=CARTESIAN_POINT('',(-9.79685083057902E-016,8.0,-24.65));
#238=VECTOR('',#333,1.0);
#239=DRAUGHTING_PRE_DEFINED_CURVE_FONT('continuous');
#240=COLOUR_RGB('',0.498039215803146,0.498039215803146,0.498039215803146);
#241=AXIS2_PLACEMENT_3D('',#334,#335,#336);
#242=SURFACE_SIDE_STYLE('',(#337));
#243=PRE_DEFINED_MARKER('');
#244=COLOUR_RGB('',0.498039215803146,0.498039215803146,0.498039215803146);
#245=DRAUGHTING_PRE_DEFINED_CURVE_FONT('continuous');
#246=COLOUR_RGB('',0.498039215803146,0.498039215803146,0.498039215803146);
#247=AXIS2_PLACEMENT_3D('',#338,#339,#340);
#248=PRE_DEFINED_MARKER('');
#249=COLOUR_RGB('',0.498039215803146,0.498039215803146,0.498039215803146);
#250=DRAUGHTING_PRE_DEFINED_CURVE_FONT('continuous');
#251=COLOUR_RGB('',0.498039215803146,0.498039215803146,0.498039215803146);
#252=AXIS2_PLACEMENT_3D('',#341,#342,#343);
#253=SURFACE_SIDE_STYLE('',(#344));
#254=EDGE_LOOP('',(#345,#346));
#255=AXIS2_PLACEMENT_3D('',#347,#348,#349);
#256=DRAUGHTING_PRE_DEFINED_CURVE_FONT('continuous');
#257=COLOUR_RGB('',0.800000011920929,0.800000011920929,0.800000011920929);
#258=CARTESIAN_POINT('',(8.85827274579518E-016,-7.23356752,-104.557500001356));
#259=VECTOR('',#350,1.0);
#260=DRAUGHTING_PRE_DEFINED_CURVE_FONT('continuous');
#261=COLOUR_RGB('',0.498039215803146,0.498039215803146,0.498039215803146);
#262=AXIS2_PLACEMENT_3D('',#351,#352,#353);
#263=PRE_DEFINED_MARKER('');
#264=COLOUR_RGB('',0.498039215803146,0.498039215803146,0.498039215803146);
#265=PRE_DEFINED_MARKER('');
#266=COLOUR_RGB('',0.498039215803146,0.498039215803146,0.498039215803146);
#267=DRAUGHTING_PRE_DEFINED_CURVE_FONT('continuous');
#268=COLOUR_RGB('',0.498039215803146,0.498039215803146,0.498039215803146);
#269=AXIS2_PLACEMENT_3D('',#354,#355,#356);
#270=PRE_DEFINED_MARKER('');
#271=COLOUR_RGB('',0.800000011920929,0.800000011920929,0.800000011920929);
#272=SURFACE_SIDE_STYLE('',(#357));
#273=EDGE_LOOP('',(#358,#359,#360,#361));
#274=AXIS2_PLACEMENT_3D('',#362,#363,#364);
#275=DRAUGHTING_PRE_DEFINED_CURVE_FONT('continuous');
#276=COLOUR_RGB('',0.800000011920929,0.800000011920929,0.800000011920929);
#277=AXIS2_PLACEMENT_3D('',#365,#366,#367);
#278=PRE_DEFINED_MARKER('');
#279=COLOUR_RGB('',0.498039215803146,0.498039215803146,0.498039215803146);
#280=DRAUGHTING_PRE_DEFINED_CURVE_FONT('continuous');
#281=COLOUR_RGB('',0.800000011920929,0.800000011920929,0.800000011920929);
#282=AXIS2_PLACEMENT_3D('',#368,#369,#370);
#283=SURFACE_SIDE_STYLE('',(#371));
#284=EDGE_LOOP('',(#372,#373,#374,#375));
#285=AXIS2_PLACEMENT_3D('',#376,#377,#378);
#286=SURFACE_SIDE_STYLE('',(#379));
#287=EDGE_LOOP('',(#380,#381,#382,#383));
#288=AXIS2_PLACEMENT_3D('',#384,#385,#386);
#289=DRAUGHTING_PRE_DEFINED_CURVE_FONT('continuous');
#290=COLOUR_RGB('',0.498039215803146,0.498039215803146,0.498039215803146);
#291=CARTESIAN_POINT('',(9.79685083057902E-016,-8.0,-24.65));
#292=VECTOR('',#387,1.0);
#293=DRAUGHTING_PRE_DEFINED_CURVE_FONT('continuous');
#294=COLOUR_RGB('',0.498039215803146,0.498039215803146,0.498039215803146);
#295=CARTESIAN_POINT('',(9.30700828905007E-016,-7.6,-0.399999999999999));
#296=VECTOR('',#388,1.0);
#298=SURFACE_STYLE_FILL_AREA(#389);
#299=ORIENTED_EDGE('',*,*,#73,.T.);
#300=ORIENTED_EDGE('',*,*,#103,.F.);
#301=ORIENTED_EDGE('',*,*,#113,.T.);
#302=ORIENTED_EDGE('',*,*,#75,.T.);
#303=CARTESIAN_POINT('',(0.0,0.0,-24.65));
#304=DIRECTION('',(-0.0,-0.0,1.0));
#305=DIRECTION('',(0.0,1.0,0.0));
#306=SURFACE_STYLE_FILL_AREA(#390);
#307=ORIENTED_EDGE('',*,*,#65,.F.);
#308=ORIENTED_EDGE('',*,*,#67,.T.);
#309=ORIENTED_EDGE('',*,*,#115,.F.);
#310=ORIENTED_EDGE('',*,*,#91,.F.);
#311=CARTESIAN_POINT('',(0.0,0.0,-0.399999999999999));
#312=DIRECTION('',(0.0,-0.0,-1.0));
#313=DIRECTION('',(0.0,1.0,0.0));
#314=SURFACE_STYLE_FILL_AREA(#391);
#315=ORIENTED_EDGE('',*,*,#69,.F.);
#316=ORIENTED_EDGE('',*,*,#107,.T.);
#317=ORIENTED_EDGE('',*,*,#89,.F.);
#318=ORIENTED_EDGE('',*,*,#81,.F.);
#319=CARTESIAN_POINT('',(0.0,0.0,-104.557500001356));
#320=DIRECTION('',(-0.0,-0.0,1.0));
#321=DIRECTION('',(0.0,1.0,0.0));
#322=SURFACE_STYLE_FILL_AREA(#392);
#323=ORIENTED_EDGE('',*,*,#81,.T.);
#324=ORIENTED_EDGE('',*,*,#97,.T.);
#325=CARTESIAN_POINT('',(0.0,3.23356752,-105.0));
#326=DIRECTION('',(0.0,0.0,-1.0));
#327=DIRECTION('',(0.0,1.0,0.0));
#328=DIRECTION('',(-8.65927457071937E-017,0.707106781186549,-0.707106781186546));
#329=CARTESIAN_POINT('',(0.0,0.0,0.0));
#330=DIRECTION('',(0.0,0.0,-1.0));
#331=DIRECTION('',(0.0,1.0,0.0));
#332=DIRECTION('',(1.06054021204601E-016,-0.866025403784439,-0.5));
#333=DIRECTION('',(0.0,0.0,-1.0));
#334=CARTESIAN_POINT('',(0.0,0.0,-0.799999999999997));
#335=DIRECTION('',(0.0,0.0,-1.0));
#336=DIRECTION('',(0.0,1.0,0.0));
#337=SURFACE_STYLE_FILL_AREA(#393);
#338=CARTESIAN_POINT('',(0.0,0.0,-105.0));
#339=DIRECTION('',(0.0,0.0,-1.0));
#340=DIRECTION('',(0.0,1.0,0.0));
#341=CARTESIAN_POINT('',(0.0,0.0,0.0));
#342=DIRECTION('',(0.0,0.0,-1.0));
#343=DIRECTION('',(0.0,1.0,0.0));
#344=SURFACE_STYLE_FILL_AREA(#394);
#345=ORIENTED_EDGE('',*,*,#67,.F.);
#346=ORIENTED_EDGE('',*,*,#85,.F.);
#347=CARTESIAN_POINT('',(0.0,3.6,0.0));
#348=DIRECTION('',(-0.0,0.0,1.0));
#349=DIRECTION('',(0.0,-1.0,0.0));
#350=DIRECTION('',(1.06054021204601E-016,-0.866025403784439,0.5));
#351=CARTESIAN_POINT('',(0.0,0.0,-0.799999999999997));
#352=DIRECTION('',(0.0,0.0,-1.0));
#353=DIRECTION('',(0.0,1.0,0.0));
#354=CARTESIAN_POINT('',(0.0,0.0,-105.0));
#355=DIRECTION('',(0.0,0.0,-1.0));
#356=DIRECTION('',(0.0,1.0,0.0));
#357=SURFACE_STYLE_FILL_AREA(#395);
#358=ORIENTED_EDGE('',*,*,#65,.T.);
#359=ORIENTED_EDGE('',*,*,#75,.F.);
#360=ORIENTED_EDGE('',*,*,#115,.T.);
#361=ORIENTED_EDGE('',*,*,#85,.T.);
#362=CARTESIAN_POINT('',(0.0,0.0,-0.399999999999999));
#363=DIRECTION('',(0.0,-0.0,-1.0));
#364=DIRECTION('',(0.0,1.0,0.0));
#365=CARTESIAN_POINT('',(0.0,0.0,-104.115000002713));
#366=DIRECTION('',(0.0,0.0,-1.0));
#367=DIRECTION('',(0.0,1.0,0.0));
#368=CARTESIAN_POINT('',(0.0,0.0,-104.115000002713));
#369=DIRECTION('',(0.0,0.0,-1.0));
#370=DIRECTION('',(0.0,1.0,0.0));
#371=SURFACE_STYLE_FILL_AREA(#396);
#372=ORIENTED_EDGE('',*,*,#73,.F.);
#373=ORIENTED_EDGE('',*,*,#91,.T.);
#374=ORIENTED_EDGE('',*,*,#113,.F.);
#375=ORIENTED_EDGE('',*,*,#107,.F.);
#376=CARTESIAN_POINT('',(0.0,0.0,-24.65));
#377=DIRECTION('',(-0.0,-0.0,1.0));
#378=DIRECTION('',(0.0,1.0,0.0));
#379=SURFACE_STYLE_FILL_AREA(#397);
#380=ORIENTED_EDGE('',*,*,#69,.T.);
#381=ORIENTED_EDGE('',*,*,#97,.F.);
#382=ORIENTED_EDGE('',*,*,#89,.T.);
#383=ORIENTED_EDGE('',*,*,#103,.T.);
#384=CARTESIAN_POINT('',(0.0,0.0,-104.557500001356));
#385=DIRECTION('',(-0.0,-0.0,1.0));
#386=DIRECTION('',(0.0,1.0,0.0));
#387=DIRECTION('',(-0.0,-0.0,1.0));
#388=DIRECTION('',(-8.65927457071937E-017,0.707106781186549,0.707106781186546));
#389=FILL_AREA_STYLE('',(#398));
#390=FILL_AREA_STYLE('',(#399));
#391=FILL_AREA_STYLE('',(#400));
#392=FILL_AREA_STYLE('',(#401));
#393=FILL_AREA_STYLE('',(#402));
#394=FILL_AREA_STYLE('',(#403));
#395=FILL_AREA_STYLE('',(#404));
#396=FILL_AREA_STYLE('',(#405));
#397=FILL_AREA_STYLE('',(#406));
#398=FILL_AREA_STYLE_COLOUR('',#407);
#399=FILL_AREA_STYLE_COLOUR('',#408);
#400=FILL_AREA_STYLE_COLOUR('',#409);
#401=FILL_AREA_STYLE_COLOUR('',#410);
#402=FILL_AREA_STYLE_COLOUR('',#411);
#403=FILL_AREA_STYLE_COLOUR('',#412);
#404=FILL_AREA_STYLE_COLOUR('',#413);
#405=FILL_AREA_STYLE_COLOUR('',#414);
#406=FILL_AREA_STYLE_COLOUR('',#415);
#407=COLOUR_RGB('',0.498039215803146,0.498039215803146,0.498039215803146);
#408=COLOUR_RGB('',0.498039215803146,0.498039215803146,0.498039215803146);
#409=COLOUR_RGB('',0.800000011920929,0.800000011920929,0.800000011920929);
#410=COLOUR_RGB('',0.498039215803146,0.498039215803146,0.498039215803146);
#411=COLOUR_RGB('',0.498039215803146,0.498039215803146,0.498039215803146);
#412=COLOUR_RGB('',0.498039215803146,0.498039215803146,0.498039215803146);
#413=COLOUR_RGB('',0.498039215803146,0.498039215803146,0.498039215803146);
#414=COLOUR_RGB('',0.498039215803146,0.498039215803146,0.498039215803146);
#415=COLOUR_RGB('',0.800000011920929,0.800000011920929,0.800000011920929);
#416=AXIS2_PLACEMENT_3D('PCS',#417,#418,#419);
#417=CARTESIAN_POINT('',(0.0,0.0,0.0));
#418=DIRECTION('',(0.0,0.0,1.0));
#419=DIRECTION('',(1.0,0.0,0.0));
#420=AXIS2_PLACEMENT_3D('CIP',#421,#422,#423);
#421=CARTESIAN_POINT('',(0.0,0.0,-105.0));
#422=DIRECTION('',(0.0,0.0,1.0));
#423=DIRECTION('',(1.0,0.0,0.0));
#424=AXIS2_PLACEMENT_3D('CRP',#425,#426,#427);
#425=CARTESIAN_POINT('',(-8.0,0.0,-105.0));
#426=DIRECTION('',(0.0,0.0,1.0));
#427=DIRECTION('',(1.0,0.0,0.0));
#428=AXIS2_PLACEMENT_3D('MCS',#429,#430,#431);
#429=CARTESIAN_POINT('',(0.0,0.0,-48.5));
#430=DIRECTION('',(0.0,0.0,1.0));
#431=DIRECTION('',(1.0,0.0,0.0));
#432=CONSTRUCTIVE_GEOMETRY_REPRESENTATION_RELATIONSHIP('coordinate systems',$,#45,#433);
#433=CONSTRUCTIVE_GEOMETRY_REPRESENTATION('coordinate systems',(#416,#420,#424,#428),#6);
ENDSEC;
END-ISO-10303-21;
