ISO-10303-21;
HEADER;
FILE_DESCRIPTION(('no description'),'unknown implementation level');
FILE_NAME('solidjRhFKL2WjM_rZmrtH71RYegfy_A_1.STP','  ',('CIMSOURCE GmbH'),('CADClick - KiM GmbH - www.kimweb.de'),'unknown preprocess','ACIS','unknown authorization');
FILE_SCHEMA(('automotive_design'));
ENDSEC;
DATA;
#1=MECHANICAL_DESIGN_GEOMETRIC_PRESENTATION_REPRESENTATION(' ',(#10,#11,#12,#13,#14,#15,#16,#17,#18,#19,#20,#21,#22,#23,#24,#25,#26,#27,#28,#29,#30,#31,#32,#33,#34,#35,#36,#37,#38,#39,#40),#6);
#2=PRODUCT_DEFINITION_CONTEXT('',#41,'design');
#3=APPLICATION_PROTOCOL_DEFINITION('INTERNATIONAL STANDARD','automotive_design',1994,#41);
#4=PRODUCT_CATEGORY_RELATIONSHIP('NONE','NONE',#42,#43);
#5=SHAPE_DEFINITION_REPRESENTATION(#44,#45);
#6= (GEOMETRIC_REPRESENTATION_CONTEXT(3)GLOBAL_UNCERTAINTY_ASSIGNED_CONTEXT((#48))GLOBAL_UNIT_ASSIGNED_CONTEXT((#50,#51,#52))REPRESENTATION_CONTEXT('NONE','WORKSPACE'));
#10=STYLED_ITEM('',(#54),#55);
#11=STYLED_ITEM('',(#56),#57);
#12=STYLED_ITEM('',(#58),#59);
#13=STYLED_ITEM('',(#60),#61);
#14=STYLED_ITEM('',(#62),#63);
#15=STYLED_ITEM('',(#64),#65);
#16=STYLED_ITEM('',(#66),#67);
#17=STYLED_ITEM('',(#68),#69);
#18=STYLED_ITEM('',(#70),#71);
#19=STYLED_ITEM('',(#72),#73);
#20=STYLED_ITEM('',(#74),#75);
#21=STYLED_ITEM('',(#76),#77);
#22=STYLED_ITEM('',(#78),#79);
#23=STYLED_ITEM('',(#80),#81);
#24=STYLED_ITEM('',(#82),#83);
#25=STYLED_ITEM('',(#84),#85);
#26=STYLED_ITEM('',(#86),#87);
#27=STYLED_ITEM('',(#88),#89);
#28=STYLED_ITEM('',(#90),#91);
#29=STYLED_ITEM('',(#92),#93);
#30=STYLED_ITEM('',(#94),#95);
#31=STYLED_ITEM('',(#96),#97);
#32=STYLED_ITEM('',(#98),#99);
#33=STYLED_ITEM('',(#100),#101);
#34=STYLED_ITEM('',(#102),#103);
#35=STYLED_ITEM('',(#104),#105);
#36=STYLED_ITEM('',(#106),#107);
#37=STYLED_ITEM('',(#108),#109);
#38=STYLED_ITEM('',(#110),#111);
#39=STYLED_ITEM('',(#112),#113);
#40=STYLED_ITEM('',(#114),#115);
#41=APPLICATION_CONTEXT(' ');
#42=PRODUCT_CATEGORY('part','NONE');
#43=PRODUCT_RELATED_PRODUCT_CATEGORY('detail',' ',(#116));
#44=PRODUCT_DEFINITION_SHAPE('NONE','NONE',#117);
#45=ADVANCED_BREP_SHAPE_REPRESENTATION('1',(#85,#118),#6);
#48=UNCERTAINTY_MEASURE_WITH_UNIT(LENGTH_MEASURE(1.0E-006),#50,'','');
#50= (CONVERSION_BASED_UNIT('MILLIMETRE',#121)LENGTH_UNIT()NAMED_UNIT(#124));
#51= (NAMED_UNIT(#126)PLANE_ANGLE_UNIT()SI_UNIT($,.RADIAN.));
#52= (NAMED_UNIT(#126)SOLID_ANGLE_UNIT()SI_UNIT($,.STERADIAN.));
#54=PRESENTATION_STYLE_ASSIGNMENT((#132));
#55=EDGE_CURVE('',#93,#63,#133,.T.);
#56=PRESENTATION_STYLE_ASSIGNMENT((#134));
#57=EDGE_CURVE('',#65,#115,#135,.T.);
#58=PRESENTATION_STYLE_ASSIGNMENT((#136));
#59=ADVANCED_FACE('',(#137),#138,.T.);
#60=PRESENTATION_STYLE_ASSIGNMENT((#139));
#61=ADVANCED_FACE('',(#140),#141,.T.);
#62=PRESENTATION_STYLE_ASSIGNMENT((#142));
#63=VERTEX_POINT('',#143);
#64=PRESENTATION_STYLE_ASSIGNMENT((#144));
#65=VERTEX_POINT('',#145);
#66=PRESENTATION_STYLE_ASSIGNMENT((#146));
#67=VERTEX_POINT('',#147);
#68=PRESENTATION_STYLE_ASSIGNMENT((#148));
#69=ADVANCED_FACE('',(#149),#150,.T.);
#70=PRESENTATION_STYLE_ASSIGNMENT((#151));
#71=EDGE_CURVE('',#115,#65,#152,.T.);
#72=PRESENTATION_STYLE_ASSIGNMENT((#153));
#73=EDGE_CURVE('',#67,#99,#154,.T.);
#74=PRESENTATION_STYLE_ASSIGNMENT((#155));
#75=ADVANCED_FACE('',(#156),#157,.T.);
#76=PRESENTATION_STYLE_ASSIGNMENT((#158));
#77=ADVANCED_FACE('',(#159),#160,.T.);
#78=PRESENTATION_STYLE_ASSIGNMENT((#161));
#79=ADVANCED_FACE('',(#162),#163,.T.);
#80=PRESENTATION_STYLE_ASSIGNMENT((#164));
#81=ADVANCED_FACE('',(#165),#166,.T.);
#82=PRESENTATION_STYLE_ASSIGNMENT((#167));
#83=EDGE_CURVE('',#99,#67,#168,.T.);
#84=PRESENTATION_STYLE_ASSIGNMENT((#169));
#85=MANIFOLD_SOLID_BREP('1',#170);
#86=PRESENTATION_STYLE_ASSIGNMENT((#171));
#87=VERTEX_POINT('',#172);
#88=PRESENTATION_STYLE_ASSIGNMENT((#173));
#89=EDGE_CURVE('',#65,#99,#174,.T.);
#90=PRESENTATION_STYLE_ASSIGNMENT((#175));
#91=EDGE_CURVE('',#63,#93,#176,.T.);
#92=PRESENTATION_STYLE_ASSIGNMENT((#177));
#93=VERTEX_POINT('',#178);
#94=PRESENTATION_STYLE_ASSIGNMENT((#179));
#95=EDGE_CURVE('',#87,#93,#180,.T.);
#96=PRESENTATION_STYLE_ASSIGNMENT((#181));
#97=ADVANCED_FACE('',(#182),#183,.T.);
#98=PRESENTATION_STYLE_ASSIGNMENT((#184));
#99=VERTEX_POINT('',#185);
#100=PRESENTATION_STYLE_ASSIGNMENT((#186));
#101=EDGE_CURVE('',#99,#63,#187,.T.);
#102=PRESENTATION_STYLE_ASSIGNMENT((#188));
#103=EDGE_CURVE('',#93,#67,#189,.T.);
#104=PRESENTATION_STYLE_ASSIGNMENT((#190));
#105=VERTEX_POINT('',#191);
#106=PRESENTATION_STYLE_ASSIGNMENT((#192));
#107=EDGE_CURVE('',#105,#87,#193,.T.);
#108=PRESENTATION_STYLE_ASSIGNMENT((#194));
#109=EDGE_CURVE('',#67,#115,#195,.T.);
#110=PRESENTATION_STYLE_ASSIGNMENT((#196));
#111=EDGE_CURVE('',#63,#105,#197,.T.);
#112=PRESENTATION_STYLE_ASSIGNMENT((#198));
#113=EDGE_CURVE('',#87,#105,#199,.T.);
#114=PRESENTATION_STYLE_ASSIGNMENT((#200));
#115=VERTEX_POINT('',#201);
#116=PRODUCT('1','1','PART-1-DESC',(#202));
#117=PRODUCT_DEFINITION('NONE','NONE',#203,#2);
#118=AXIS2_PLACEMENT_3D('',#204,#205,#206);
#121=LENGTH_MEASURE_WITH_UNIT(LENGTH_MEASURE(1.0),#207);
#124=DIMENSIONAL_EXPONENTS(1.0,0.0,0.0,0.0,0.0,0.0,0.0);
#126=DIMENSIONAL_EXPONENTS(0.0,0.0,0.0,0.0,0.0,0.0,0.0);
#132=CURVE_STYLE('',#208,POSITIVE_LENGTH_MEASURE(1.0E-006),#209);
#133=CIRCLE('',#210,10.0);
#134=CURVE_STYLE('',#211,POSITIVE_LENGTH_MEASURE(1.0E-006),#212);
#135=CIRCLE('',#213,9.0);
#136=SURFACE_STYLE_USAGE(.BOTH.,#214);
#137=FACE_OUTER_BOUND('',#215,.T.);
#138=PLANE('',#216);
#139=SURFACE_STYLE_USAGE(.BOTH.,#217);
#140=FACE_OUTER_BOUND('',#218,.T.);
#141=CONICAL_SURFACE('',#219,9.386854015,1.0471975511966);
#142=POINT_STYLE(' ',#220,POSITIVE_LENGTH_MEASURE(1.0E-006),#221);
#143=CARTESIAN_POINT('',(0.0,10.0,-119.292000001015));
#144=POINT_STYLE(' ',#222,POSITIVE_LENGTH_MEASURE(1.0E-006),#223);
#145=CARTESIAN_POINT('',(0.0,9.0,0.0));
#146=POINT_STYLE(' ',#224,POSITIVE_LENGTH_MEASURE(1.0E-006),#225);
#147=CARTESIAN_POINT('',(1.22460635382238E-015,-10.0,-1.0));
#148=SURFACE_STYLE_USAGE(.BOTH.,#226);
#149=FACE_OUTER_BOUND('',#227,.T.);
#150=CYLINDRICAL_SURFACE('',#228,10.0);
#151=CURVE_STYLE('',#229,POSITIVE_LENGTH_MEASURE(1.0E-006),#230);
#152=CIRCLE('',#231,9.0);
#153=CURVE_STYLE('',#232,POSITIVE_LENGTH_MEASURE(1.0E-006),#233);
#154=CIRCLE('',#234,10.0);
#155=SURFACE_STYLE_USAGE(.BOTH.,#235);
#156=FACE_OUTER_BOUND('',#236,.T.);
#157=CONICAL_SURFACE('',#237,9.5,0.785398163397448);
#158=SURFACE_STYLE_USAGE(.BOTH.,#238);
#159=FACE_OUTER_BOUND('',#239,.T.);
#160=CONICAL_SURFACE('',#240,9.386854015,1.0471975511966);
#161=SURFACE_STYLE_USAGE(.BOTH.,#241);
#162=FACE_OUTER_BOUND('',#242,.T.);
#163=CONICAL_SURFACE('',#243,9.5,0.785398163397448);
#164=SURFACE_STYLE_USAGE(.BOTH.,#244);
#165=FACE_OUTER_BOUND('',#245,.T.);
#166=PLANE('',#246);
#167=CURVE_STYLE('',#247,POSITIVE_LENGTH_MEASURE(1.0E-006),#248);
#168=CIRCLE('',#249,10.0);
#169=SURFACE_STYLE_USAGE(.BOTH.,#250);
#170=CLOSED_SHELL('',(#69,#75,#61,#77,#59,#79,#97,#81));
#171=POINT_STYLE(' ',#251,POSITIVE_LENGTH_MEASURE(1.0E-006),#252);
#172=CARTESIAN_POINT('',(1.07443386001204E-015,-8.77370803,-120.0));
#173=CURVE_STYLE('',#253,POSITIVE_LENGTH_MEASURE(1.0E-006),#254);
#174=LINE('',#255,#256);
#175=CURVE_STYLE('',#257,POSITIVE_LENGTH_MEASURE(1.0E-006),#258);
#176=CIRCLE('',#259,10.0);
#177=POINT_STYLE(' ',#260,POSITIVE_LENGTH_MEASURE(1.0E-006),#261);
#178=CARTESIAN_POINT('',(1.22460635382238E-015,-10.0,-119.292000001015));
#179=CURVE_STYLE('',#262,POSITIVE_LENGTH_MEASURE(1.0E-006),#263);
#180=LINE('',#264,#265);
#181=SURFACE_STYLE_USAGE(.BOTH.,#266);
#182=FACE_OUTER_BOUND('',#267,.T.);
#183=CYLINDRICAL_SURFACE('',#268,10.0);
#184=POINT_STYLE(' ',#269,POSITIVE_LENGTH_MEASURE(1.0E-006),#270);
#185=CARTESIAN_POINT('',(0.0,10.0,-1.0));
#186=CURVE_STYLE('',#271,POSITIVE_LENGTH_MEASURE(1.0E-006),#272);
#187=LINE('',#273,#274);
#188=CURVE_STYLE('',#275,POSITIVE_LENGTH_MEASURE(1.0E-006),#276);
#189=LINE('',#277,#278);
#190=POINT_STYLE(' ',#279,POSITIVE_LENGTH_MEASURE(1.0E-006),#280);
#191=CARTESIAN_POINT('',(0.0,8.77370803,-120.0));
#192=CURVE_STYLE('',#281,POSITIVE_LENGTH_MEASURE(1.0E-006),#282);
#193=CIRCLE('',#283,8.77370803);
#194=CURVE_STYLE('',#284,POSITIVE_LENGTH_MEASURE(1.0E-006),#285);
#195=LINE('',#286,#287);
#196=CURVE_STYLE('',#288,POSITIVE_LENGTH_MEASURE(1.0E-006),#289);
#197=LINE('',#290,#291);
#198=CURVE_STYLE('',#292,POSITIVE_LENGTH_MEASURE(1.0E-006),#293);
#199=CIRCLE('',#294,8.77370803);
#200=POINT_STYLE(' ',#295,POSITIVE_LENGTH_MEASURE(1.0E-006),#296);
#201=CARTESIAN_POINT('',(1.10214571844014E-015,-9.0,0.0));
#202=PRODUCT_CONTEXT('',#41,'mechanical');
#203=PRODUCT_DEFINITION_FORMATION_WITH_SPECIFIED_SOURCE(' ','NONE',#116,.NOT_KNOWN.);
#204=CARTESIAN_POINT('',(0.0,0.0,0.0));
#205=DIRECTION('',(0.0,0.0,1.0));
#206=DIRECTION('',(1.0,0.0,0.0));
#207= (NAMED_UNIT(#124)LENGTH_UNIT()SI_UNIT(.MILLI.,.METRE.));
#208=DRAUGHTING_PRE_DEFINED_CURVE_FONT('continuous');
#209=COLOUR_RGB('',0.800000011920929,0.800000011920929,0.800000011920929);
#210=AXIS2_PLACEMENT_3D('',#298,#299,#300);
#211=DRAUGHTING_PRE_DEFINED_CURVE_FONT('continuous');
#212=COLOUR_RGB('',0.498039215803146,0.498039215803146,0.498039215803146);
#213=AXIS2_PLACEMENT_3D('',#301,#302,#303);
#214=SURFACE_SIDE_STYLE('',(#304));
#215=EDGE_LOOP('',(#305,#306));
#216=AXIS2_PLACEMENT_3D('',#307,#308,#309);
#217=SURFACE_SIDE_STYLE('',(#310));
#218=EDGE_LOOP('',(#311,#312,#313,#314));
#219=AXIS2_PLACEMENT_3D('',#315,#316,#317);
#220=PRE_DEFINED_MARKER('');
#221=COLOUR_RGB('',0.800000011920929,0.800000011920929,0.800000011920929);
#222=PRE_DEFINED_MARKER('');
#223=COLOUR_RGB('',0.498039215803146,0.498039215803146,0.498039215803146);
#224=PRE_DEFINED_MARKER('');
#225=COLOUR_RGB('',0.498039215803146,0.498039215803146,0.498039215803146);
#226=SURFACE_SIDE_STYLE('',(#318));
#227=EDGE_LOOP('',(#319,#320,#321,#322));
#228=AXIS2_PLACEMENT_3D('',#323,#324,#325);
#229=DRAUGHTING_PRE_DEFINED_CURVE_FONT('continuous');
#230=COLOUR_RGB('',0.498039215803146,0.498039215803146,0.498039215803146);
#231=AXIS2_PLACEMENT_3D('',#326,#327,#328);
#232=DRAUGHTING_PRE_DEFINED_CURVE_FONT('continuous');
#233=COLOUR_RGB('',0.498039215803146,0.498039215803146,0.498039215803146);
#234=AXIS2_PLACEMENT_3D('',#329,#330,#331);
#235=SURFACE_SIDE_STYLE('',(#332));
#236=EDGE_LOOP('',(#333,#334,#335,#336));
#237=AXIS2_PLACEMENT_3D('',#337,#338,#339);
#238=SURFACE_SIDE_STYLE('',(#340));
#239=EDGE_LOOP('',(#341,#342,#343,#344));
#240=AXIS2_PLACEMENT_3D('',#345,#346,#347);
#241=SURFACE_SIDE_STYLE('',(#348));
#242=EDGE_LOOP('',(#349,#350,#351,#352));
#243=AXIS2_PLACEMENT_3D('',#353,#354,#355);
#244=SURFACE_SIDE_STYLE('',(#356));
#245=EDGE_LOOP('',(#357,#358));
#246=AXIS2_PLACEMENT_3D('',#359,#360,#361);
#247=DRAUGHTING_PRE_DEFINED_CURVE_FONT('continuous');
#248=COLOUR_RGB('',0.498039215803146,0.498039215803146,0.498039215803146);
#249=AXIS2_PLACEMENT_3D('',#362,#363,#364);
#250=SURFACE_SIDE_STYLE('',(#365));
#251=PRE_DEFINED_MARKER('');
#252=COLOUR_RGB('',0.498039215803146,0.498039215803146,0.498039215803146);
#253=DRAUGHTING_PRE_DEFINED_CURVE_FONT('continuous');
#254=COLOUR_RGB('',0.498039215803146,0.498039215803146,0.498039215803146);
#255=CARTESIAN_POINT('',(-1.16337603613126E-015,9.5,-0.5));
#256=VECTOR('',#366,1.0);
#257=DRAUGHTING_PRE_DEFINED_CURVE_FONT('continuous');
#258=COLOUR_RGB('',0.800000011920929,0.800000011920929,0.800000011920929);
#259=AXIS2_PLACEMENT_3D('',#367,#368,#369);
#260=PRE_DEFINED_MARKER('');
#261=COLOUR_RGB('',0.800000011920929,0.800000011920929,0.800000011920929);
#262=DRAUGHTING_PRE_DEFINED_CURVE_FONT('continuous');
#263=COLOUR_RGB('',0.800000011920929,0.800000011920929,0.800000011920929);
#264=CARTESIAN_POINT('',(1.14952010691721E-015,-9.386854015,-119.646000000508));
#265=VECTOR('',#370,1.0);
#266=SURFACE_SIDE_STYLE('',(#371));
#267=EDGE_LOOP('',(#372,#373,#374,#375));
#268=AXIS2_PLACEMENT_3D('',#376,#377,#378);
#269=PRE_DEFINED_MARKER('');
#270=COLOUR_RGB('',0.498039215803146,0.498039215803146,0.498039215803146);
#271=DRAUGHTING_PRE_DEFINED_CURVE_FONT('continuous');
#272=COLOUR_RGB('',0.498039215803146,0.498039215803146,0.498039215803146);
#273=CARTESIAN_POINT('',(-1.22460635382238E-015,10.0,-28.0));
#274=VECTOR('',#379,1.0);
#275=DRAUGHTING_PRE_DEFINED_CURVE_FONT('continuous');
#276=COLOUR_RGB('',0.498039215803146,0.498039215803146,0.498039215803146);
#277=CARTESIAN_POINT('',(1.22460635382238E-015,-10.0,-28.0));
#278=VECTOR('',#380,1.0);
#279=PRE_DEFINED_MARKER('');
#280=COLOUR_RGB('',0.498039215803146,0.498039215803146,0.498039215803146);
#281=DRAUGHTING_PRE_DEFINED_CURVE_FONT('continuous');
#282=COLOUR_RGB('',0.498039215803146,0.498039215803146,0.498039215803146);
#283=AXIS2_PLACEMENT_3D('',#381,#382,#383);
#284=DRAUGHTING_PRE_DEFINED_CURVE_FONT('continuous');
#285=COLOUR_RGB('',0.498039215803146,0.498039215803146,0.498039215803146);
#286=CARTESIAN_POINT('',(1.16337603613126E-015,-9.5,-0.5));
#287=VECTOR('',#384,1.0);
#288=DRAUGHTING_PRE_DEFINED_CURVE_FONT('continuous');
#289=COLOUR_RGB('',0.800000011920929,0.800000011920929,0.800000011920929);
#290=CARTESIAN_POINT('',(-1.14952010691721E-015,9.386854015,-119.646000000508));
#291=VECTOR('',#385,1.0);
#292=DRAUGHTING_PRE_DEFINED_CURVE_FONT('continuous');
#293=COLOUR_RGB('',0.498039215803146,0.498039215803146,0.498039215803146);
#294=AXIS2_PLACEMENT_3D('',#386,#387,#388);
#295=PRE_DEFINED_MARKER('');
#296=COLOUR_RGB('',0.498039215803146,0.498039215803146,0.498039215803146);
#298=CARTESIAN_POINT('',(0.0,0.0,-119.292000001015));
#299=DIRECTION('',(0.0,0.0,-1.0));
#300=DIRECTION('',(0.0,1.0,0.0));
#301=CARTESIAN_POINT('',(0.0,0.0,0.0));
#302=DIRECTION('',(0.0,0.0,-1.0));
#303=DIRECTION('',(0.0,1.0,0.0));
#304=SURFACE_STYLE_FILL_AREA(#389);
#305=ORIENTED_EDGE('',*,*,#57,.F.);
#306=ORIENTED_EDGE('',*,*,#71,.F.);
#307=CARTESIAN_POINT('',(0.0,4.5,0.0));
#308=DIRECTION('',(-0.0,0.0,1.0));
#309=DIRECTION('',(0.0,-1.0,0.0));
#310=SURFACE_STYLE_FILL_AREA(#390);
#311=ORIENTED_EDGE('',*,*,#111,.F.);
#312=ORIENTED_EDGE('',*,*,#91,.T.);
#313=ORIENTED_EDGE('',*,*,#95,.F.);
#314=ORIENTED_EDGE('',*,*,#107,.F.);
#315=CARTESIAN_POINT('',(0.0,0.0,-119.646000000508));
#316=DIRECTION('',(-0.0,-0.0,1.0));
#317=DIRECTION('',(0.0,1.0,0.0));
#318=SURFACE_STYLE_FILL_AREA(#391);
#319=ORIENTED_EDGE('',*,*,#101,.F.);
#320=ORIENTED_EDGE('',*,*,#83,.T.);
#321=ORIENTED_EDGE('',*,*,#103,.F.);
#322=ORIENTED_EDGE('',*,*,#91,.F.);
#323=CARTESIAN_POINT('',(0.0,0.0,-28.0));
#324=DIRECTION('',(-0.0,-0.0,1.0));
#325=DIRECTION('',(0.0,1.0,0.0));
#326=CARTESIAN_POINT('',(0.0,0.0,0.0));
#327=DIRECTION('',(0.0,0.0,-1.0));
#328=DIRECTION('',(0.0,1.0,0.0));
#329=CARTESIAN_POINT('',(0.0,0.0,-1.0));
#330=DIRECTION('',(0.0,0.0,-1.0));
#331=DIRECTION('',(0.0,1.0,0.0));
#332=SURFACE_STYLE_FILL_AREA(#392);
#333=ORIENTED_EDGE('',*,*,#89,.F.);
#334=ORIENTED_EDGE('',*,*,#57,.T.);
#335=ORIENTED_EDGE('',*,*,#109,.F.);
#336=ORIENTED_EDGE('',*,*,#83,.F.);
#337=CARTESIAN_POINT('',(0.0,0.0,-0.5));
#338=DIRECTION('',(0.0,-0.0,-1.0));
#339=DIRECTION('',(0.0,1.0,0.0));
#340=SURFACE_STYLE_FILL_AREA(#393);
#341=ORIENTED_EDGE('',*,*,#111,.T.);
#342=ORIENTED_EDGE('',*,*,#113,.F.);
#343=ORIENTED_EDGE('',*,*,#95,.T.);
#344=ORIENTED_EDGE('',*,*,#55,.T.);
#345=CARTESIAN_POINT('',(0.0,0.0,-119.646000000508));
#346=DIRECTION('',(-0.0,-0.0,1.0));
#347=DIRECTION('',(0.0,1.0,0.0));
#348=SURFACE_STYLE_FILL_AREA(#394);
#349=ORIENTED_EDGE('',*,*,#89,.T.);
#350=ORIENTED_EDGE('',*,*,#73,.F.);
#351=ORIENTED_EDGE('',*,*,#109,.T.);
#352=ORIENTED_EDGE('',*,*,#71,.T.);
#353=CARTESIAN_POINT('',(0.0,0.0,-0.5));
#354=DIRECTION('',(0.0,-0.0,-1.0));
#355=DIRECTION('',(0.0,1.0,0.0));
#356=SURFACE_STYLE_FILL_AREA(#395);
#357=ORIENTED_EDGE('',*,*,#107,.T.);
#358=ORIENTED_EDGE('',*,*,#113,.T.);
#359=CARTESIAN_POINT('',(0.0,4.386854015,-120.0));
#360=DIRECTION('',(0.0,0.0,-1.0));
#361=DIRECTION('',(0.0,1.0,0.0));
#362=CARTESIAN_POINT('',(0.0,0.0,-1.0));
#363=DIRECTION('',(0.0,0.0,-1.0));
#364=DIRECTION('',(0.0,1.0,0.0));
#365=SURFACE_STYLE_FILL_AREA(#396);
#366=DIRECTION('',(-8.65927457071936E-017,0.707106781186548,-0.707106781186548));
#367=CARTESIAN_POINT('',(0.0,0.0,-119.292000001015));
#368=DIRECTION('',(0.0,0.0,-1.0));
#369=DIRECTION('',(0.0,1.0,0.0));
#370=DIRECTION('',(1.06054021204601E-016,-0.866025403784439,0.5));
#371=SURFACE_STYLE_FILL_AREA(#397);
#372=ORIENTED_EDGE('',*,*,#101,.T.);
#373=ORIENTED_EDGE('',*,*,#55,.F.);
#374=ORIENTED_EDGE('',*,*,#103,.T.);
#375=ORIENTED_EDGE('',*,*,#73,.T.);
#376=CARTESIAN_POINT('',(0.0,0.0,-28.0));
#377=DIRECTION('',(-0.0,-0.0,1.0));
#378=DIRECTION('',(0.0,1.0,0.0));
#379=DIRECTION('',(0.0,0.0,-1.0));
#380=DIRECTION('',(-0.0,-0.0,1.0));
#381=CARTESIAN_POINT('',(0.0,0.0,-120.0));
#382=DIRECTION('',(0.0,0.0,-1.0));
#383=DIRECTION('',(0.0,1.0,0.0));
#384=DIRECTION('',(-8.65927457071936E-017,0.707106781186548,0.707106781186548));
#385=DIRECTION('',(1.06054021204601E-016,-0.866025403784439,-0.5));
#386=CARTESIAN_POINT('',(0.0,0.0,-120.0));
#387=DIRECTION('',(0.0,0.0,-1.0));
#388=DIRECTION('',(0.0,1.0,0.0));
#389=FILL_AREA_STYLE('',(#398));
#390=FILL_AREA_STYLE('',(#399));
#391=FILL_AREA_STYLE('',(#400));
#392=FILL_AREA_STYLE('',(#401));
#393=FILL_AREA_STYLE('',(#402));
#394=FILL_AREA_STYLE('',(#403));
#395=FILL_AREA_STYLE('',(#404));
#396=FILL_AREA_STYLE('',(#405));
#397=FILL_AREA_STYLE('',(#406));
#398=FILL_AREA_STYLE_COLOUR('',#407);
#399=FILL_AREA_STYLE_COLOUR('',#408);
#400=FILL_AREA_STYLE_COLOUR('',#409);
#401=FILL_AREA_STYLE_COLOUR('',#410);
#402=FILL_AREA_STYLE_COLOUR('',#411);
#403=FILL_AREA_STYLE_COLOUR('',#412);
#404=FILL_AREA_STYLE_COLOUR('',#413);
#405=FILL_AREA_STYLE_COLOUR('',#414);
#406=FILL_AREA_STYLE_COLOUR('',#415);
#407=COLOUR_RGB('',0.498039215803146,0.498039215803146,0.498039215803146);
#408=COLOUR_RGB('',0.800000011920929,0.800000011920929,0.800000011920929);
#409=COLOUR_RGB('',0.498039215803146,0.498039215803146,0.498039215803146);
#410=COLOUR_RGB('',0.498039215803146,0.498039215803146,0.498039215803146);
#411=COLOUR_RGB('',0.800000011920929,0.800000011920929,0.800000011920929);
#412=COLOUR_RGB('',0.498039215803146,0.498039215803146,0.498039215803146);
#413=COLOUR_RGB('',0.498039215803146,0.498039215803146,0.498039215803146);
#414=COLOUR_RGB('',0.498039215803146,0.498039215803146,0.498039215803146);
#415=COLOUR_RGB('',0.498039215803146,0.498039215803146,0.498039215803146);
#416=AXIS2_PLACEMENT_3D('PCS',#417,#418,#419);
#417=CARTESIAN_POINT('',(0.0,0.0,0.0));
#418=DIRECTION('',(0.0,0.0,1.0));
#419=DIRECTION('',(1.0,0.0,0.0));
#420=AXIS2_PLACEMENT_3D('CIP',#421,#422,#423);
#421=CARTESIAN_POINT('',(0.0,0.0,-120.0));
#422=DIRECTION('',(0.0,0.0,1.0));
#423=DIRECTION('',(1.0,0.0,0.0));
#424=AXIS2_PLACEMENT_3D('CRP',#425,#426,#427);
#425=CARTESIAN_POINT('',(-10.0,0.0,-120.0));
#426=DIRECTION('',(0.0,0.0,1.0));
#427=DIRECTION('',(1.0,0.0,0.0));
#428=AXIS2_PLACEMENT_3D('MCS',#429,#430,#431);
#429=CARTESIAN_POINT('',(0.0,0.0,-55.0));
#430=DIRECTION('',(0.0,0.0,1.0));
#431=DIRECTION('',(1.0,0.0,0.0));
#432=CONSTRUCTIVE_GEOMETRY_REPRESENTATION_RELATIONSHIP('coordinate systems',$,#45,#433);
#433=CONSTRUCTIVE_GEOMETRY_REPRESENTATION('coordinate systems',(#416,#420,#424,#428),#6);
ENDSEC;
END-ISO-10303-21;
