ISO-10303-21;
HEADER;
FILE_DESCRIPTION(('no description'),'unknown implementation level');
FILE_NAME('solid_WnfO0OIHdR78Vi7rvlDsuuk7FE_1.STP','  ',('CIMSOURCE GmbH'),('CADClick - KiM GmbH - www.kimweb.de'),'unknown preprocess','ACIS','unknown authorization');
FILE_SCHEMA(('automotive_design'));
ENDSEC;
DATA;
#1=MECHANICAL_DESIGN_GEOMETRIC_PRESENTATION_REPRESENTATION(' ',(#10,#11,#12,#13,#14,#15,#16,#17,#18,#19,#20,#21,#22,#23,#24,#25,#26,#27,#28,#29,#30,#31,#32,#33,#34,#35,#36,#37,#38,#39,#40),#6);
#2=PRODUCT_DEFINITION_CONTEXT('',#41,'design');
#3=APPLICATION_PROTOCOL_DEFINITION('INTERNATIONAL STANDARD','automotive_design',1994,#41);
#4=PRODUCT_CATEGORY_RELATIONSHIP('NONE','NONE',#42,#43);
#5=SHAPE_DEFINITION_REPRESENTATION(#44,#45);
#6= (GEOMETRIC_REPRESENTATION_CONTEXT(3)GLOBAL_UNCERTAINTY_ASSIGNED_CONTEXT((#48))GLOBAL_UNIT_ASSIGNED_CONTEXT((#50,#51,#52))REPRESENTATION_CONTEXT('NONE','WORKSPACE'));
#10=STYLED_ITEM('',(#54),#55);
#11=STYLED_ITEM('',(#56),#57);
#12=STYLED_ITEM('',(#58),#59);
#13=STYLED_ITEM('',(#60),#61);
#14=STYLED_ITEM('',(#62),#63);
#15=STYLED_ITEM('',(#64),#65);
#16=STYLED_ITEM('',(#66),#67);
#17=STYLED_ITEM('',(#68),#69);
#18=STYLED_ITEM('',(#70),#71);
#19=STYLED_ITEM('',(#72),#73);
#20=STYLED_ITEM('',(#74),#75);
#21=STYLED_ITEM('',(#76),#77);
#22=STYLED_ITEM('',(#78),#79);
#23=STYLED_ITEM('',(#80),#81);
#24=STYLED_ITEM('',(#82),#83);
#25=STYLED_ITEM('',(#84),#85);
#26=STYLED_ITEM('',(#86),#87);
#27=STYLED_ITEM('',(#88),#89);
#28=STYLED_ITEM('',(#90),#91);
#29=STYLED_ITEM('',(#92),#93);
#30=STYLED_ITEM('',(#94),#95);
#31=STYLED_ITEM('',(#96),#97);
#32=STYLED_ITEM('',(#98),#99);
#33=STYLED_ITEM('',(#100),#101);
#34=STYLED_ITEM('',(#102),#103);
#35=STYLED_ITEM('',(#104),#105);
#36=STYLED_ITEM('',(#106),#107);
#37=STYLED_ITEM('',(#108),#109);
#38=STYLED_ITEM('',(#110),#111);
#39=STYLED_ITEM('',(#112),#113);
#40=STYLED_ITEM('',(#114),#115);
#41=APPLICATION_CONTEXT(' ');
#42=PRODUCT_CATEGORY('part','NONE');
#43=PRODUCT_RELATED_PRODUCT_CATEGORY('detail',' ',(#116));
#44=PRODUCT_DEFINITION_SHAPE('NONE','NONE',#117);
#45=ADVANCED_BREP_SHAPE_REPRESENTATION('1',(#55,#118),#6);
#48=UNCERTAINTY_MEASURE_WITH_UNIT(LENGTH_MEASURE(1.0E-006),#50,'','');
#50= (CONVERSION_BASED_UNIT('MILLIMETRE',#121)LENGTH_UNIT()NAMED_UNIT(#124));
#51= (NAMED_UNIT(#126)PLANE_ANGLE_UNIT()SI_UNIT($,.RADIAN.));
#52= (NAMED_UNIT(#126)SOLID_ANGLE_UNIT()SI_UNIT($,.STERADIAN.));
#54=PRESENTATION_STYLE_ASSIGNMENT((#132));
#55=MANIFOLD_SOLID_BREP('1',#133);
#56=PRESENTATION_STYLE_ASSIGNMENT((#134));
#57=ADVANCED_FACE('',(#135),#136,.T.);
#58=PRESENTATION_STYLE_ASSIGNMENT((#137));
#59=ADVANCED_FACE('',(#138),#139,.T.);
#60=PRESENTATION_STYLE_ASSIGNMENT((#140));
#61=EDGE_CURVE('',#111,#95,#141,.T.);
#62=PRESENTATION_STYLE_ASSIGNMENT((#142));
#63=EDGE_CURVE('',#93,#81,#143,.T.);
#64=PRESENTATION_STYLE_ASSIGNMENT((#144));
#65=EDGE_CURVE('',#107,#81,#145,.T.);
#66=PRESENTATION_STYLE_ASSIGNMENT((#146));
#67=ADVANCED_FACE('',(#147),#148,.T.);
#68=PRESENTATION_STYLE_ASSIGNMENT((#149));
#69=EDGE_CURVE('',#95,#103,#150,.T.);
#70=PRESENTATION_STYLE_ASSIGNMENT((#151));
#71=EDGE_CURVE('',#113,#91,#152,.T.);
#72=PRESENTATION_STYLE_ASSIGNMENT((#153));
#73=EDGE_CURVE('',#91,#113,#154,.T.);
#74=PRESENTATION_STYLE_ASSIGNMENT((#155));
#75=EDGE_CURVE('',#103,#95,#156,.T.);
#76=PRESENTATION_STYLE_ASSIGNMENT((#157));
#77=EDGE_CURVE('',#103,#93,#158,.T.);
#78=PRESENTATION_STYLE_ASSIGNMENT((#159));
#79=ADVANCED_FACE('',(#160),#161,.T.);
#80=PRESENTATION_STYLE_ASSIGNMENT((#162));
#81=VERTEX_POINT('',#163);
#82=PRESENTATION_STYLE_ASSIGNMENT((#164));
#83=ADVANCED_FACE('',(#165),#166,.T.);
#84=PRESENTATION_STYLE_ASSIGNMENT((#167));
#85=ADVANCED_FACE('',(#168),#169,.T.);
#86=PRESENTATION_STYLE_ASSIGNMENT((#170));
#87=EDGE_CURVE('',#111,#93,#171,.T.);
#88=PRESENTATION_STYLE_ASSIGNMENT((#172));
#89=EDGE_CURVE('',#93,#111,#173,.T.);
#90=PRESENTATION_STYLE_ASSIGNMENT((#174));
#91=VERTEX_POINT('',#175);
#92=PRESENTATION_STYLE_ASSIGNMENT((#176));
#93=VERTEX_POINT('',#177);
#94=PRESENTATION_STYLE_ASSIGNMENT((#178));
#95=VERTEX_POINT('',#179);
#96=PRESENTATION_STYLE_ASSIGNMENT((#180));
#97=ADVANCED_FACE('',(#181),#182,.T.);
#98=PRESENTATION_STYLE_ASSIGNMENT((#183));
#99=ADVANCED_FACE('',(#184),#185,.T.);
#100=PRESENTATION_STYLE_ASSIGNMENT((#186));
#101=EDGE_CURVE('',#91,#103,#187,.T.);
#102=PRESENTATION_STYLE_ASSIGNMENT((#188));
#103=VERTEX_POINT('',#189);
#104=PRESENTATION_STYLE_ASSIGNMENT((#190));
#105=EDGE_CURVE('',#81,#107,#191,.T.);
#106=PRESENTATION_STYLE_ASSIGNMENT((#192));
#107=VERTEX_POINT('',#193);
#108=PRESENTATION_STYLE_ASSIGNMENT((#194));
#109=EDGE_CURVE('',#107,#111,#195,.T.);
#110=PRESENTATION_STYLE_ASSIGNMENT((#196));
#111=VERTEX_POINT('',#197);
#112=PRESENTATION_STYLE_ASSIGNMENT((#198));
#113=VERTEX_POINT('',#199);
#114=PRESENTATION_STYLE_ASSIGNMENT((#200));
#115=EDGE_CURVE('',#95,#113,#201,.T.);
#116=PRODUCT('1','1','PART-1-DESC',(#202));
#117=PRODUCT_DEFINITION('NONE','NONE',#203,#2);
#118=AXIS2_PLACEMENT_3D('',#204,#205,#206);
#121=LENGTH_MEASURE_WITH_UNIT(LENGTH_MEASURE(1.0),#207);
#124=DIMENSIONAL_EXPONENTS(1.0,0.0,0.0,0.0,0.0,0.0,0.0);
#126=DIMENSIONAL_EXPONENTS(0.0,0.0,0.0,0.0,0.0,0.0,0.0);
#132=SURFACE_STYLE_USAGE(.BOTH.,#208);
#133=CLOSED_SHELL('',(#67,#83,#57,#59,#99,#97,#85,#79));
#134=SURFACE_STYLE_USAGE(.BOTH.,#209);
#135=FACE_OUTER_BOUND('',#210,.T.);
#136=CONICAL_SURFACE('',#211,9.08028102,1.0471975511966);
#137=SURFACE_STYLE_USAGE(.BOTH.,#212);
#138=FACE_OUTER_BOUND('',#213,.T.);
#139=CONICAL_SURFACE('',#214,9.08028102,1.0471975511966);
#140=CURVE_STYLE('',#215,POSITIVE_LENGTH_MEASURE(1.0E-006),#216);
#141=LINE('',#217,#218);
#142=CURVE_STYLE('',#219,POSITIVE_LENGTH_MEASURE(1.0E-006),#220);
#143=LINE('',#221,#222);
#144=CURVE_STYLE('',#223,POSITIVE_LENGTH_MEASURE(1.0E-006),#224);
#145=CIRCLE('',#225,8.16056204);
#146=SURFACE_STYLE_USAGE(.BOTH.,#226);
#147=FACE_OUTER_BOUND('',#227,.T.);
#148=CYLINDRICAL_SURFACE('',#228,10.0);
#149=CURVE_STYLE('',#229,POSITIVE_LENGTH_MEASURE(1.0E-006),#230);
#150=CIRCLE('',#231,10.0);
#151=CURVE_STYLE('',#232,POSITIVE_LENGTH_MEASURE(1.0E-006),#233);
#152=CIRCLE('',#234,9.0);
#153=CURVE_STYLE('',#235,POSITIVE_LENGTH_MEASURE(1.0E-006),#236);
#154=CIRCLE('',#237,9.0);
#155=CURVE_STYLE('',#238,POSITIVE_LENGTH_MEASURE(1.0E-006),#239);
#156=CIRCLE('',#240,10.0);
#157=CURVE_STYLE('',#241,POSITIVE_LENGTH_MEASURE(1.0E-006),#242);
#158=LINE('',#243,#244);
#159=SURFACE_STYLE_USAGE(.BOTH.,#245);
#160=FACE_OUTER_BOUND('',#246,.T.);
#161=PLANE('',#247);
#162=POINT_STYLE(' ',#248,POSITIVE_LENGTH_MEASURE(1.0E-006),#249);
#163=CARTESIAN_POINT('',(0.0,8.16056204,-120.0));
#164=SURFACE_STYLE_USAGE(.BOTH.,#250);
#165=FACE_OUTER_BOUND('',#251,.T.);
#166=CONICAL_SURFACE('',#252,9.5,0.785398163397448);
#167=SURFACE_STYLE_USAGE(.BOTH.,#253);
#168=FACE_OUTER_BOUND('',#254,.T.);
#169=CYLINDRICAL_SURFACE('',#255,10.0);
#170=CURVE_STYLE('',#256,POSITIVE_LENGTH_MEASURE(1.0E-006),#257);
#171=CIRCLE('',#258,10.0);
#172=CURVE_STYLE('',#259,POSITIVE_LENGTH_MEASURE(1.0E-006),#260);
#173=CIRCLE('',#261,10.0);
#174=POINT_STYLE(' ',#262,POSITIVE_LENGTH_MEASURE(1.0E-006),#263);
#175=CARTESIAN_POINT('',(0.0,9.0,0.0));
#176=POINT_STYLE(' ',#264,POSITIVE_LENGTH_MEASURE(1.0E-006),#265);
#177=CARTESIAN_POINT('',(0.0,10.0,-118.937999998636));
#178=POINT_STYLE(' ',#266,POSITIVE_LENGTH_MEASURE(1.0E-006),#267);
#179=CARTESIAN_POINT('',(1.22460635382238E-015,-10.0,-1.0));
#180=SURFACE_STYLE_USAGE(.BOTH.,#268);
#181=FACE_OUTER_BOUND('',#269,.T.);
#182=CONICAL_SURFACE('',#270,9.5,0.785398163397448);
#183=SURFACE_STYLE_USAGE(.BOTH.,#271);
#184=FACE_OUTER_BOUND('',#272,.T.);
#185=PLANE('',#273);
#186=CURVE_STYLE('',#274,POSITIVE_LENGTH_MEASURE(1.0E-006),#275);
#187=LINE('',#276,#277);
#188=POINT_STYLE(' ',#278,POSITIVE_LENGTH_MEASURE(1.0E-006),#279);
#189=CARTESIAN_POINT('',(0.0,10.0,-1.0));
#190=CURVE_STYLE('',#280,POSITIVE_LENGTH_MEASURE(1.0E-006),#281);
#191=CIRCLE('',#282,8.16056204);
#192=POINT_STYLE(' ',#283,POSITIVE_LENGTH_MEASURE(1.0E-006),#284);
#193=CARTESIAN_POINT('',(9.9934761249457E-016,-8.16056204,-120.0));
#194=CURVE_STYLE('',#285,POSITIVE_LENGTH_MEASURE(1.0E-006),#286);
#195=LINE('',#287,#288);
#196=POINT_STYLE(' ',#289,POSITIVE_LENGTH_MEASURE(1.0E-006),#290);
#197=CARTESIAN_POINT('',(1.22460635382238E-015,-10.0,-118.937999998636));
#198=POINT_STYLE(' ',#291,POSITIVE_LENGTH_MEASURE(1.0E-006),#292);
#199=CARTESIAN_POINT('',(1.10214571844014E-015,-9.0,0.0));
#200=CURVE_STYLE('',#293,POSITIVE_LENGTH_MEASURE(1.0E-006),#294);
#201=LINE('',#295,#296);
#202=PRODUCT_CONTEXT('',#41,'mechanical');
#203=PRODUCT_DEFINITION_FORMATION_WITH_SPECIFIED_SOURCE(' ','NONE',#116,.NOT_KNOWN.);
#204=CARTESIAN_POINT('',(0.0,0.0,0.0));
#205=DIRECTION('',(0.0,0.0,1.0));
#206=DIRECTION('',(1.0,0.0,0.0));
#207= (NAMED_UNIT(#124)LENGTH_UNIT()SI_UNIT(.MILLI.,.METRE.));
#208=SURFACE_SIDE_STYLE('',(#298));
#209=SURFACE_SIDE_STYLE('',(#299));
#210=EDGE_LOOP('',(#300,#301,#302,#303));
#211=AXIS2_PLACEMENT_3D('',#304,#305,#306);
#212=SURFACE_SIDE_STYLE('',(#307));
#213=EDGE_LOOP('',(#308,#309,#310,#311));
#214=AXIS2_PLACEMENT_3D('',#312,#313,#314);
#215=DRAUGHTING_PRE_DEFINED_CURVE_FONT('continuous');
#216=COLOUR_RGB('',0.498039215803146,0.498039215803146,0.498039215803146);
#217=CARTESIAN_POINT('',(1.22460635382238E-015,-10.0,-27.5));
#218=VECTOR('',#315,1.0);
#219=DRAUGHTING_PRE_DEFINED_CURVE_FONT('continuous');
#220=COLOUR_RGB('',0.800000011920929,0.800000011920929,0.800000011920929);
#221=CARTESIAN_POINT('',(-1.11197698315847E-015,9.08028102,-119.468999999318));
#222=VECTOR('',#316,1.0);
#223=DRAUGHTING_PRE_DEFINED_CURVE_FONT('continuous');
#224=COLOUR_RGB('',0.498039215803146,0.498039215803146,0.498039215803146);
#225=AXIS2_PLACEMENT_3D('',#317,#318,#319);
#226=SURFACE_SIDE_STYLE('',(#320));
#227=EDGE_LOOP('',(#321,#322,#323,#324));
#228=AXIS2_PLACEMENT_3D('',#325,#326,#327);
#229=DRAUGHTING_PRE_DEFINED_CURVE_FONT('continuous');
#230=COLOUR_RGB('',0.498039215803146,0.498039215803146,0.498039215803146);
#231=AXIS2_PLACEMENT_3D('',#328,#329,#330);
#232=DRAUGHTING_PRE_DEFINED_CURVE_FONT('continuous');
#233=COLOUR_RGB('',0.498039215803146,0.498039215803146,0.498039215803146);
#234=AXIS2_PLACEMENT_3D('',#331,#332,#333);
#235=DRAUGHTING_PRE_DEFINED_CURVE_FONT('continuous');
#236=COLOUR_RGB('',0.498039215803146,0.498039215803146,0.498039215803146);
#237=AXIS2_PLACEMENT_3D('',#334,#335,#336);
#238=DRAUGHTING_PRE_DEFINED_CURVE_FONT('continuous');
#239=COLOUR_RGB('',0.498039215803146,0.498039215803146,0.498039215803146);
#240=AXIS2_PLACEMENT_3D('',#337,#338,#339);
#241=DRAUGHTING_PRE_DEFINED_CURVE_FONT('continuous');
#242=COLOUR_RGB('',0.498039215803146,0.498039215803146,0.498039215803146);
#243=CARTESIAN_POINT('',(-1.22460635382238E-015,10.0,-27.5));
#244=VECTOR('',#340,1.0);
#245=SURFACE_SIDE_STYLE('',(#341));
#246=EDGE_LOOP('',(#342,#343));
#247=AXIS2_PLACEMENT_3D('',#344,#345,#346);
#248=PRE_DEFINED_MARKER('');
#249=COLOUR_RGB('',0.498039215803146,0.498039215803146,0.498039215803146);
#250=SURFACE_SIDE_STYLE('',(#347));
#251=EDGE_LOOP('',(#348,#349,#350,#351));
#252=AXIS2_PLACEMENT_3D('',#352,#353,#354);
#253=SURFACE_SIDE_STYLE('',(#355));
#254=EDGE_LOOP('',(#356,#357,#358,#359));
#255=AXIS2_PLACEMENT_3D('',#360,#361,#362);
#256=DRAUGHTING_PRE_DEFINED_CURVE_FONT('continuous');
#257=COLOUR_RGB('',0.800000011920929,0.800000011920929,0.800000011920929);
#258=AXIS2_PLACEMENT_3D('',#363,#364,#365);
#259=DRAUGHTING_PRE_DEFINED_CURVE_FONT('continuous');
#260=COLOUR_RGB('',0.800000011920929,0.800000011920929,0.800000011920929);
#261=AXIS2_PLACEMENT_3D('',#366,#367,#368);
#262=PRE_DEFINED_MARKER('');
#263=COLOUR_RGB('',0.498039215803146,0.498039215803146,0.498039215803146);
#264=PRE_DEFINED_MARKER('');
#265=COLOUR_RGB('',0.800000011920929,0.800000011920929,0.800000011920929);
#266=PRE_DEFINED_MARKER('');
#267=COLOUR_RGB('',0.498039215803146,0.498039215803146,0.498039215803146);
#268=SURFACE_SIDE_STYLE('',(#369));
#269=EDGE_LOOP('',(#370,#371,#372,#373));
#270=AXIS2_PLACEMENT_3D('',#374,#375,#376);
#271=SURFACE_SIDE_STYLE('',(#377));
#272=EDGE_LOOP('',(#378,#379));
#273=AXIS2_PLACEMENT_3D('',#380,#381,#382);
#274=DRAUGHTING_PRE_DEFINED_CURVE_FONT('continuous');
#275=COLOUR_RGB('',0.498039215803146,0.498039215803146,0.498039215803146);
#276=CARTESIAN_POINT('',(-1.16337603613126E-015,9.5,-0.5));
#277=VECTOR('',#383,1.0);
#278=PRE_DEFINED_MARKER('');
#279=COLOUR_RGB('',0.498039215803146,0.498039215803146,0.498039215803146);
#280=DRAUGHTING_PRE_DEFINED_CURVE_FONT('continuous');
#281=COLOUR_RGB('',0.498039215803146,0.498039215803146,0.498039215803146);
#282=AXIS2_PLACEMENT_3D('',#384,#385,#386);
#283=PRE_DEFINED_MARKER('');
#284=COLOUR_RGB('',0.498039215803146,0.498039215803146,0.498039215803146);
#285=DRAUGHTING_PRE_DEFINED_CURVE_FONT('continuous');
#286=COLOUR_RGB('',0.800000011920929,0.800000011920929,0.800000011920929);
#287=CARTESIAN_POINT('',(1.11197698315847E-015,-9.08028102,-119.468999999318));
#288=VECTOR('',#387,1.0);
#289=PRE_DEFINED_MARKER('');
#290=COLOUR_RGB('',0.800000011920929,0.800000011920929,0.800000011920929);
#291=PRE_DEFINED_MARKER('');
#292=COLOUR_RGB('',0.498039215803146,0.498039215803146,0.498039215803146);
#293=DRAUGHTING_PRE_DEFINED_CURVE_FONT('continuous');
#294=COLOUR_RGB('',0.498039215803146,0.498039215803146,0.498039215803146);
#295=CARTESIAN_POINT('',(1.16337603613126E-015,-9.5,-0.5));
#296=VECTOR('',#388,1.0);
#298=SURFACE_STYLE_FILL_AREA(#389);
#299=SURFACE_STYLE_FILL_AREA(#390);
#300=ORIENTED_EDGE('',*,*,#63,.F.);
#301=ORIENTED_EDGE('',*,*,#89,.T.);
#302=ORIENTED_EDGE('',*,*,#109,.F.);
#303=ORIENTED_EDGE('',*,*,#105,.F.);
#304=CARTESIAN_POINT('',(0.0,0.0,-119.468999999318));
#305=DIRECTION('',(-0.0,-0.0,1.0));
#306=DIRECTION('',(0.0,1.0,0.0));
#307=SURFACE_STYLE_FILL_AREA(#391);
#308=ORIENTED_EDGE('',*,*,#63,.T.);
#309=ORIENTED_EDGE('',*,*,#65,.F.);
#310=ORIENTED_EDGE('',*,*,#109,.T.);
#311=ORIENTED_EDGE('',*,*,#87,.T.);
#312=CARTESIAN_POINT('',(0.0,0.0,-119.468999999318));
#313=DIRECTION('',(-0.0,-0.0,1.0));
#314=DIRECTION('',(0.0,1.0,0.0));
#315=DIRECTION('',(-0.0,-0.0,1.0));
#316=DIRECTION('',(1.06054021204601E-016,-0.866025403784439,-0.5));
#317=CARTESIAN_POINT('',(0.0,0.0,-120.0));
#318=DIRECTION('',(0.0,0.0,-1.0));
#319=DIRECTION('',(0.0,1.0,0.0));
#320=SURFACE_STYLE_FILL_AREA(#392);
#321=ORIENTED_EDGE('',*,*,#77,.F.);
#322=ORIENTED_EDGE('',*,*,#75,.T.);
#323=ORIENTED_EDGE('',*,*,#61,.F.);
#324=ORIENTED_EDGE('',*,*,#89,.F.);
#325=CARTESIAN_POINT('',(0.0,0.0,-27.5));
#326=DIRECTION('',(-0.0,-0.0,1.0));
#327=DIRECTION('',(0.0,1.0,0.0));
#328=CARTESIAN_POINT('',(0.0,0.0,-1.0));
#329=DIRECTION('',(0.0,0.0,-1.0));
#330=DIRECTION('',(0.0,1.0,0.0));
#331=CARTESIAN_POINT('',(0.0,0.0,0.0));
#332=DIRECTION('',(0.0,0.0,-1.0));
#333=DIRECTION('',(0.0,1.0,0.0));
#334=CARTESIAN_POINT('',(0.0,0.0,0.0));
#335=DIRECTION('',(0.0,0.0,-1.0));
#336=DIRECTION('',(0.0,1.0,0.0));
#337=CARTESIAN_POINT('',(0.0,0.0,-1.0));
#338=DIRECTION('',(0.0,0.0,-1.0));
#339=DIRECTION('',(0.0,1.0,0.0));
#340=DIRECTION('',(0.0,0.0,-1.0));
#341=SURFACE_STYLE_FILL_AREA(#393);
#342=ORIENTED_EDGE('',*,*,#105,.T.);
#343=ORIENTED_EDGE('',*,*,#65,.T.);
#344=CARTESIAN_POINT('',(0.0,4.08028102,-120.0));
#345=DIRECTION('',(0.0,0.0,-1.0));
#346=DIRECTION('',(0.0,1.0,0.0));
#347=SURFACE_STYLE_FILL_AREA(#394);
#348=ORIENTED_EDGE('',*,*,#101,.F.);
#349=ORIENTED_EDGE('',*,*,#73,.T.);
#350=ORIENTED_EDGE('',*,*,#115,.F.);
#351=ORIENTED_EDGE('',*,*,#75,.F.);
#352=CARTESIAN_POINT('',(0.0,0.0,-0.5));
#353=DIRECTION('',(0.0,-0.0,-1.0));
#354=DIRECTION('',(0.0,1.0,0.0));
#355=SURFACE_STYLE_FILL_AREA(#395);
#356=ORIENTED_EDGE('',*,*,#77,.T.);
#357=ORIENTED_EDGE('',*,*,#87,.F.);
#358=ORIENTED_EDGE('',*,*,#61,.T.);
#359=ORIENTED_EDGE('',*,*,#69,.T.);
#360=CARTESIAN_POINT('',(0.0,0.0,-27.5));
#361=DIRECTION('',(-0.0,-0.0,1.0));
#362=DIRECTION('',(0.0,1.0,0.0));
#363=CARTESIAN_POINT('',(0.0,0.0,-118.937999998636));
#364=DIRECTION('',(0.0,0.0,-1.0));
#365=DIRECTION('',(0.0,1.0,0.0));
#366=CARTESIAN_POINT('',(0.0,0.0,-118.937999998636));
#367=DIRECTION('',(0.0,0.0,-1.0));
#368=DIRECTION('',(0.0,1.0,0.0));
#369=SURFACE_STYLE_FILL_AREA(#396);
#370=ORIENTED_EDGE('',*,*,#101,.T.);
#371=ORIENTED_EDGE('',*,*,#69,.F.);
#372=ORIENTED_EDGE('',*,*,#115,.T.);
#373=ORIENTED_EDGE('',*,*,#71,.T.);
#374=CARTESIAN_POINT('',(0.0,0.0,-0.5));
#375=DIRECTION('',(0.0,-0.0,-1.0));
#376=DIRECTION('',(0.0,1.0,0.0));
#377=SURFACE_STYLE_FILL_AREA(#397);
#378=ORIENTED_EDGE('',*,*,#73,.F.);
#379=ORIENTED_EDGE('',*,*,#71,.F.);
#380=CARTESIAN_POINT('',(0.0,4.5,0.0));
#381=DIRECTION('',(-0.0,0.0,1.0));
#382=DIRECTION('',(0.0,-1.0,0.0));
#383=DIRECTION('',(-8.65927457071936E-017,0.707106781186548,-0.707106781186548));
#384=CARTESIAN_POINT('',(0.0,0.0,-120.0));
#385=DIRECTION('',(0.0,0.0,-1.0));
#386=DIRECTION('',(0.0,1.0,0.0));
#387=DIRECTION('',(1.06054021204601E-016,-0.866025403784439,0.5));
#388=DIRECTION('',(-8.65927457071936E-017,0.707106781186548,0.707106781186548));
#389=FILL_AREA_STYLE('',(#398));
#390=FILL_AREA_STYLE('',(#399));
#391=FILL_AREA_STYLE('',(#400));
#392=FILL_AREA_STYLE('',(#401));
#393=FILL_AREA_STYLE('',(#402));
#394=FILL_AREA_STYLE('',(#403));
#395=FILL_AREA_STYLE('',(#404));
#396=FILL_AREA_STYLE('',(#405));
#397=FILL_AREA_STYLE('',(#406));
#398=FILL_AREA_STYLE_COLOUR('',#407);
#399=FILL_AREA_STYLE_COLOUR('',#408);
#400=FILL_AREA_STYLE_COLOUR('',#409);
#401=FILL_AREA_STYLE_COLOUR('',#410);
#402=FILL_AREA_STYLE_COLOUR('',#411);
#403=FILL_AREA_STYLE_COLOUR('',#412);
#404=FILL_AREA_STYLE_COLOUR('',#413);
#405=FILL_AREA_STYLE_COLOUR('',#414);
#406=FILL_AREA_STYLE_COLOUR('',#415);
#407=COLOUR_RGB('',0.498039215803146,0.498039215803146,0.498039215803146);
#408=COLOUR_RGB('',0.800000011920929,0.800000011920929,0.800000011920929);
#409=COLOUR_RGB('',0.800000011920929,0.800000011920929,0.800000011920929);
#410=COLOUR_RGB('',0.498039215803146,0.498039215803146,0.498039215803146);
#411=COLOUR_RGB('',0.498039215803146,0.498039215803146,0.498039215803146);
#412=COLOUR_RGB('',0.498039215803146,0.498039215803146,0.498039215803146);
#413=COLOUR_RGB('',0.498039215803146,0.498039215803146,0.498039215803146);
#414=COLOUR_RGB('',0.498039215803146,0.498039215803146,0.498039215803146);
#415=COLOUR_RGB('',0.498039215803146,0.498039215803146,0.498039215803146);
#416=AXIS2_PLACEMENT_3D('PCS',#417,#418,#419);
#417=CARTESIAN_POINT('',(0.0,0.0,0.0));
#418=DIRECTION('',(0.0,0.0,1.0));
#419=DIRECTION('',(1.0,0.0,0.0));
#420=AXIS2_PLACEMENT_3D('CIP',#421,#422,#423);
#421=CARTESIAN_POINT('',(0.0,0.0,-120.0));
#422=DIRECTION('',(0.0,0.0,1.0));
#423=DIRECTION('',(1.0,0.0,0.0));
#424=AXIS2_PLACEMENT_3D('CRP',#425,#426,#427);
#425=CARTESIAN_POINT('',(-10.0,0.0,-120.0));
#426=DIRECTION('',(0.0,0.0,1.0));
#427=DIRECTION('',(1.0,0.0,0.0));
#428=AXIS2_PLACEMENT_3D('MCS',#429,#430,#431);
#429=CARTESIAN_POINT('',(0.0,0.0,-54.0));
#430=DIRECTION('',(0.0,0.0,1.0));
#431=DIRECTION('',(1.0,0.0,0.0));
#432=CONSTRUCTIVE_GEOMETRY_REPRESENTATION_RELATIONSHIP('coordinate systems',$,#45,#433);
#433=CONSTRUCTIVE_GEOMETRY_REPRESENTATION('coordinate systems',(#416,#420,#424,#428),#6);
ENDSEC;
END-ISO-10303-21;
