ISO-10303-21;
HEADER;
FILE_DESCRIPTION(('no description'),'unknown implementation level');
FILE_NAME('solidYSYzlXooBiLtPsNbKdPWoD8WAu8_1.STP','  ',('CIMSOURCE GmbH'),('CADClick - KiM GmbH - www.kimweb.de'),'unknown preprocess','ACIS','unknown authorization');
FILE_SCHEMA(('automotive_design'));
ENDSEC;
DATA;
#1=MECHANICAL_DESIGN_GEOMETRIC_PRESENTATION_REPRESENTATION(' ',(#14,#15,#16,#17,#18,#19,#20,#21,#22,#23,#24,#25,#26,#27,#28,#29,#30,#31,#32,#33,#34,#35,#36,#37,#38,#39,#40,#41,#42,#43,#44,#45,#46,#47,#48,#49,#50,#51,#52,#53,#54,#55),#10);
#2=PRODUCT_DEFINITION_CONTEXT('',#56,'design');
#3=APPLICATION_PROTOCOL_DEFINITION('INTERNATIONAL STANDARD','automotive_design',1994,#56);
#4=PRODUCT_CATEGORY_RELATIONSHIP('NONE','NONE',#57,#58);
#5=SHAPE_DEFINITION_REPRESENTATION(#59,#60);
#6=PRODUCT_DEFINITION_CONTEXT('',#61,'design');
#7=APPLICATION_PROTOCOL_DEFINITION('INTERNATIONAL STANDARD','automotive_design',1994,#61);
#8=PRODUCT_CATEGORY_RELATIONSHIP('NONE','NONE',#62,#63);
#9=SHAPE_DEFINITION_REPRESENTATION(#64,#65);
#10= (GEOMETRIC_REPRESENTATION_CONTEXT(3)GLOBAL_UNCERTAINTY_ASSIGNED_CONTEXT((#68))GLOBAL_UNIT_ASSIGNED_CONTEXT((#70,#71,#72))REPRESENTATION_CONTEXT('NONE','WORKSPACE'));
#14=STYLED_ITEM('',(#74),#75);
#15=STYLED_ITEM('',(#76),#77);
#16=STYLED_ITEM('',(#78),#79);
#17=STYLED_ITEM('',(#80),#81);
#18=STYLED_ITEM('',(#82),#83);
#19=STYLED_ITEM('',(#84),#85);
#20=STYLED_ITEM('',(#86),#87);
#21=STYLED_ITEM('',(#88),#89);
#22=STYLED_ITEM('',(#90),#91);
#23=STYLED_ITEM('',(#92),#93);
#24=STYLED_ITEM('',(#94),#95);
#25=STYLED_ITEM('',(#96),#97);
#26=STYLED_ITEM('',(#98),#99);
#27=STYLED_ITEM('',(#100),#101);
#28=STYLED_ITEM('',(#102),#103);
#29=STYLED_ITEM('',(#104),#105);
#30=STYLED_ITEM('',(#106),#107);
#31=STYLED_ITEM('',(#108),#109);
#32=STYLED_ITEM('',(#110),#111);
#33=STYLED_ITEM('',(#112),#113);
#34=STYLED_ITEM('',(#114),#115);
#35=STYLED_ITEM('',(#116),#117);
#36=STYLED_ITEM('',(#118),#119);
#37=STYLED_ITEM('',(#120),#121);
#38=STYLED_ITEM('',(#122),#123);
#39=STYLED_ITEM('',(#124),#125);
#40=STYLED_ITEM('',(#126),#127);
#41=STYLED_ITEM('',(#128),#129);
#42=STYLED_ITEM('',(#130),#131);
#43=STYLED_ITEM('',(#132),#133);
#44=STYLED_ITEM('',(#134),#135);
#45=STYLED_ITEM('',(#136),#137);
#46=STYLED_ITEM('',(#138),#139);
#47=STYLED_ITEM('',(#140),#141);
#48=STYLED_ITEM('',(#142),#143);
#49=STYLED_ITEM('',(#144),#145);
#50=STYLED_ITEM('',(#146),#147);
#51=STYLED_ITEM('',(#148),#149);
#52=STYLED_ITEM('',(#150),#151);
#53=STYLED_ITEM('',(#152),#153);
#54=STYLED_ITEM('',(#154),#155);
#55=STYLED_ITEM('',(#156),#157);
#56=APPLICATION_CONTEXT(' ');
#57=PRODUCT_CATEGORY('part','NONE');
#58=PRODUCT_RELATED_PRODUCT_CATEGORY('detail',' ',(#158));
#59=PRODUCT_DEFINITION_SHAPE('NONE','NONE',#159);
#60=ADVANCED_BREP_SHAPE_REPRESENTATION('1',(#143,#160),#10);
#61=APPLICATION_CONTEXT(' ');
#62=PRODUCT_CATEGORY('part','NONE');
#63=PRODUCT_RELATED_PRODUCT_CATEGORY('detail',' ',(#161));
#64=PRODUCT_DEFINITION_SHAPE('NONE','NONE',#162);
#65=ADVANCED_BREP_SHAPE_REPRESENTATION('2',(#93,#163),#10);
#68=UNCERTAINTY_MEASURE_WITH_UNIT(LENGTH_MEASURE(1.0E-006),#70,'','');
#70= (CONVERSION_BASED_UNIT('MILLIMETRE',#166)LENGTH_UNIT()NAMED_UNIT(#169));
#71= (NAMED_UNIT(#171)PLANE_ANGLE_UNIT()SI_UNIT($,.RADIAN.));
#72= (NAMED_UNIT(#171)SOLID_ANGLE_UNIT()SI_UNIT($,.STERADIAN.));
#74=PRESENTATION_STYLE_ASSIGNMENT((#177));
#75=ADVANCED_FACE('',(#178),#179,.T.);
#76=PRESENTATION_STYLE_ASSIGNMENT((#180));
#77=VERTEX_POINT('',#181);
#78=PRESENTATION_STYLE_ASSIGNMENT((#182));
#79=EDGE_CURVE('',#103,#127,#183,.T.);
#80=PRESENTATION_STYLE_ASSIGNMENT((#184));
#81=EDGE_CURVE('',#111,#77,#185,.T.);
#82=PRESENTATION_STYLE_ASSIGNMENT((#186));
#83=EDGE_CURVE('',#111,#119,#187,.T.);
#84=PRESENTATION_STYLE_ASSIGNMENT((#188));
#85=VERTEX_POINT('',#189);
#86=PRESENTATION_STYLE_ASSIGNMENT((#190));
#87=ADVANCED_FACE('',(#191),#192,.T.);
#88=PRESENTATION_STYLE_ASSIGNMENT((#193));
#89=EDGE_CURVE('',#85,#121,#194,.T.);
#90=PRESENTATION_STYLE_ASSIGNMENT((#195));
#91=ADVANCED_FACE('',(#196),#197,.T.);
#92=PRESENTATION_STYLE_ASSIGNMENT((#198));
#93=MANIFOLD_SOLID_BREP('2',#199);
#94=PRESENTATION_STYLE_ASSIGNMENT((#200));
#95=EDGE_CURVE('',#141,#137,#201,.T.);
#96=PRESENTATION_STYLE_ASSIGNMENT((#202));
#97=ADVANCED_FACE('',(#203),#204,.T.);
#98=PRESENTATION_STYLE_ASSIGNMENT((#205));
#99=EDGE_CURVE('',#121,#151,#206,.T.);
#100=PRESENTATION_STYLE_ASSIGNMENT((#207));
#101=ADVANCED_FACE('',(#208),#209,.T.);
#102=PRESENTATION_STYLE_ASSIGNMENT((#210));
#103=VERTEX_POINT('',#211);
#104=PRESENTATION_STYLE_ASSIGNMENT((#212));
#105=ADVANCED_FACE('',(#213),#214,.T.);
#106=PRESENTATION_STYLE_ASSIGNMENT((#215));
#107=VERTEX_POINT('',#216);
#108=PRESENTATION_STYLE_ASSIGNMENT((#217));
#109=ADVANCED_FACE('',(#218),#219,.T.);
#110=PRESENTATION_STYLE_ASSIGNMENT((#220));
#111=VERTEX_POINT('',#221);
#112=PRESENTATION_STYLE_ASSIGNMENT((#222));
#113=EDGE_CURVE('',#107,#77,#223,.T.);
#114=PRESENTATION_STYLE_ASSIGNMENT((#224));
#115=EDGE_CURVE('',#77,#107,#225,.T.);
#116=PRESENTATION_STYLE_ASSIGNMENT((#226));
#117=ADVANCED_FACE('',(#227),#228,.T.);
#118=PRESENTATION_STYLE_ASSIGNMENT((#229));
#119=VERTEX_POINT('',#230);
#120=PRESENTATION_STYLE_ASSIGNMENT((#231));
#121=VERTEX_POINT('',#232);
#122=PRESENTATION_STYLE_ASSIGNMENT((#233));
#123=EDGE_CURVE('',#151,#85,#234,.T.);
#124=PRESENTATION_STYLE_ASSIGNMENT((#235));
#125=EDGE_CURVE('',#137,#141,#236,.T.);
#126=PRESENTATION_STYLE_ASSIGNMENT((#237));
#127=VERTEX_POINT('',#238);
#128=PRESENTATION_STYLE_ASSIGNMENT((#239));
#129=EDGE_CURVE('',#77,#127,#240,.T.);
#130=PRESENTATION_STYLE_ASSIGNMENT((#241));
#131=EDGE_CURVE('',#121,#141,#242,.T.);
#132=PRESENTATION_STYLE_ASSIGNMENT((#243));
#133=ADVANCED_FACE('',(#244),#245,.T.);
#134=PRESENTATION_STYLE_ASSIGNMENT((#246));
#135=ADVANCED_FACE('',(#247),#248,.T.);
#136=PRESENTATION_STYLE_ASSIGNMENT((#249));
#137=VERTEX_POINT('',#250);
#138=PRESENTATION_STYLE_ASSIGNMENT((#251));
#139=EDGE_CURVE('',#127,#103,#252,.T.);
#140=PRESENTATION_STYLE_ASSIGNMENT((#253));
#141=VERTEX_POINT('',#254);
#142=PRESENTATION_STYLE_ASSIGNMENT((#255));
#143=MANIFOLD_SOLID_BREP('1',#256);
#144=PRESENTATION_STYLE_ASSIGNMENT((#257));
#145=EDGE_CURVE('',#119,#111,#258,.T.);
#146=PRESENTATION_STYLE_ASSIGNMENT((#259));
#147=ADVANCED_FACE('',(#260),#261,.T.);
#148=PRESENTATION_STYLE_ASSIGNMENT((#262));
#149=EDGE_CURVE('',#137,#151,#263,.T.);
#150=PRESENTATION_STYLE_ASSIGNMENT((#264));
#151=VERTEX_POINT('',#265);
#152=PRESENTATION_STYLE_ASSIGNMENT((#266));
#153=EDGE_CURVE('',#107,#119,#267,.T.);
#154=PRESENTATION_STYLE_ASSIGNMENT((#268));
#155=EDGE_CURVE('',#103,#107,#269,.T.);
#156=PRESENTATION_STYLE_ASSIGNMENT((#270));
#157=EDGE_CURVE('',#151,#121,#271,.T.);
#158=PRODUCT('1','1','PART-1-DESC',(#272));
#159=PRODUCT_DEFINITION('NONE','NONE',#273,#2);
#160=AXIS2_PLACEMENT_3D('',#274,#275,#276);
#161=PRODUCT('2','2','PART-2-DESC',(#277));
#162=PRODUCT_DEFINITION('NONE','NONE',#278,#6);
#163=AXIS2_PLACEMENT_3D('',#279,#280,#281);
#166=LENGTH_MEASURE_WITH_UNIT(LENGTH_MEASURE(1.0),#282);
#169=DIMENSIONAL_EXPONENTS(1.0,0.0,0.0,0.0,0.0,0.0,0.0);
#171=DIMENSIONAL_EXPONENTS(0.0,0.0,0.0,0.0,0.0,0.0,0.0);
#177=SURFACE_STYLE_USAGE(.BOTH.,#283);
#178=FACE_OUTER_BOUND('',#284,.T.);
#179=CYLINDRICAL_SURFACE('',#285,4.0);
#180=POINT_STYLE(' ',#286,POSITIVE_LENGTH_MEASURE(1.0E-006),#287);
#181=CARTESIAN_POINT('',(4.89842541528951E-016,-4.0,-0.400000000000013));
#182=CURVE_STYLE('',#288,POSITIVE_LENGTH_MEASURE(1.0E-006),#289);
#183=CIRCLE('',#290,3.6);
#184=CURVE_STYLE('',#291,POSITIVE_LENGTH_MEASURE(1.0E-006),#292);
#185=LINE('',#293,#294);
#186=CURVE_STYLE('',#295,POSITIVE_LENGTH_MEASURE(1.0E-006),#296);
#187=CIRCLE('',#297,4.0);
#188=POINT_STYLE(' ',#298,POSITIVE_LENGTH_MEASURE(1.0E-006),#299);
#189=CARTESIAN_POINT('',(0.0,0.0,-175.0));
#190=SURFACE_STYLE_USAGE(.BOTH.,#300);
#191=FACE_OUTER_BOUND('',#301,.T.);
#192=CONICAL_SURFACE('',#302,3.1005,9.39216780207269E-006);
#193=CURVE_STYLE('',#303,POSITIVE_LENGTH_MEASURE(1.0E-006),#304);
#194=LINE('',#305,#306);
#195=SURFACE_STYLE_USAGE(.BOTH.,#307);
#196=FACE_OUTER_BOUND('',#308,.T.);
#197=CONICAL_SURFACE('',#309,3.1005,9.39216780207269E-006);
#198=SURFACE_STYLE_USAGE(.BOTH.,#310);
#199=CLOSED_SHELL('',(#117,#91,#109,#87,#135));
#200=CURVE_STYLE('',#311,POSITIVE_LENGTH_MEASURE(1.0E-006),#312);
#201=CIRCLE('',#313,3.101);
#202=SURFACE_STYLE_USAGE(.BOTH.,#314);
#203=FACE_OUTER_BOUND('',#315,.T.);
#204=PLANE('',#316);
#205=CURVE_STYLE('',#317,POSITIVE_LENGTH_MEASURE(1.0E-006),#318);
#206=CIRCLE('',#319,3.1);
#207=SURFACE_STYLE_USAGE(.BOTH.,#320);
#208=FACE_OUTER_BOUND('',#321,.T.);
#209=PLANE('',#322);
#210=POINT_STYLE(' ',#323,POSITIVE_LENGTH_MEASURE(1.0E-006),#324);
#211=CARTESIAN_POINT('',(0.0,3.6,-1.4210854715202E-014));
#212=SURFACE_STYLE_USAGE(.BOTH.,#325);
#213=FACE_OUTER_BOUND('',#326,.T.);
#214=CYLINDRICAL_SURFACE('',#327,4.0);
#215=POINT_STYLE(' ',#328,POSITIVE_LENGTH_MEASURE(1.0E-006),#329);
#216=CARTESIAN_POINT('',(0.0,4.0,-0.400000000000013));
#217=SURFACE_STYLE_USAGE(.BOTH.,#330);
#218=FACE_OUTER_BOUND('',#331,.T.);
#219=PLANE('',#332);
#220=POINT_STYLE(' ',#333,POSITIVE_LENGTH_MEASURE(1.0E-006),#334);
#221=CARTESIAN_POINT('',(4.89842541528951E-016,-4.0,-45.0));
#222=CURVE_STYLE('',#335,POSITIVE_LENGTH_MEASURE(1.0E-006),#336);
#223=CIRCLE('',#337,4.0);
#224=CURVE_STYLE('',#338,POSITIVE_LENGTH_MEASURE(1.0E-006),#339);
#225=CIRCLE('',#340,4.0);
#226=SURFACE_STYLE_USAGE(.BOTH.,#341);
#227=FACE_OUTER_BOUND('',#342,.T.);
#228=CONICAL_SURFACE('',#343,1.55,1.2217304753208);
#229=POINT_STYLE(' ',#344,POSITIVE_LENGTH_MEASURE(1.0E-006),#345);
#230=CARTESIAN_POINT('',(0.0,4.0,-45.0));
#231=POINT_STYLE(' ',#346,POSITIVE_LENGTH_MEASURE(1.0E-006),#347);
#232=CARTESIAN_POINT('',(3.1,3.79627969684937E-016,-173.87169227));
#233=CURVE_STYLE('',#348,POSITIVE_LENGTH_MEASURE(1.0E-006),#349);
#234=LINE('',#350,#351);
#235=CURVE_STYLE('',#352,POSITIVE_LENGTH_MEASURE(1.0E-006),#353);
#236=CIRCLE('',#354,3.101);
#237=POINT_STYLE(' ',#355,POSITIVE_LENGTH_MEASURE(1.0E-006),#356);
#238=CARTESIAN_POINT('',(4.40858287376056E-016,-3.6,-1.4210854715202E-014));
#239=CURVE_STYLE('',#357,POSITIVE_LENGTH_MEASURE(1.0E-006),#358);
#240=LINE('',#359,#360);
#241=CURVE_STYLE('',#361,POSITIVE_LENGTH_MEASURE(1.0E-006),#362);
#242=LINE('',#363,#364);
#243=SURFACE_STYLE_USAGE(.BOTH.,#365);
#244=FACE_OUTER_BOUND('',#366,.T.);
#245=CONICAL_SURFACE('',#367,3.8,0.78539816339745);
#246=SURFACE_STYLE_USAGE(.BOTH.,#368);
#247=FACE_OUTER_BOUND('',#369,.T.);
#248=CONICAL_SURFACE('',#370,1.55,1.2217304753208);
#249=POINT_STYLE(' ',#371,POSITIVE_LENGTH_MEASURE(1.0E-006),#372);
#250=CARTESIAN_POINT('',(-3.101,0.0,-67.4));
#251=CURVE_STYLE('',#373,POSITIVE_LENGTH_MEASURE(1.0E-006),#374);
#252=CIRCLE('',#375,3.6);
#253=POINT_STYLE(' ',#376,POSITIVE_LENGTH_MEASURE(1.0E-006),#377);
#254=CARTESIAN_POINT('',(3.101,3.79750430320319E-016,-67.4));
#255=SURFACE_STYLE_USAGE(.BOTH.,#378);
#256=CLOSED_SHELL('',(#75,#147,#101,#97,#133,#105));
#257=CURVE_STYLE('',#379,POSITIVE_LENGTH_MEASURE(1.0E-006),#380);
#258=CIRCLE('',#381,4.0);
#259=SURFACE_STYLE_USAGE(.BOTH.,#382);
#260=FACE_OUTER_BOUND('',#383,.T.);
#261=CONICAL_SURFACE('',#384,3.8,0.78539816339745);
#262=CURVE_STYLE('',#385,POSITIVE_LENGTH_MEASURE(1.0E-006),#386);
#263=LINE('',#387,#388);
#264=POINT_STYLE(' ',#389,POSITIVE_LENGTH_MEASURE(1.0E-006),#390);
#265=CARTESIAN_POINT('',(-3.1,0.0,-173.87169227));
#266=CURVE_STYLE('',#391,POSITIVE_LENGTH_MEASURE(1.0E-006),#392);
#267=LINE('',#393,#394);
#268=CURVE_STYLE('',#395,POSITIVE_LENGTH_MEASURE(1.0E-006),#396);
#269=LINE('',#397,#398);
#270=CURVE_STYLE('',#399,POSITIVE_LENGTH_MEASURE(1.0E-006),#400);
#271=CIRCLE('',#401,3.1);
#272=PRODUCT_CONTEXT('',#56,'mechanical');
#273=PRODUCT_DEFINITION_FORMATION_WITH_SPECIFIED_SOURCE(' ','NONE',#158,.NOT_KNOWN.);
#274=CARTESIAN_POINT('',(0.0,0.0,0.0));
#275=DIRECTION('',(0.0,0.0,1.0));
#276=DIRECTION('',(1.0,0.0,0.0));
#277=PRODUCT_CONTEXT('',#61,'mechanical');
#278=PRODUCT_DEFINITION_FORMATION_WITH_SPECIFIED_SOURCE(' ','NONE',#161,.NOT_KNOWN.);
#279=CARTESIAN_POINT('',(0.0,0.0,0.0));
#280=DIRECTION('',(0.0,0.0,1.0));
#281=DIRECTION('',(1.0,0.0,0.0));
#282= (NAMED_UNIT(#169)LENGTH_UNIT()SI_UNIT(.MILLI.,.METRE.));
#283=SURFACE_SIDE_STYLE('',(#403));
#284=EDGE_LOOP('',(#404,#405,#406,#407));
#285=AXIS2_PLACEMENT_3D('',#408,#409,#410);
#286=PRE_DEFINED_MARKER('');
#287=COLOUR_RGB('',0.498039215803146,0.498039215803146,0.498039215803146);
#288=DRAUGHTING_PRE_DEFINED_CURVE_FONT('continuous');
#289=COLOUR_RGB('',0.498039215803146,0.498039215803146,0.498039215803146);
#290=AXIS2_PLACEMENT_3D('',#411,#412,#413);
#291=DRAUGHTING_PRE_DEFINED_CURVE_FONT('continuous');
#292=COLOUR_RGB('',0.498039215803146,0.498039215803146,0.498039215803146);
#293=CARTESIAN_POINT('',(4.89842541528951E-016,-4.0,-22.7));
#294=VECTOR('',#414,1.0);
#295=DRAUGHTING_PRE_DEFINED_CURVE_FONT('continuous');
#296=COLOUR_RGB('',0.498039215803146,0.498039215803146,0.498039215803146);
#297=AXIS2_PLACEMENT_3D('',#415,#416,#417);
#298=PRE_DEFINED_MARKER('');
#299=COLOUR_RGB('',0.800000011920929,0.800000011920929,0.800000011920929);
#300=SURFACE_SIDE_STYLE('',(#418));
#301=EDGE_LOOP('',(#419,#420,#421,#422));
#302=AXIS2_PLACEMENT_3D('',#423,#424,#425);
#303=DRAUGHTING_PRE_DEFINED_CURVE_FONT('continuous');
#304=COLOUR_RGB('',0.800000011920929,0.800000011920929,0.800000011920929);
#305=CARTESIAN_POINT('',(1.55,1.89813984842468E-016,-174.435846135));
#306=VECTOR('',#426,1.0);
#307=SURFACE_SIDE_STYLE('',(#427));
#308=EDGE_LOOP('',(#428,#429,#430,#431));
#309=AXIS2_PLACEMENT_3D('',#432,#433,#434);
#310=SURFACE_SIDE_STYLE('',(#435));
#311=DRAUGHTING_PRE_DEFINED_CURVE_FONT('continuous');
#312=COLOUR_RGB('',0.800000011920929,0.800000011920929,0.800000011920929);
#313=AXIS2_PLACEMENT_3D('',#436,#437,#438);
#314=SURFACE_SIDE_STYLE('',(#439));
#315=EDGE_LOOP('',(#440,#441));
#316=AXIS2_PLACEMENT_3D('',#442,#443,#444);
#317=DRAUGHTING_PRE_DEFINED_CURVE_FONT('continuous');
#318=COLOUR_RGB('',0.800000011920929,0.800000011920929,0.800000011920929);
#319=AXIS2_PLACEMENT_3D('',#445,#446,#447);
#320=SURFACE_SIDE_STYLE('',(#448));
#321=EDGE_LOOP('',(#449,#450));
#322=AXIS2_PLACEMENT_3D('',#451,#452,#453);
#323=PRE_DEFINED_MARKER('');
#324=COLOUR_RGB('',0.498039215803146,0.498039215803146,0.498039215803146);
#325=SURFACE_SIDE_STYLE('',(#454));
#326=EDGE_LOOP('',(#455,#456,#457,#458));
#327=AXIS2_PLACEMENT_3D('',#459,#460,#461);
#328=PRE_DEFINED_MARKER('');
#329=COLOUR_RGB('',0.498039215803146,0.498039215803146,0.498039215803146);
#330=SURFACE_SIDE_STYLE('',(#462));
#331=EDGE_LOOP('',(#463,#464));
#332=AXIS2_PLACEMENT_3D('',#465,#466,#467);
#333=PRE_DEFINED_MARKER('');
#334=COLOUR_RGB('',0.498039215803146,0.498039215803146,0.498039215803146);
#335=DRAUGHTING_PRE_DEFINED_CURVE_FONT('continuous');
#336=COLOUR_RGB('',0.498039215803146,0.498039215803146,0.498039215803146);
#337=AXIS2_PLACEMENT_3D('',#468,#469,#470);
#338=DRAUGHTING_PRE_DEFINED_CURVE_FONT('continuous');
#339=COLOUR_RGB('',0.498039215803146,0.498039215803146,0.498039215803146);
#340=AXIS2_PLACEMENT_3D('',#471,#472,#473);
#341=SURFACE_SIDE_STYLE('',(#474));
#342=EDGE_LOOP('',(#475,#476,#477));
#343=AXIS2_PLACEMENT_3D('',#478,#479,#480);
#344=PRE_DEFINED_MARKER('');
#345=COLOUR_RGB('',0.498039215803146,0.498039215803146,0.498039215803146);
#346=PRE_DEFINED_MARKER('');
#347=COLOUR_RGB('',0.800000011920929,0.800000011920929,0.800000011920929);
#348=DRAUGHTING_PRE_DEFINED_CURVE_FONT('continuous');
#349=COLOUR_RGB('',0.800000011920929,0.800000011920929,0.800000011920929);
#350=CARTESIAN_POINT('',(-1.55,-1.89813984842468E-016,-174.435846135));
#351=VECTOR('',#481,1.0);
#352=DRAUGHTING_PRE_DEFINED_CURVE_FONT('continuous');
#353=COLOUR_RGB('',0.800000011920929,0.800000011920929,0.800000011920929);
#354=AXIS2_PLACEMENT_3D('',#482,#483,#484);
#355=PRE_DEFINED_MARKER('');
#356=COLOUR_RGB('',0.498039215803146,0.498039215803146,0.498039215803146);
#357=DRAUGHTING_PRE_DEFINED_CURVE_FONT('continuous');
#358=COLOUR_RGB('',0.498039215803146,0.498039215803146,0.498039215803146);
#359=CARTESIAN_POINT('',(4.65350414452503E-016,-3.8,-0.20000000000001));
#360=VECTOR('',#485,1.0);
#361=DRAUGHTING_PRE_DEFINED_CURVE_FONT('continuous');
#362=COLOUR_RGB('',0.800000011920929,0.800000011920929,0.800000011920929);
#363=CARTESIAN_POINT('',(3.1005,3.79689200002628E-016,-120.635846135));
#364=VECTOR('',#486,1.0);
#365=SURFACE_SIDE_STYLE('',(#487));
#366=EDGE_LOOP('',(#488,#489,#490,#491));
#367=AXIS2_PLACEMENT_3D('',#492,#493,#494);
#368=SURFACE_SIDE_STYLE('',(#495));
#369=EDGE_LOOP('',(#496,#497,#498));
#370=AXIS2_PLACEMENT_3D('',#499,#500,#501);
#371=PRE_DEFINED_MARKER('');
#372=COLOUR_RGB('',0.800000011920929,0.800000011920929,0.800000011920929);
#373=DRAUGHTING_PRE_DEFINED_CURVE_FONT('continuous');
#374=COLOUR_RGB('',0.498039215803146,0.498039215803146,0.498039215803146);
#375=AXIS2_PLACEMENT_3D('',#502,#503,#504);
#376=PRE_DEFINED_MARKER('');
#377=COLOUR_RGB('',0.800000011920929,0.800000011920929,0.800000011920929);
#378=SURFACE_SIDE_STYLE('',(#505));
#379=DRAUGHTING_PRE_DEFINED_CURVE_FONT('continuous');
#380=COLOUR_RGB('',0.498039215803146,0.498039215803146,0.498039215803146);
#381=AXIS2_PLACEMENT_3D('',#506,#507,#508);
#382=SURFACE_SIDE_STYLE('',(#509));
#383=EDGE_LOOP('',(#510,#511,#512,#513));
#384=AXIS2_PLACEMENT_3D('',#514,#515,#516);
#385=DRAUGHTING_PRE_DEFINED_CURVE_FONT('continuous');
#386=COLOUR_RGB('',0.800000011920929,0.800000011920929,0.800000011920929);
#387=CARTESIAN_POINT('',(-3.1005,-3.79689200002628E-016,-120.635846135));
#388=VECTOR('',#517,1.0);
#389=PRE_DEFINED_MARKER('');
#390=COLOUR_RGB('',0.800000011920929,0.800000011920929,0.800000011920929);
#391=DRAUGHTING_PRE_DEFINED_CURVE_FONT('continuous');
#392=COLOUR_RGB('',0.498039215803146,0.498039215803146,0.498039215803146);
#393=CARTESIAN_POINT('',(-4.89842541528951E-016,4.0,-22.7));
#394=VECTOR('',#518,1.0);
#395=DRAUGHTING_PRE_DEFINED_CURVE_FONT('continuous');
#396=COLOUR_RGB('',0.498039215803146,0.498039215803146,0.498039215803146);
#397=CARTESIAN_POINT('',(-4.65350414452503E-016,3.8,-0.20000000000001));
#398=VECTOR('',#519,1.0);
#399=DRAUGHTING_PRE_DEFINED_CURVE_FONT('continuous');
#400=COLOUR_RGB('',0.800000011920929,0.800000011920929,0.800000011920929);
#401=AXIS2_PLACEMENT_3D('',#520,#521,#522);
#403=SURFACE_STYLE_FILL_AREA(#523);
#404=ORIENTED_EDGE('',*,*,#153,.F.);
#405=ORIENTED_EDGE('',*,*,#113,.T.);
#406=ORIENTED_EDGE('',*,*,#81,.F.);
#407=ORIENTED_EDGE('',*,*,#145,.F.);
#408=CARTESIAN_POINT('',(0.0,0.0,-22.7));
#409=DIRECTION('',(-0.0,-0.0,1.0));
#410=DIRECTION('',(0.0,1.0,0.0));
#411=CARTESIAN_POINT('',(0.0,0.0,-1.4210854715202E-014));
#412=DIRECTION('',(0.0,0.0,-1.0));
#413=DIRECTION('',(0.0,1.0,0.0));
#414=DIRECTION('',(-0.0,-0.0,1.0));
#415=CARTESIAN_POINT('',(0.0,0.0,-45.0));
#416=DIRECTION('',(0.0,0.0,-1.0));
#417=DIRECTION('',(0.0,1.0,0.0));
#418=SURFACE_STYLE_FILL_AREA(#524);
#419=ORIENTED_EDGE('',*,*,#149,.T.);
#420=ORIENTED_EDGE('',*,*,#99,.F.);
#421=ORIENTED_EDGE('',*,*,#131,.T.);
#422=ORIENTED_EDGE('',*,*,#95,.T.);
#423=CARTESIAN_POINT('',(0.0,0.0,-120.635846135));
#424=DIRECTION('',(-0.0,-0.0,1.0));
#425=DIRECTION('',(-1.0,0.0,0.0));
#426=DIRECTION('',(0.939692620418158,1.15075355360408E-016,0.342020144336054));
#427=SURFACE_STYLE_FILL_AREA(#525);
#428=ORIENTED_EDGE('',*,*,#149,.F.);
#429=ORIENTED_EDGE('',*,*,#125,.T.);
#430=ORIENTED_EDGE('',*,*,#131,.F.);
#431=ORIENTED_EDGE('',*,*,#157,.F.);
#432=CARTESIAN_POINT('',(0.0,0.0,-120.635846135));
#433=DIRECTION('',(-0.0,-0.0,1.0));
#434=DIRECTION('',(-1.0,0.0,0.0));
#435=SURFACE_STYLE_FILL_AREA(#526);
#436=CARTESIAN_POINT('',(0.0,0.0,-67.4));
#437=DIRECTION('',(0.0,0.0,-1.0));
#438=DIRECTION('',(-1.0,0.0,0.0));
#439=SURFACE_STYLE_FILL_AREA(#527);
#440=ORIENTED_EDGE('',*,*,#79,.F.);
#441=ORIENTED_EDGE('',*,*,#139,.F.);
#442=CARTESIAN_POINT('',(0.0,1.8,-1.4210854715202E-014));
#443=DIRECTION('',(-0.0,0.0,1.0));
#444=DIRECTION('',(0.0,-1.0,0.0));
#445=CARTESIAN_POINT('',(0.0,0.0,-173.87169227));
#446=DIRECTION('',(0.0,0.0,-1.0));
#447=DIRECTION('',(-1.0,0.0,0.0));
#448=SURFACE_STYLE_FILL_AREA(#528);
#449=ORIENTED_EDGE('',*,*,#145,.T.);
#450=ORIENTED_EDGE('',*,*,#83,.T.);
#451=CARTESIAN_POINT('',(0.0,2.0,-45.0));
#452=DIRECTION('',(0.0,0.0,-1.0));
#453=DIRECTION('',(0.0,1.0,0.0));
#454=SURFACE_STYLE_FILL_AREA(#529);
#455=ORIENTED_EDGE('',*,*,#153,.T.);
#456=ORIENTED_EDGE('',*,*,#83,.F.);
#457=ORIENTED_EDGE('',*,*,#81,.T.);
#458=ORIENTED_EDGE('',*,*,#115,.T.);
#459=CARTESIAN_POINT('',(0.0,0.0,-22.7));
#460=DIRECTION('',(-0.0,-0.0,1.0));
#461=DIRECTION('',(0.0,1.0,0.0));
#462=SURFACE_STYLE_FILL_AREA(#530);
#463=ORIENTED_EDGE('',*,*,#125,.F.);
#464=ORIENTED_EDGE('',*,*,#95,.F.);
#465=CARTESIAN_POINT('',(-1.5505,0.0,-67.4));
#466=DIRECTION('',(0.0,0.0,1.0));
#467=DIRECTION('',(1.0,0.0,0.0));
#468=CARTESIAN_POINT('',(0.0,0.0,-0.400000000000013));
#469=DIRECTION('',(0.0,0.0,-1.0));
#470=DIRECTION('',(0.0,1.0,0.0));
#471=CARTESIAN_POINT('',(0.0,0.0,-0.400000000000013));
#472=DIRECTION('',(0.0,0.0,-1.0));
#473=DIRECTION('',(0.0,1.0,0.0));
#474=SURFACE_STYLE_FILL_AREA(#531);
#475=ORIENTED_EDGE('',*,*,#89,.F.);
#476=ORIENTED_EDGE('',*,*,#123,.F.);
#477=ORIENTED_EDGE('',*,*,#157,.T.);
#478=CARTESIAN_POINT('',(0.0,0.0,-174.435846135));
#479=DIRECTION('',(-0.0,-0.0,1.0));
#480=DIRECTION('',(-1.0,0.0,0.0));
#481=DIRECTION('',(0.939692620418158,1.15075355360408E-016,-0.342020144336054));
#482=CARTESIAN_POINT('',(0.0,0.0,-67.4));
#483=DIRECTION('',(0.0,0.0,-1.0));
#484=DIRECTION('',(-1.0,0.0,0.0));
#485=DIRECTION('',(-8.65927457071937E-017,0.707106781186549,0.707106781186546));
#486=DIRECTION('',(9.3921678019346E-006,1.15017083664151E-021,0.999999999955894));
#487=SURFACE_STYLE_FILL_AREA(#532);
#488=ORIENTED_EDGE('',*,*,#155,.T.);
#489=ORIENTED_EDGE('',*,*,#115,.F.);
#490=ORIENTED_EDGE('',*,*,#129,.T.);
#491=ORIENTED_EDGE('',*,*,#139,.T.);
#492=CARTESIAN_POINT('',(0.0,0.0,-0.20000000000001));
#493=DIRECTION('',(0.0,-0.0,-1.0));
#494=DIRECTION('',(0.0,1.0,0.0));
#495=SURFACE_STYLE_FILL_AREA(#533);
#496=ORIENTED_EDGE('',*,*,#89,.T.);
#497=ORIENTED_EDGE('',*,*,#99,.T.);
#498=ORIENTED_EDGE('',*,*,#123,.T.);
#499=CARTESIAN_POINT('',(0.0,0.0,-174.435846135));
#500=DIRECTION('',(-0.0,-0.0,1.0));
#501=DIRECTION('',(-1.0,0.0,0.0));
#502=CARTESIAN_POINT('',(0.0,0.0,-1.4210854715202E-014));
#503=DIRECTION('',(0.0,0.0,-1.0));
#504=DIRECTION('',(0.0,1.0,0.0));
#505=SURFACE_STYLE_FILL_AREA(#534);
#506=CARTESIAN_POINT('',(0.0,0.0,-45.0));
#507=DIRECTION('',(0.0,0.0,-1.0));
#508=DIRECTION('',(0.0,1.0,0.0));
#509=SURFACE_STYLE_FILL_AREA(#535);
#510=ORIENTED_EDGE('',*,*,#155,.F.);
#511=ORIENTED_EDGE('',*,*,#79,.T.);
#512=ORIENTED_EDGE('',*,*,#129,.F.);
#513=ORIENTED_EDGE('',*,*,#113,.F.);
#514=CARTESIAN_POINT('',(0.0,0.0,-0.20000000000001));
#515=DIRECTION('',(0.0,-0.0,-1.0));
#516=DIRECTION('',(0.0,1.0,0.0));
#517=DIRECTION('',(9.3921678019346E-006,1.15017083664151E-021,-0.999999999955894));
#518=DIRECTION('',(0.0,0.0,-1.0));
#519=DIRECTION('',(-8.65927457071937E-017,0.707106781186549,-0.707106781186546));
#520=CARTESIAN_POINT('',(0.0,0.0,-173.87169227));
#521=DIRECTION('',(0.0,0.0,-1.0));
#522=DIRECTION('',(-1.0,0.0,0.0));
#523=FILL_AREA_STYLE('',(#536));
#524=FILL_AREA_STYLE('',(#537));
#525=FILL_AREA_STYLE('',(#538));
#526=FILL_AREA_STYLE('',(#539));
#527=FILL_AREA_STYLE('',(#540));
#528=FILL_AREA_STYLE('',(#541));
#529=FILL_AREA_STYLE('',(#542));
#530=FILL_AREA_STYLE('',(#543));
#531=FILL_AREA_STYLE('',(#544));
#532=FILL_AREA_STYLE('',(#545));
#533=FILL_AREA_STYLE('',(#546));
#534=FILL_AREA_STYLE('',(#547));
#535=FILL_AREA_STYLE('',(#548));
#536=FILL_AREA_STYLE_COLOUR('',#549);
#537=FILL_AREA_STYLE_COLOUR('',#550);
#538=FILL_AREA_STYLE_COLOUR('',#551);
#539=FILL_AREA_STYLE_COLOUR('',#552);
#540=FILL_AREA_STYLE_COLOUR('',#553);
#541=FILL_AREA_STYLE_COLOUR('',#554);
#542=FILL_AREA_STYLE_COLOUR('',#555);
#543=FILL_AREA_STYLE_COLOUR('',#556);
#544=FILL_AREA_STYLE_COLOUR('',#557);
#545=FILL_AREA_STYLE_COLOUR('',#558);
#546=FILL_AREA_STYLE_COLOUR('',#559);
#547=FILL_AREA_STYLE_COLOUR('',#560);
#548=FILL_AREA_STYLE_COLOUR('',#561);
#549=COLOUR_RGB('',0.498039215803146,0.498039215803146,0.498039215803146);
#550=COLOUR_RGB('',0.800000011920929,0.800000011920929,0.800000011920929);
#551=COLOUR_RGB('',0.800000011920929,0.800000011920929,0.800000011920929);
#552=COLOUR_RGB('',0.800000011920929,0.800000011920929,0.800000011920929);
#553=COLOUR_RGB('',0.498039215803146,0.498039215803146,0.498039215803146);
#554=COLOUR_RGB('',0.498039215803146,0.498039215803146,0.498039215803146);
#555=COLOUR_RGB('',0.498039215803146,0.498039215803146,0.498039215803146);
#556=COLOUR_RGB('',0.800000011920929,0.800000011920929,0.800000011920929);
#557=COLOUR_RGB('',0.800000011920929,0.800000011920929,0.800000011920929);
#558=COLOUR_RGB('',0.498039215803146,0.498039215803146,0.498039215803146);
#559=COLOUR_RGB('',0.800000011920929,0.800000011920929,0.800000011920929);
#560=COLOUR_RGB('',0.498039215803146,0.498039215803146,0.498039215803146);
#561=COLOUR_RGB('',0.498039215803146,0.498039215803146,0.498039215803146);
#562=AXIS2_PLACEMENT_3D('PCS',#563,#564,#565);
#563=CARTESIAN_POINT('',(0.0,0.0,0.0));
#564=DIRECTION('',(0.0,0.0,1.0));
#565=DIRECTION('',(1.0,0.0,0.0));
#566=AXIS2_PLACEMENT_3D('CIP',#567,#568,#569);
#567=CARTESIAN_POINT('',(0.0,0.0,-175.0));
#568=DIRECTION('',(0.0,0.0,1.0));
#569=DIRECTION('',(1.0,0.0,0.0));
#570=AXIS2_PLACEMENT_3D('CRP',#571,#572,#573);
#571=CARTESIAN_POINT('',(-3.1,0.0,-173.87169227));
#572=DIRECTION('',(0.0,0.0,1.0));
#573=DIRECTION('',(1.0,0.0,0.0));
#574=AXIS2_PLACEMENT_3D('MCS',#575,#576,#577);
#575=CARTESIAN_POINT('',(0.0,0.0,-46.8));
#576=DIRECTION('',(0.0,0.0,1.0));
#577=DIRECTION('',(1.0,0.0,0.0));
#578=CONSTRUCTIVE_GEOMETRY_REPRESENTATION_RELATIONSHIP('coordinate systems',$,#60,#579);
#579=CONSTRUCTIVE_GEOMETRY_REPRESENTATION('coordinate systems',(#562,#566,#570,#574),#10);
ENDSEC;
END-ISO-10303-21;
