ISO-10303-21;
HEADER;
FILE_DESCRIPTION(('no description'),'unknown implementation level');
FILE_NAME('solidD1c52T7w8mdwbQ_mEEyBLpHyjQU_1.STP','  ',('CIMSOURCE GmbH'),('CADClick - KiM GmbH - www.kimweb.de'),'unknown preprocess','ACIS','unknown authorization');
FILE_SCHEMA(('automotive_design'));
ENDSEC;
DATA;
#1=MECHANICAL_DESIGN_GEOMETRIC_PRESENTATION_REPRESENTATION(' ',(#14,#15,#16,#17,#18,#19,#20,#21,#22,#23,#24,#25,#26,#27,#28,#29,#30,#31,#32,#33,#34,#35,#36,#37,#38,#39,#40,#41,#42,#43,#44,#45,#46,#47,#48,#49,#50,#51,#52,#53,#54,#55),#10);
#2=PRODUCT_DEFINITION_CONTEXT('',#56,'design');
#3=APPLICATION_PROTOCOL_DEFINITION('INTERNATIONAL STANDARD','automotive_design',1994,#56);
#4=PRODUCT_CATEGORY_RELATIONSHIP('NONE','NONE',#57,#58);
#5=SHAPE_DEFINITION_REPRESENTATION(#59,#60);
#6=PRODUCT_DEFINITION_CONTEXT('',#61,'design');
#7=APPLICATION_PROTOCOL_DEFINITION('INTERNATIONAL STANDARD','automotive_design',1994,#61);
#8=PRODUCT_CATEGORY_RELATIONSHIP('NONE','NONE',#62,#63);
#9=SHAPE_DEFINITION_REPRESENTATION(#64,#65);
#10= (GEOMETRIC_REPRESENTATION_CONTEXT(3)GLOBAL_UNCERTAINTY_ASSIGNED_CONTEXT((#68))GLOBAL_UNIT_ASSIGNED_CONTEXT((#70,#71,#72))REPRESENTATION_CONTEXT('NONE','WORKSPACE'));
#14=STYLED_ITEM('',(#74),#75);
#15=STYLED_ITEM('',(#76),#77);
#16=STYLED_ITEM('',(#78),#79);
#17=STYLED_ITEM('',(#80),#81);
#18=STYLED_ITEM('',(#82),#83);
#19=STYLED_ITEM('',(#84),#85);
#20=STYLED_ITEM('',(#86),#87);
#21=STYLED_ITEM('',(#88),#89);
#22=STYLED_ITEM('',(#90),#91);
#23=STYLED_ITEM('',(#92),#93);
#24=STYLED_ITEM('',(#94),#95);
#25=STYLED_ITEM('',(#96),#97);
#26=STYLED_ITEM('',(#98),#99);
#27=STYLED_ITEM('',(#100),#101);
#28=STYLED_ITEM('',(#102),#103);
#29=STYLED_ITEM('',(#104),#105);
#30=STYLED_ITEM('',(#106),#107);
#31=STYLED_ITEM('',(#108),#109);
#32=STYLED_ITEM('',(#110),#111);
#33=STYLED_ITEM('',(#112),#113);
#34=STYLED_ITEM('',(#114),#115);
#35=STYLED_ITEM('',(#116),#117);
#36=STYLED_ITEM('',(#118),#119);
#37=STYLED_ITEM('',(#120),#121);
#38=STYLED_ITEM('',(#122),#123);
#39=STYLED_ITEM('',(#124),#125);
#40=STYLED_ITEM('',(#126),#127);
#41=STYLED_ITEM('',(#128),#129);
#42=STYLED_ITEM('',(#130),#131);
#43=STYLED_ITEM('',(#132),#133);
#44=STYLED_ITEM('',(#134),#135);
#45=STYLED_ITEM('',(#136),#137);
#46=STYLED_ITEM('',(#138),#139);
#47=STYLED_ITEM('',(#140),#141);
#48=STYLED_ITEM('',(#142),#143);
#49=STYLED_ITEM('',(#144),#145);
#50=STYLED_ITEM('',(#146),#147);
#51=STYLED_ITEM('',(#148),#149);
#52=STYLED_ITEM('',(#150),#151);
#53=STYLED_ITEM('',(#152),#153);
#54=STYLED_ITEM('',(#154),#155);
#55=STYLED_ITEM('',(#156),#157);
#56=APPLICATION_CONTEXT(' ');
#57=PRODUCT_CATEGORY('part','NONE');
#58=PRODUCT_RELATED_PRODUCT_CATEGORY('detail',' ',(#158));
#59=PRODUCT_DEFINITION_SHAPE('NONE','NONE',#159);
#60=ADVANCED_BREP_SHAPE_REPRESENTATION('1',(#139,#160),#10);
#61=APPLICATION_CONTEXT(' ');
#62=PRODUCT_CATEGORY('part','NONE');
#63=PRODUCT_RELATED_PRODUCT_CATEGORY('detail',' ',(#161));
#64=PRODUCT_DEFINITION_SHAPE('NONE','NONE',#162);
#65=ADVANCED_BREP_SHAPE_REPRESENTATION('2',(#111,#163),#10);
#68=UNCERTAINTY_MEASURE_WITH_UNIT(LENGTH_MEASURE(1.0E-006),#70,'','');
#70= (CONVERSION_BASED_UNIT('MILLIMETRE',#166)LENGTH_UNIT()NAMED_UNIT(#169));
#71= (NAMED_UNIT(#171)PLANE_ANGLE_UNIT()SI_UNIT($,.RADIAN.));
#72= (NAMED_UNIT(#171)SOLID_ANGLE_UNIT()SI_UNIT($,.STERADIAN.));
#74=PRESENTATION_STYLE_ASSIGNMENT((#177));
#75=VERTEX_POINT('',#178);
#76=PRESENTATION_STYLE_ASSIGNMENT((#179));
#77=EDGE_CURVE('',#75,#143,#180,.T.);
#78=PRESENTATION_STYLE_ASSIGNMENT((#181));
#79=VERTEX_POINT('',#182);
#80=PRESENTATION_STYLE_ASSIGNMENT((#183));
#81=EDGE_CURVE('',#95,#109,#184,.T.);
#82=PRESENTATION_STYLE_ASSIGNMENT((#185));
#83=ADVANCED_FACE('',(#186),#187,.T.);
#84=PRESENTATION_STYLE_ASSIGNMENT((#188));
#85=ADVANCED_FACE('',(#189),#190,.T.);
#86=PRESENTATION_STYLE_ASSIGNMENT((#191));
#87=ADVANCED_FACE('',(#192),#193,.T.);
#88=PRESENTATION_STYLE_ASSIGNMENT((#194));
#89=EDGE_CURVE('',#75,#137,#195,.T.);
#90=PRESENTATION_STYLE_ASSIGNMENT((#196));
#91=ADVANCED_FACE('',(#197),#198,.T.);
#92=PRESENTATION_STYLE_ASSIGNMENT((#199));
#93=EDGE_CURVE('',#129,#157,#200,.T.);
#94=PRESENTATION_STYLE_ASSIGNMENT((#201));
#95=VERTEX_POINT('',#202);
#96=PRESENTATION_STYLE_ASSIGNMENT((#203));
#97=ADVANCED_FACE('',(#204),#205,.T.);
#98=PRESENTATION_STYLE_ASSIGNMENT((#206));
#99=EDGE_CURVE('',#79,#143,#207,.T.);
#100=PRESENTATION_STYLE_ASSIGNMENT((#208));
#101=EDGE_CURVE('',#137,#79,#209,.T.);
#102=PRESENTATION_STYLE_ASSIGNMENT((#210));
#103=ADVANCED_FACE('',(#211),#212,.T.);
#104=PRESENTATION_STYLE_ASSIGNMENT((#213));
#105=EDGE_CURVE('',#155,#147,#214,.T.);
#106=PRESENTATION_STYLE_ASSIGNMENT((#215));
#107=EDGE_CURVE('',#147,#155,#216,.T.);
#108=PRESENTATION_STYLE_ASSIGNMENT((#217));
#109=VERTEX_POINT('',#218);
#110=PRESENTATION_STYLE_ASSIGNMENT((#219));
#111=MANIFOLD_SOLID_BREP('2',#220);
#112=PRESENTATION_STYLE_ASSIGNMENT((#221));
#113=EDGE_CURVE('',#145,#147,#222,.T.);
#114=PRESENTATION_STYLE_ASSIGNMENT((#223));
#115=EDGE_CURVE('',#143,#109,#224,.T.);
#116=PRESENTATION_STYLE_ASSIGNMENT((#225));
#117=EDGE_CURVE('',#147,#129,#226,.T.);
#118=PRESENTATION_STYLE_ASSIGNMENT((#227));
#119=EDGE_CURVE('',#109,#95,#228,.T.);
#120=PRESENTATION_STYLE_ASSIGNMENT((#229));
#121=EDGE_CURVE('',#155,#145,#230,.T.);
#122=PRESENTATION_STYLE_ASSIGNMENT((#231));
#123=EDGE_CURVE('',#157,#129,#232,.T.);
#124=PRESENTATION_STYLE_ASSIGNMENT((#233));
#125=EDGE_CURVE('',#143,#75,#234,.T.);
#126=PRESENTATION_STYLE_ASSIGNMENT((#235));
#127=ADVANCED_FACE('',(#236),#237,.T.);
#128=PRESENTATION_STYLE_ASSIGNMENT((#238));
#129=VERTEX_POINT('',#239);
#130=PRESENTATION_STYLE_ASSIGNMENT((#240));
#131=EDGE_CURVE('',#79,#137,#241,.T.);
#132=PRESENTATION_STYLE_ASSIGNMENT((#242));
#133=EDGE_CURVE('',#157,#155,#243,.T.);
#134=PRESENTATION_STYLE_ASSIGNMENT((#244));
#135=ADVANCED_FACE('',(#245),#246,.T.);
#136=PRESENTATION_STYLE_ASSIGNMENT((#247));
#137=VERTEX_POINT('',#248);
#138=PRESENTATION_STYLE_ASSIGNMENT((#249));
#139=MANIFOLD_SOLID_BREP('1',#250);
#140=PRESENTATION_STYLE_ASSIGNMENT((#251));
#141=ADVANCED_FACE('',(#252),#253,.T.);
#142=PRESENTATION_STYLE_ASSIGNMENT((#254));
#143=VERTEX_POINT('',#255);
#144=PRESENTATION_STYLE_ASSIGNMENT((#256));
#145=VERTEX_POINT('',#257);
#146=PRESENTATION_STYLE_ASSIGNMENT((#258));
#147=VERTEX_POINT('',#259);
#148=PRESENTATION_STYLE_ASSIGNMENT((#260));
#149=ADVANCED_FACE('',(#261),#262,.T.);
#150=PRESENTATION_STYLE_ASSIGNMENT((#263));
#151=ADVANCED_FACE('',(#264),#265,.T.);
#152=PRESENTATION_STYLE_ASSIGNMENT((#266));
#153=EDGE_CURVE('',#95,#75,#267,.T.);
#154=PRESENTATION_STYLE_ASSIGNMENT((#268));
#155=VERTEX_POINT('',#269);
#156=PRESENTATION_STYLE_ASSIGNMENT((#270));
#157=VERTEX_POINT('',#271);
#158=PRODUCT('1','1','PART-1-DESC',(#272));
#159=PRODUCT_DEFINITION('NONE','NONE',#273,#2);
#160=AXIS2_PLACEMENT_3D('',#274,#275,#276);
#161=PRODUCT('2','2','PART-2-DESC',(#277));
#162=PRODUCT_DEFINITION('NONE','NONE',#278,#6);
#163=AXIS2_PLACEMENT_3D('',#279,#280,#281);
#166=LENGTH_MEASURE_WITH_UNIT(LENGTH_MEASURE(1.0),#282);
#169=DIMENSIONAL_EXPONENTS(1.0,0.0,0.0,0.0,0.0,0.0,0.0);
#171=DIMENSIONAL_EXPONENTS(0.0,0.0,0.0,0.0,0.0,0.0,0.0);
#177=POINT_STYLE(' ',#283,POSITIVE_LENGTH_MEASURE(1.0E-006),#284);
#178=CARTESIAN_POINT('',(0.0,6.0,-0.600000000000023));
#179=CURVE_STYLE('',#285,POSITIVE_LENGTH_MEASURE(1.0E-006),#286);
#180=CIRCLE('',#287,6.0);
#181=POINT_STYLE(' ',#288,POSITIVE_LENGTH_MEASURE(1.0E-006),#289);
#182=CARTESIAN_POINT('',(7.34763812293426E-016,-6.0,-45.0));
#183=CURVE_STYLE('',#290,POSITIVE_LENGTH_MEASURE(1.0E-006),#291);
#184=CIRCLE('',#292,5.4);
#185=SURFACE_STYLE_USAGE(.BOTH.,#293);
#186=FACE_OUTER_BOUND('',#294,.T.);
#187=CONICAL_SURFACE('',#295,5.7,0.785398163397447);
#188=SURFACE_STYLE_USAGE(.BOTH.,#296);
#189=FACE_OUTER_BOUND('',#297,.T.);
#190=CONICAL_SURFACE('',#298,5.2505,4.40355680746336E-006);
#191=SURFACE_STYLE_USAGE(.BOTH.,#299);
#192=FACE_OUTER_BOUND('',#300,.T.);
#193=CYLINDRICAL_SURFACE('',#301,6.0);
#194=CURVE_STYLE('',#302,POSITIVE_LENGTH_MEASURE(1.0E-006),#303);
#195=LINE('',#304,#305);
#196=SURFACE_STYLE_USAGE(.BOTH.,#306);
#197=FACE_OUTER_BOUND('',#307,.T.);
#198=CYLINDRICAL_SURFACE('',#308,6.0);
#199=CURVE_STYLE('',#309,POSITIVE_LENGTH_MEASURE(1.0E-006),#310);
#200=CIRCLE('',#311,5.251);
#201=POINT_STYLE(' ',#312,POSITIVE_LENGTH_MEASURE(1.0E-006),#313);
#202=CARTESIAN_POINT('',(0.0,5.4,-2.1316282072803E-014));
#203=SURFACE_STYLE_USAGE(.BOTH.,#314);
#204=FACE_OUTER_BOUND('',#315,.T.);
#205=PLANE('',#316);
#206=CURVE_STYLE('',#317,POSITIVE_LENGTH_MEASURE(1.0E-006),#318);
#207=LINE('',#319,#320);
#208=CURVE_STYLE('',#321,POSITIVE_LENGTH_MEASURE(1.0E-006),#322);
#209=CIRCLE('',#323,6.0);
#210=SURFACE_STYLE_USAGE(.BOTH.,#324);
#211=FACE_OUTER_BOUND('',#325,.T.);
#212=PLANE('',#326);
#213=CURVE_STYLE('',#327,POSITIVE_LENGTH_MEASURE(1.0E-006),#328);
#214=CIRCLE('',#329,5.25);
#215=CURVE_STYLE('',#330,POSITIVE_LENGTH_MEASURE(1.0E-006),#331);
#216=CIRCLE('',#332,5.25);
#217=POINT_STYLE(' ',#333,POSITIVE_LENGTH_MEASURE(1.0E-006),#334);
#218=CARTESIAN_POINT('',(6.61287431064084E-016,-5.4,-2.1316282072803E-014));
#219=SURFACE_STYLE_USAGE(.BOTH.,#335);
#220=CLOSED_SHELL('',(#141,#151,#103,#85,#149));
#221=CURVE_STYLE('',#336,POSITIVE_LENGTH_MEASURE(1.0E-006),#337);
#222=LINE('',#338,#339);
#223=CURVE_STYLE('',#340,POSITIVE_LENGTH_MEASURE(1.0E-006),#341);
#224=LINE('',#342,#343);
#225=CURVE_STYLE('',#344,POSITIVE_LENGTH_MEASURE(1.0E-006),#345);
#226=LINE('',#346,#347);
#227=CURVE_STYLE('',#348,POSITIVE_LENGTH_MEASURE(1.0E-006),#349);
#228=CIRCLE('',#350,5.4);
#229=CURVE_STYLE('',#351,POSITIVE_LENGTH_MEASURE(1.0E-006),#352);
#230=LINE('',#353,#354);
#231=CURVE_STYLE('',#355,POSITIVE_LENGTH_MEASURE(1.0E-006),#356);
#232=CIRCLE('',#357,5.251);
#233=CURVE_STYLE('',#358,POSITIVE_LENGTH_MEASURE(1.0E-006),#359);
#234=CIRCLE('',#360,6.0);
#235=SURFACE_STYLE_USAGE(.BOTH.,#361);
#236=FACE_OUTER_BOUND('',#362,.T.);
#237=PLANE('',#363);
#238=POINT_STYLE(' ',#364,POSITIVE_LENGTH_MEASURE(1.0E-006),#365);
#239=CARTESIAN_POINT('',(5.251,6.4304079639213E-016,-81.0));
#240=CURVE_STYLE('',#366,POSITIVE_LENGTH_MEASURE(1.0E-006),#367);
#241=CIRCLE('',#368,6.0);
#242=CURVE_STYLE('',#369,POSITIVE_LENGTH_MEASURE(1.0E-006),#370);
#243=LINE('',#371,#372);
#244=SURFACE_STYLE_USAGE(.BOTH.,#373);
#245=FACE_OUTER_BOUND('',#374,.T.);
#246=CONICAL_SURFACE('',#375,5.7,0.785398163397447);
#247=POINT_STYLE(' ',#376,POSITIVE_LENGTH_MEASURE(1.0E-006),#377);
#248=CARTESIAN_POINT('',(0.0,6.0,-45.0));
#249=SURFACE_STYLE_USAGE(.BOTH.,#378);
#250=CLOSED_SHELL('',(#87,#135,#127,#97,#83,#91));
#251=SURFACE_STYLE_USAGE(.BOTH.,#379);
#252=FACE_OUTER_BOUND('',#380,.T.);
#253=CONICAL_SURFACE('',#381,2.625,1.2217304763788);
#254=POINT_STYLE(' ',#382,POSITIVE_LENGTH_MEASURE(1.0E-006),#383);
#255=CARTESIAN_POINT('',(7.34763812293426E-016,-6.0,-0.600000000000023));
#256=POINT_STYLE(' ',#384,POSITIVE_LENGTH_MEASURE(1.0E-006),#385);
#257=CARTESIAN_POINT('',(0.0,0.0,-310.0));
#258=POINT_STYLE(' ',#386,POSITIVE_LENGTH_MEASURE(1.0E-006),#387);
#259=CARTESIAN_POINT('',(5.25,6.42918335756748E-016,-308.08915627));
#260=SURFACE_STYLE_USAGE(.BOTH.,#388);
#261=FACE_OUTER_BOUND('',#389,.T.);
#262=CONICAL_SURFACE('',#390,2.625,1.2217304763788);
#263=SURFACE_STYLE_USAGE(.BOTH.,#391);
#264=FACE_OUTER_BOUND('',#392,.T.);
#265=CONICAL_SURFACE('',#393,5.2505,4.40355680746336E-006);
#266=CURVE_STYLE('',#394,POSITIVE_LENGTH_MEASURE(1.0E-006),#395);
#267=LINE('',#396,#397);
#268=POINT_STYLE(' ',#398,POSITIVE_LENGTH_MEASURE(1.0E-006),#399);
#269=CARTESIAN_POINT('',(-5.25,0.0,-308.08915627));
#270=POINT_STYLE(' ',#400,POSITIVE_LENGTH_MEASURE(1.0E-006),#401);
#271=CARTESIAN_POINT('',(-5.251,0.0,-81.0));
#272=PRODUCT_CONTEXT('',#56,'mechanical');
#273=PRODUCT_DEFINITION_FORMATION_WITH_SPECIFIED_SOURCE(' ','NONE',#158,.NOT_KNOWN.);
#274=CARTESIAN_POINT('',(0.0,0.0,0.0));
#275=DIRECTION('',(0.0,0.0,1.0));
#276=DIRECTION('',(1.0,0.0,0.0));
#277=PRODUCT_CONTEXT('',#61,'mechanical');
#278=PRODUCT_DEFINITION_FORMATION_WITH_SPECIFIED_SOURCE(' ','NONE',#161,.NOT_KNOWN.);
#279=CARTESIAN_POINT('',(0.0,0.0,0.0));
#280=DIRECTION('',(0.0,0.0,1.0));
#281=DIRECTION('',(1.0,0.0,0.0));
#282= (NAMED_UNIT(#169)LENGTH_UNIT()SI_UNIT(.MILLI.,.METRE.));
#283=PRE_DEFINED_MARKER('');
#284=COLOUR_RGB('',0.498039215803146,0.498039215803146,0.498039215803146);
#285=DRAUGHTING_PRE_DEFINED_CURVE_FONT('continuous');
#286=COLOUR_RGB('',0.498039215803146,0.498039215803146,0.498039215803146);
#287=AXIS2_PLACEMENT_3D('',#403,#404,#405);
#288=PRE_DEFINED_MARKER('');
#289=COLOUR_RGB('',0.498039215803146,0.498039215803146,0.498039215803146);
#290=DRAUGHTING_PRE_DEFINED_CURVE_FONT('continuous');
#291=COLOUR_RGB('',0.498039215803146,0.498039215803146,0.498039215803146);
#292=AXIS2_PLACEMENT_3D('',#406,#407,#408);
#293=SURFACE_SIDE_STYLE('',(#409));
#294=EDGE_LOOP('',(#410,#411,#412,#413));
#295=AXIS2_PLACEMENT_3D('',#414,#415,#416);
#296=SURFACE_SIDE_STYLE('',(#417));
#297=EDGE_LOOP('',(#418,#419,#420,#421));
#298=AXIS2_PLACEMENT_3D('',#422,#423,#424);
#299=SURFACE_SIDE_STYLE('',(#425));
#300=EDGE_LOOP('',(#426,#427,#428,#429));
#301=AXIS2_PLACEMENT_3D('',#430,#431,#432);
#302=DRAUGHTING_PRE_DEFINED_CURVE_FONT('continuous');
#303=COLOUR_RGB('',0.498039215803146,0.498039215803146,0.498039215803146);
#304=CARTESIAN_POINT('',(-7.34763812293426E-016,6.0,-22.8));
#305=VECTOR('',#433,1.0);
#306=SURFACE_SIDE_STYLE('',(#434));
#307=EDGE_LOOP('',(#435,#436,#437,#438));
#308=AXIS2_PLACEMENT_3D('',#439,#440,#441);
#309=DRAUGHTING_PRE_DEFINED_CURVE_FONT('continuous');
#310=COLOUR_RGB('',0.800000011920929,0.800000011920929,0.800000011920929);
#311=AXIS2_PLACEMENT_3D('',#442,#443,#444);
#312=PRE_DEFINED_MARKER('');
#313=COLOUR_RGB('',0.498039215803146,0.498039215803146,0.498039215803146);
#314=SURFACE_SIDE_STYLE('',(#445));
#315=EDGE_LOOP('',(#446,#447));
#316=AXIS2_PLACEMENT_3D('',#448,#449,#450);
#317=DRAUGHTING_PRE_DEFINED_CURVE_FONT('continuous');
#318=COLOUR_RGB('',0.498039215803146,0.498039215803146,0.498039215803146);
#319=CARTESIAN_POINT('',(7.34763812293426E-016,-6.0,-22.8));
#320=VECTOR('',#451,1.0);
#321=DRAUGHTING_PRE_DEFINED_CURVE_FONT('continuous');
#322=COLOUR_RGB('',0.498039215803146,0.498039215803146,0.498039215803146);
#323=AXIS2_PLACEMENT_3D('',#452,#453,#454);
#324=SURFACE_SIDE_STYLE('',(#455));
#325=EDGE_LOOP('',(#456,#457));
#326=AXIS2_PLACEMENT_3D('',#458,#459,#460);
#327=DRAUGHTING_PRE_DEFINED_CURVE_FONT('continuous');
#328=COLOUR_RGB('',0.800000011920929,0.800000011920929,0.800000011920929);
#329=AXIS2_PLACEMENT_3D('',#461,#462,#463);
#330=DRAUGHTING_PRE_DEFINED_CURVE_FONT('continuous');
#331=COLOUR_RGB('',0.800000011920929,0.800000011920929,0.800000011920929);
#332=AXIS2_PLACEMENT_3D('',#464,#465,#466);
#333=PRE_DEFINED_MARKER('');
#334=COLOUR_RGB('',0.498039215803146,0.498039215803146,0.498039215803146);
#335=SURFACE_SIDE_STYLE('',(#467));
#336=DRAUGHTING_PRE_DEFINED_CURVE_FONT('continuous');
#337=COLOUR_RGB('',0.800000011920929,0.800000011920929,0.800000011920929);
#338=CARTESIAN_POINT('',(2.625,3.21459167878374E-016,-309.044578135));
#339=VECTOR('',#468,1.0);
#340=DRAUGHTING_PRE_DEFINED_CURVE_FONT('continuous');
#341=COLOUR_RGB('',0.498039215803146,0.498039215803146,0.498039215803146);
#342=CARTESIAN_POINT('',(6.98025621678755E-016,-5.7,-0.300000000000026));
#343=VECTOR('',#469,1.0);
#344=DRAUGHTING_PRE_DEFINED_CURVE_FONT('continuous');
#345=COLOUR_RGB('',0.800000011920929,0.800000011920929,0.800000011920929);
#346=CARTESIAN_POINT('',(5.2505,6.42979566074439E-016,-194.544578135));
#347=VECTOR('',#470,1.0);
#348=DRAUGHTING_PRE_DEFINED_CURVE_FONT('continuous');
#349=COLOUR_RGB('',0.498039215803146,0.498039215803146,0.498039215803146);
#350=AXIS2_PLACEMENT_3D('',#471,#472,#473);
#351=DRAUGHTING_PRE_DEFINED_CURVE_FONT('continuous');
#352=COLOUR_RGB('',0.800000011920929,0.800000011920929,0.800000011920929);
#353=CARTESIAN_POINT('',(-2.625,-3.21459167878374E-016,-309.044578135));
#354=VECTOR('',#474,1.0);
#355=DRAUGHTING_PRE_DEFINED_CURVE_FONT('continuous');
#356=COLOUR_RGB('',0.800000011920929,0.800000011920929,0.800000011920929);
#357=AXIS2_PLACEMENT_3D('',#475,#476,#477);
#358=DRAUGHTING_PRE_DEFINED_CURVE_FONT('continuous');
#359=COLOUR_RGB('',0.498039215803146,0.498039215803146,0.498039215803146);
#360=AXIS2_PLACEMENT_3D('',#478,#479,#480);
#361=SURFACE_SIDE_STYLE('',(#481));
#362=EDGE_LOOP('',(#482,#483));
#363=AXIS2_PLACEMENT_3D('',#484,#485,#486);
#364=PRE_DEFINED_MARKER('');
#365=COLOUR_RGB('',0.800000011920929,0.800000011920929,0.800000011920929);
#366=DRAUGHTING_PRE_DEFINED_CURVE_FONT('continuous');
#367=COLOUR_RGB('',0.498039215803146,0.498039215803146,0.498039215803146);
#368=AXIS2_PLACEMENT_3D('',#487,#488,#489);
#369=DRAUGHTING_PRE_DEFINED_CURVE_FONT('continuous');
#370=COLOUR_RGB('',0.800000011920929,0.800000011920929,0.800000011920929);
#371=CARTESIAN_POINT('',(-5.2505,-6.42979566074439E-016,-194.544578135));
#372=VECTOR('',#490,1.0);
#373=SURFACE_SIDE_STYLE('',(#491));
#374=EDGE_LOOP('',(#492,#493,#494,#495));
#375=AXIS2_PLACEMENT_3D('',#496,#497,#498);
#376=PRE_DEFINED_MARKER('');
#377=COLOUR_RGB('',0.498039215803146,0.498039215803146,0.498039215803146);
#378=SURFACE_SIDE_STYLE('',(#499));
#379=SURFACE_SIDE_STYLE('',(#500));
#380=EDGE_LOOP('',(#501,#502,#503));
#381=AXIS2_PLACEMENT_3D('',#504,#505,#506);
#382=PRE_DEFINED_MARKER('');
#383=COLOUR_RGB('',0.498039215803146,0.498039215803146,0.498039215803146);
#384=PRE_DEFINED_MARKER('');
#385=COLOUR_RGB('',0.800000011920929,0.800000011920929,0.800000011920929);
#386=PRE_DEFINED_MARKER('');
#387=COLOUR_RGB('',0.800000011920929,0.800000011920929,0.800000011920929);
#388=SURFACE_SIDE_STYLE('',(#507));
#389=EDGE_LOOP('',(#508,#509,#510));
#390=AXIS2_PLACEMENT_3D('',#511,#512,#513);
#391=SURFACE_SIDE_STYLE('',(#514));
#392=EDGE_LOOP('',(#515,#516,#517,#518));
#393=AXIS2_PLACEMENT_3D('',#519,#520,#521);
#394=DRAUGHTING_PRE_DEFINED_CURVE_FONT('continuous');
#395=COLOUR_RGB('',0.498039215803146,0.498039215803146,0.498039215803146);
#396=CARTESIAN_POINT('',(-6.98025621678755E-016,5.7,-0.300000000000026));
#397=VECTOR('',#522,1.0);
#398=PRE_DEFINED_MARKER('');
#399=COLOUR_RGB('',0.800000011920929,0.800000011920929,0.800000011920929);
#400=PRE_DEFINED_MARKER('');
#401=COLOUR_RGB('',0.800000011920929,0.800000011920929,0.800000011920929);
#403=CARTESIAN_POINT('',(0.0,0.0,-0.600000000000023));
#404=DIRECTION('',(0.0,0.0,-1.0));
#405=DIRECTION('',(0.0,1.0,0.0));
#406=CARTESIAN_POINT('',(0.0,0.0,-2.1316282072803E-014));
#407=DIRECTION('',(0.0,0.0,-1.0));
#408=DIRECTION('',(0.0,1.0,0.0));
#409=SURFACE_STYLE_FILL_AREA(#523);
#410=ORIENTED_EDGE('',*,*,#153,.T.);
#411=ORIENTED_EDGE('',*,*,#125,.F.);
#412=ORIENTED_EDGE('',*,*,#115,.T.);
#413=ORIENTED_EDGE('',*,*,#119,.T.);
#414=CARTESIAN_POINT('',(0.0,0.0,-0.300000000000026));
#415=DIRECTION('',(0.0,-0.0,-1.0));
#416=DIRECTION('',(0.0,1.0,0.0));
#417=SURFACE_STYLE_FILL_AREA(#524);
#418=ORIENTED_EDGE('',*,*,#133,.T.);
#419=ORIENTED_EDGE('',*,*,#107,.F.);
#420=ORIENTED_EDGE('',*,*,#117,.T.);
#421=ORIENTED_EDGE('',*,*,#93,.T.);
#422=CARTESIAN_POINT('',(0.0,0.0,-194.544578135));
#423=DIRECTION('',(-0.0,-0.0,1.0));
#424=DIRECTION('',(-1.0,0.0,0.0));
#425=SURFACE_STYLE_FILL_AREA(#525);
#426=ORIENTED_EDGE('',*,*,#89,.F.);
#427=ORIENTED_EDGE('',*,*,#77,.T.);
#428=ORIENTED_EDGE('',*,*,#99,.F.);
#429=ORIENTED_EDGE('',*,*,#101,.F.);
#430=CARTESIAN_POINT('',(0.0,0.0,-22.8));
#431=DIRECTION('',(-0.0,-0.0,1.0));
#432=DIRECTION('',(0.0,1.0,0.0));
#433=DIRECTION('',(0.0,0.0,-1.0));
#434=SURFACE_STYLE_FILL_AREA(#526);
#435=ORIENTED_EDGE('',*,*,#89,.T.);
#436=ORIENTED_EDGE('',*,*,#131,.F.);
#437=ORIENTED_EDGE('',*,*,#99,.T.);
#438=ORIENTED_EDGE('',*,*,#125,.T.);
#439=CARTESIAN_POINT('',(0.0,0.0,-22.8));
#440=DIRECTION('',(-0.0,-0.0,1.0));
#441=DIRECTION('',(0.0,1.0,0.0));
#442=CARTESIAN_POINT('',(0.0,0.0,-81.0));
#443=DIRECTION('',(0.0,0.0,-1.0));
#444=DIRECTION('',(-1.0,0.0,0.0));
#445=SURFACE_STYLE_FILL_AREA(#527);
#446=ORIENTED_EDGE('',*,*,#81,.F.);
#447=ORIENTED_EDGE('',*,*,#119,.F.);
#448=CARTESIAN_POINT('',(0.0,2.7,-2.1316282072803E-014));
#449=DIRECTION('',(-0.0,0.0,1.0));
#450=DIRECTION('',(0.0,-1.0,0.0));
#451=DIRECTION('',(-0.0,-0.0,1.0));
#452=CARTESIAN_POINT('',(0.0,0.0,-45.0));
#453=DIRECTION('',(0.0,0.0,-1.0));
#454=DIRECTION('',(0.0,1.0,0.0));
#455=SURFACE_STYLE_FILL_AREA(#528);
#456=ORIENTED_EDGE('',*,*,#123,.F.);
#457=ORIENTED_EDGE('',*,*,#93,.F.);
#458=CARTESIAN_POINT('',(-2.6255,0.0,-81.0));
#459=DIRECTION('',(0.0,0.0,1.0));
#460=DIRECTION('',(1.0,0.0,0.0));
#461=CARTESIAN_POINT('',(0.0,0.0,-308.08915627));
#462=DIRECTION('',(0.0,0.0,-1.0));
#463=DIRECTION('',(-1.0,0.0,0.0));
#464=CARTESIAN_POINT('',(0.0,0.0,-308.08915627));
#465=DIRECTION('',(0.0,0.0,-1.0));
#466=DIRECTION('',(-1.0,0.0,0.0));
#467=SURFACE_STYLE_FILL_AREA(#529);
#468=DIRECTION('',(0.939692620780015,1.15075355404721E-016,0.342020143341861));
#469=DIRECTION('',(-8.65927457071934E-017,0.707106781186546,0.707106781186549));
#470=DIRECTION('',(4.40355680744913E-006,5.39262364581999E-022,0.999999999990304));
#471=CARTESIAN_POINT('',(0.0,0.0,-2.1316282072803E-014));
#472=DIRECTION('',(0.0,0.0,-1.0));
#473=DIRECTION('',(0.0,1.0,0.0));
#474=DIRECTION('',(0.939692620780015,1.15075355404721E-016,-0.342020143341861));
#475=CARTESIAN_POINT('',(0.0,0.0,-81.0));
#476=DIRECTION('',(0.0,0.0,-1.0));
#477=DIRECTION('',(-1.0,0.0,0.0));
#478=CARTESIAN_POINT('',(0.0,0.0,-0.600000000000023));
#479=DIRECTION('',(0.0,0.0,-1.0));
#480=DIRECTION('',(0.0,1.0,0.0));
#481=SURFACE_STYLE_FILL_AREA(#530);
#482=ORIENTED_EDGE('',*,*,#101,.T.);
#483=ORIENTED_EDGE('',*,*,#131,.T.);
#484=CARTESIAN_POINT('',(0.0,3.0,-45.0));
#485=DIRECTION('',(0.0,0.0,-1.0));
#486=DIRECTION('',(0.0,1.0,0.0));
#487=CARTESIAN_POINT('',(0.0,0.0,-45.0));
#488=DIRECTION('',(0.0,0.0,-1.0));
#489=DIRECTION('',(0.0,1.0,0.0));
#490=DIRECTION('',(4.40355680744913E-006,5.39262364581999E-022,-0.999999999990304));
#491=SURFACE_STYLE_FILL_AREA(#531);
#492=ORIENTED_EDGE('',*,*,#153,.F.);
#493=ORIENTED_EDGE('',*,*,#81,.T.);
#494=ORIENTED_EDGE('',*,*,#115,.F.);
#495=ORIENTED_EDGE('',*,*,#77,.F.);
#496=CARTESIAN_POINT('',(0.0,0.0,-0.300000000000026));
#497=DIRECTION('',(0.0,-0.0,-1.0));
#498=DIRECTION('',(0.0,1.0,0.0));
#499=SURFACE_STYLE_FILL_AREA(#532);
#500=SURFACE_STYLE_FILL_AREA(#533);
#501=ORIENTED_EDGE('',*,*,#113,.F.);
#502=ORIENTED_EDGE('',*,*,#121,.F.);
#503=ORIENTED_EDGE('',*,*,#105,.T.);
#504=CARTESIAN_POINT('',(0.0,0.0,-309.044578135));
#505=DIRECTION('',(-0.0,-0.0,1.0));
#506=DIRECTION('',(-1.0,0.0,0.0));
#507=SURFACE_STYLE_FILL_AREA(#534);
#508=ORIENTED_EDGE('',*,*,#113,.T.);
#509=ORIENTED_EDGE('',*,*,#107,.T.);
#510=ORIENTED_EDGE('',*,*,#121,.T.);
#511=CARTESIAN_POINT('',(0.0,0.0,-309.044578135));
#512=DIRECTION('',(-0.0,-0.0,1.0));
#513=DIRECTION('',(-1.0,0.0,0.0));
#514=SURFACE_STYLE_FILL_AREA(#535);
#515=ORIENTED_EDGE('',*,*,#133,.F.);
#516=ORIENTED_EDGE('',*,*,#123,.T.);
#517=ORIENTED_EDGE('',*,*,#117,.F.);
#518=ORIENTED_EDGE('',*,*,#105,.F.);
#519=CARTESIAN_POINT('',(0.0,0.0,-194.544578135));
#520=DIRECTION('',(-0.0,-0.0,1.0));
#521=DIRECTION('',(-1.0,0.0,0.0));
#522=DIRECTION('',(-8.65927457071934E-017,0.707106781186546,-0.707106781186549));
#523=FILL_AREA_STYLE('',(#536));
#524=FILL_AREA_STYLE('',(#537));
#525=FILL_AREA_STYLE('',(#538));
#526=FILL_AREA_STYLE('',(#539));
#527=FILL_AREA_STYLE('',(#540));
#528=FILL_AREA_STYLE('',(#541));
#529=FILL_AREA_STYLE('',(#542));
#530=FILL_AREA_STYLE('',(#543));
#531=FILL_AREA_STYLE('',(#544));
#532=FILL_AREA_STYLE('',(#545));
#533=FILL_AREA_STYLE('',(#546));
#534=FILL_AREA_STYLE('',(#547));
#535=FILL_AREA_STYLE('',(#548));
#536=FILL_AREA_STYLE_COLOUR('',#549);
#537=FILL_AREA_STYLE_COLOUR('',#550);
#538=FILL_AREA_STYLE_COLOUR('',#551);
#539=FILL_AREA_STYLE_COLOUR('',#552);
#540=FILL_AREA_STYLE_COLOUR('',#553);
#541=FILL_AREA_STYLE_COLOUR('',#554);
#542=FILL_AREA_STYLE_COLOUR('',#555);
#543=FILL_AREA_STYLE_COLOUR('',#556);
#544=FILL_AREA_STYLE_COLOUR('',#557);
#545=FILL_AREA_STYLE_COLOUR('',#558);
#546=FILL_AREA_STYLE_COLOUR('',#559);
#547=FILL_AREA_STYLE_COLOUR('',#560);
#548=FILL_AREA_STYLE_COLOUR('',#561);
#549=COLOUR_RGB('',0.498039215803146,0.498039215803146,0.498039215803146);
#550=COLOUR_RGB('',0.800000011920929,0.800000011920929,0.800000011920929);
#551=COLOUR_RGB('',0.498039215803146,0.498039215803146,0.498039215803146);
#552=COLOUR_RGB('',0.498039215803146,0.498039215803146,0.498039215803146);
#553=COLOUR_RGB('',0.498039215803146,0.498039215803146,0.498039215803146);
#554=COLOUR_RGB('',0.800000011920929,0.800000011920929,0.800000011920929);
#555=COLOUR_RGB('',0.800000011920929,0.800000011920929,0.800000011920929);
#556=COLOUR_RGB('',0.498039215803146,0.498039215803146,0.498039215803146);
#557=COLOUR_RGB('',0.498039215803146,0.498039215803146,0.498039215803146);
#558=COLOUR_RGB('',0.498039215803146,0.498039215803146,0.498039215803146);
#559=COLOUR_RGB('',0.800000011920929,0.800000011920929,0.800000011920929);
#560=COLOUR_RGB('',0.800000011920929,0.800000011920929,0.800000011920929);
#561=COLOUR_RGB('',0.800000011920929,0.800000011920929,0.800000011920929);
#562=AXIS2_PLACEMENT_3D('PCS',#563,#564,#565);
#563=CARTESIAN_POINT('',(0.0,0.0,0.0));
#564=DIRECTION('',(0.0,0.0,1.0));
#565=DIRECTION('',(1.0,0.0,0.0));
#566=AXIS2_PLACEMENT_3D('CIP',#567,#568,#569);
#567=CARTESIAN_POINT('',(0.0,0.0,-310.0));
#568=DIRECTION('',(0.0,0.0,1.0));
#569=DIRECTION('',(1.0,0.0,0.0));
#570=AXIS2_PLACEMENT_3D('CRP',#571,#572,#573);
#571=CARTESIAN_POINT('',(-5.25,0.0,-308.08915627));
#572=DIRECTION('',(0.0,0.0,1.0));
#573=DIRECTION('',(1.0,0.0,0.0));
#574=AXIS2_PLACEMENT_3D('MCS',#575,#576,#577);
#575=CARTESIAN_POINT('',(0.0,0.0,-46.6));
#576=DIRECTION('',(0.0,0.0,1.0));
#577=DIRECTION('',(1.0,0.0,0.0));
#578=CONSTRUCTIVE_GEOMETRY_REPRESENTATION_RELATIONSHIP('coordinate systems',$,#60,#579);
#579=CONSTRUCTIVE_GEOMETRY_REPRESENTATION('coordinate systems',(#562,#566,#570,#574),#10);
ENDSEC;
END-ISO-10303-21;
